Oops, an error
Loading. Please wait.

Lose Control Tab

ver2
ver2

Whole song

More versions @911Tabs.com
916 views 1 this week
2 commentsread comments
1 2 3 4 5
excellent!
x 2
Autoscroll
+/-
esc
set tempo
stop
Contributor
Difficulty
Tuning
intermediate
D A D G B E
Hey! There's an official Ultimate Guitar app which is ideal
for learning songs when you're away from computer. Get the app
WARNING: You are trying to view
                                    content from Ultimate-Guitar.com
                                    in an unauthorized application,
                                    which is prohibited.

                                    Please use an official Ultimate
                                    Guitar Tabs application for iPhone,
                                    iPad or Android to access legitimate
                                    chords, guitar, bass, and drum tabs
                                    from Ultimate-Guitar.com database.

                                    Type "ultimate guitar tabs" in Apple
                                    App Store's or Android Market's
                                    search to find the application.
House of Heroes- Lose Control

~=let ring
/=slide up
\=slide down
h=hammer-on
x=palm mute
*=palm mute

Intro: Guitar 1
E|-------------------------------------------------------------------------------------------|
B|-------------------------------------------------------------------------------------------|
G|-------------------------------------------------------------------------------------------|
D|-000-333-555-666-77-1010-000-333-555-666-77-1010-------------------------------------------|
A|-000-333-555-666-77-1010-000-333-555-666-77-1010-------------------------------------------|
D|-000-333-555-666-77-1010-000-333-555-666-77-1010-------------------------------------------|
Guitar 2
E|-------------------------------------------------------------------------------------------|
B|-------------------------------------------------------------------------------------------|
G|-------------------------------------------------------------------------------------------|
D|-000-333-555-666-77-1010-000-333-555-666-77-1010-------------------------------------------|
A|-000-333-555-666-77-1010-000-333-555-666-77-1010-------------------------------------------|
D|-000-333-555-666-77-1010-000-333-555-666-77-1010-------------------------------------------|

Verse 1: Guitar 1
E|----------------------------|--------------------------------------------------------------|
B|----------------------------|--------------------------------------------------------------|
G|----------------------------|--------------------------------------------------------------|
D|----------------------------|8888888888-77-55-33/10/12-10/12-10/12-10/12-------------------|(x5)
A|----------------------------|8888888888-77-55-33/10/12-10/12-10/12-10/12-------------------|
D|-10/12-10/12-10/12-10/12-15\|8888888888-77-55-33/10/12-10/12-10/12-10/12-15\---------------|
Guitar 2
E|----------------------------|-------------------------------------------------|
B|----------------------------|-------------------------------------------------|
G|----------------------------|-------------------------------------------------|
D|----------------------------|-------------------------------------------------|(x5)
A|----------------------------|-------------------------------------------------|
D|-------------------------15\|8888888888-77-55-33/10/12-10/12-10/12-10/12-15\--|
                              ^ Repeat here
Guitar 1
E|-------------------------------------------------------------------------------------------|
B|-------------------------------------------------------------------------------------------|
G|-------------------------------------------------------------------------------------------|
D|-8888888888-77-55-33/10/12-10/12-10/12-10/12-15\-8888888888-77-55-33-5555555555-7777-0-----|
A|-8888888888-77-55-33/10/12-10/12-10/12-10/12-15\-8888888888-77-55-33-5555555555-7777-0-----|
D|-8888888888-77-55-33/10/12-10/12-10/12-10/12-15\-8888888888-77-55-33-5555555555-7777-0-----|
Guitar 2
E|-------------------------------------------------------------------------------------------|
B|-------------------------------------------------------------------------------------------|
G|-------------------------------------------------------------------------------------------|
D|-------------------------------------------------------------------------------------0-----|
A|---------------------7/8---7/8---7/8----7/8--12\-------------------------------------0-----|
D|---------------------------------------------------------------------5555555555-7777-0-----|

Pre-Chorus: Guitar 1
E|-------------------------------------------------------------------------------------------|
B|-------------------------------------------------------------------------------------------|
G|-------------------------------------------------------------------------------------------|
D|-000-333-555-666---------------------------------------------------------------------------|
A|-000-333-555-666---------------------------------------------------------------------------|
D|-000-333-555-666-7h10~---------------------------------------------------------------------|
Guitar 2
E|-------------------------------------------------------------------------------------------|
B|-------------------------------------------------------------------------------------------|
G|-------------------------------------------------------------------------------------------|
D|-000-333-555-666---------------------------------------------------------------------------|
A|-000-333-555-666---------------------------------------------------------------------------|
D|-000-333-555-666---------------------------------------------------------------------------|

Chorus: Guitar 1
E|-------------------------------------------------------------------------------------------|
B|-------------------------------------------------------------------------------------------|
G|-------------------------------------------------------------------------------------------|
D|-0-0-00-0-3-3-33-3/8-8-88-8\5-5-7--3--0-0-00-0-3-3-33-3/8-8-88-8\5-5-7--3--0~--------------|
A|-0-0-00-0-3-3-33-3/8-8-88-8\5-5-7--3--0-0-00-0-3-3-33-3/8-8-88-8\5-5-7--3--0~--------------|
D|-0-0-00-0-3-3-33-3/8-8-88-8\5-5-7--3--0-0-00-0-3-3-33-3/8-8-88-8\5-5-7--3--0~--------------|
Guitar 2= It's difficult to tab out because it's hard to hear.
E|-------------------------------------------------------------------------------------------|
B|-------------------------------------------------------------------------------------------|
G|-7-7-77-7-10-10-1010-10/15-15-1515-15\12-12----------7-7-77-7-10-10-1010-10/15-15-1515-----|
D|-7-7-77-7-10-10-1010-10/15-15-1515-15\12-12--7--3--0-7-7-77-7-10-10-1010-10/15-15-1515-----|
A|-5-5-55-5-8--8--8-8--8-/13-13-1313-13\10-10--7--3--0-5-5-55-5-8--8--8-8--8-/13-13-1313-----|
D|---------------------------------------------7--3--0---------------------------------------|

Guitar 2
E|-------------------------------------------------------------------------------------------|
B|-------------------------------------------------------------------------------------------|
G|-15\12-12----------------------------------------------------------------------------------|
D|-15\12-12-7--3--0--------------------------------------------------------------------------|
A|-12\10-10-7--3--0--------------------------------------------------------------------------|
D|----------7--3--0--------------------------------------------------------------------------|

Chorus outro: Guitar 1      Verse 2: Guitar 1
E|-------------------------|-----------------------------------------------------------------|
B|-------------------------|-----------------------------------------------------------------|
G|-------------------------|-----------------------------------------------------------------|
D|-000-333-555-666-77-1010-|-10/12-10/12-10/12-10/12-15\-8888888888-77-55-33/----------------|(x3)
A|-000-333-555-666-77-1010-|-10/12-10/12-10/12-10/12-15\-8888888888-77-55-33/----------------|
D|-000-333-555-666-77-1010-|-10/12-10/12-10/12-10/12-15\-8888888888-77-55-33/----------------|
Guitar 2
E|-------------------------|-----------------------------------------------------------------|
B|-------------------------|-----------------------------------------------------------------|
G|-------------------------|-----------------------------------------------------------------|(x3)
D|-000-333-555-666-77-1010-|-----------------------------------------------------------------|
A|-000-333-555-666-77-1010-|-----------------------------------------------------------------|
D|-000-333-555-666-77-1010-|-10/12-10/12-10/12-10/12-15\-8888888888-77-55-33/----------------|

Guitar 1 & 2
E|-------------------------------------------------------------------------------------------|
B|-------------------------------------------------------------------------------------------|
G|-------------------------------------------------------------------------------------------|
D|-555555555555-7777-000000000000-00-00------------------------------------------------------|
A|-555555555555-7777-000000000000-00-00------------------------------------------------------|
D|-555555555555-7777-000000000000-00-00------------------------------------------------------|

Pre-Chorus: Guitar 1 & 2
E|-------------------------------------------------------------------------------------------|
B|-------------------------------------------------------------------------------------------|
G|-------------------------------------------------------------------------------------------|
D|-000-333-555-666-77-1010--000-333-555-666--------------------------------------------------|
A|-000-333-555-666-77-1010--000-333-555-666--------------------------------------------------|
D|-000-333-555-666-77-1010--000-333-555-666-7h10---------------------------------------------|
   *** *** *** *** **  * *
Chorus: Guitar 1
E|-------------------------------------------------------------------------------------------|
B|-------------------------------------------------------------------------------------------|
G|-------------------------------------------------------------------------------------------|
D|-0-0-00-0-3-3-33-3/8-8-88-8\5-5-7--3--0-0-00-0-3-3-33-3/8-8-88-8\5-5-7--3------------------|
A|-0-0-00-0-3-3-33-3/8-8-88-8\5-5-7--3--0-0-00-0-3-3-33-3/8-8-88-8\5-5-7--3------------------|
D|-0-0-00-0-3-3-33-3/8-8-88-8\5-5-7--3--0-0-00-0-3-3-33-3/8-8-88-8\5-5-7--3------------------|

Guitar 2
E|-------------------------------------------------------------------------------------------|
B|-------------------------------------------------------------------------------------------|
G|-7-7-77-7-10-10-1010-10/15-15-1515-15\12-12----------7-7-77-7-10-10-1010-10/15-15-1515-----|
D|-7-7-77-7-10-10-1010-10/15-15-1515-15\12-12--7--3--0-7-7-77-7-10-10-1010-10/15-15-1515-----|
A|-5-5-55-5-8--8--8-8--8-/13-13-1313-13\10-10--7--3--0-5-5-55-5-8--8--8-8--8-/13-13-1313-----|
D|---------------------------------------------7--3--0---------------------------------------|

Guitar 2
E|-------------------------------------------------------------------------------------------|
B|-------------------------------------------------------------------------------------------|
G|-15\12-12----------------------------------------------------------------------------------|
D|-15\12-12-7--3--0~-------------------------------------------------------------------------|
A|-13\10-10-7--3--0~-------------------------------------------------------------------------|
D|----------7--3--0~-------------------------------------------------------------------------|

Bridge: Guitar 1
E|-------------------------------------------------------------------------------------------|
B|-------------------------------------------------------------------------------------------|
G|-------------------------------------------------------------------------------------------|
D|-0000-0000-0-0-0000-3333-3333-3-3-3333-5555-5555-5-5-5555-8888-8-8-10-10-11111111----------|
A|-0000-0000-0-0-0000-3333-3333-3-3-3333-5555-5555-5-5-5555-8888-8-8-10-10-11111111----------|
D|-0000-0000-0-0-0000-3333-3333-3-3-3333-5555-5555-5-5-5555-8888-8-8-10-10-11111111----------|
   **** **** * * **** **** **** * * **** **** **** * * **** **** * *  *  *  * * * *

E|-------------------------------------------------------------------------------------------|
B|-------------------------------------------------------------------------------------------|
G|-------------------------------------------------------------------------------------------|
D|-------------------------------------------------------------------------------------------|
A|-------------------------------------------------------------------------------------------|
D|-3-0-3-0-3-0-3-0-3-0-333~--5-0-5-0-5-0-5-0-5-0-555~-8-0-8-0-8-0-8-0-10-0-10-0-11-----------|

E|-------------------------------------------------------------------------------------------|
B|-------------------------------------------------------------------------------------------|
G|-------------------------------------------------------------------------------------------|
D|---------------------------------------------------------------------------------5555-7777-|
A|---------------------------------------------------------------------------------5555-7777-|
D|-0-11-0-12--------------------------0-0-3-0-3-5-3-0--0-3-0-5-3-0--0-3-0-3-5-3-0--5555-7777-|

E|-------------------------------------------------------------------------------------------|
B|-------------------------------------------------------------------------------------------|
G|-------------------------------------------------------------------------------------------|
D|-5~----7~--0~-----3~----5~----8~--10~------------------------------------------------------|
A|-5~----7~--0~-----3~----5~----8~--10~------------------------------------------------------|
D|-5~----7~--0~-----3~----5~----8~--10~------------------------------------------------------|

Guitar 2
E|-------------------------------------------------------------------------------------------|
B|-------------------------------------------------------------------------------------------|
G|-------------------------------------------------------------------------------------------|
D|-------------------------------------------------------------------------------------------|
A|-------------------------------------------------------------------------------------------|
D|-000-333-555-666-77-10-10-000-333-555-666-77-1010------------------------------------------| x2

Guitar 1 
E|-------------------------------------------------------------------------------------------|
B|-15-15-15-18-18-18-17-17-17-14-14-14-15-15-14-14-15-15-15-18-18-18-17-17-17-14-14-14-15b---|
G|-------------------------------------------------------------------------------------------|
D|-------------------------------------------------------------------------------------------|
A|-------------------------------------------------------------------------------------------|
D|-------------------------------------------------------------------------------------------|

Chorus: Guitar 1
E|-------------------------------------------------------------------------------------------|
B|-------------------------------------------------------------------------------------------|
G|-------------------------------------------------------------------------------------------|once)
A|-0000000000000000-3333333333333333-8888888888888888-55555555-7777-3333---------------------|
D|-0000000000000000-3333333333333333-8888888888888888-55555555-7777-3333---------------------|

Guitar 2 (second time through this chorus)
E|-10-10-10-10-10-10-10-10-10-10-10-10-10-10-10-10-10-10-10-10-10-10-10-13131313131313-------|
B|-x--x--x--x--x--x--x--x--x--x--x--x--x--x--x--x--x--x--x--x--x--x--x--15151515151515-------|
G|-7--7--7--7--7--7--7--7--7--7--7--7--7--7--7--7--7--7--7--7--7--7--7--14141414141414-------|
D|-------------------------------------------------------------------------------------------|
A|-------------------------------------------------------------------------------------------|
D|-------------------------------------------------------------------------------------------|


Chorus Outro: Guitar 1 & 2
E|-------------------------|
B|-------------------------|
G|-------------------------|
D|-000-333-555-666-7-10-0--|
A|-000-333-555-666-7-10-0--|
D|-000-333-555-666-7-10-0--|

If you see anything wrong, please, don't hesitate to comment. :)
comments
We did not receive enough feedback on this tab! Please rate:
print report bad tab
1 2 3 4 5
2 comments total.
0 reply
linds4lif wrote on January 22 2010, 06:04 pm

beautiful.

0 reply
nickjlunn wrote on January 23 2010, 01:04 pm

thank you linds

I want to post or [tab]
guest
You may want to rate the tab now too:
select rating
Please do not post tabs as comments. Select "correction" instead!