Oops, an error
Loading. Please wait.

Minas Tirith Tab

4,255 views 6 this week
no commentswrite comment
1 2 3 4 5
please rate
add to favorites launch autoscroll
font size
0
reset
Autoscroll
+/-
esc
set tempo
stop
Contributor
WARNING: You are trying to view
                                    content from Ultimate-Guitar.com
                                    in an unauthorized application,
                                    which is prohibited.

                                    Please use an official Ultimate
                                    Guitar Tabs application for iPhone,
                                    iPad or Android to access legitimate
                                    chords, guitar, bass, and drum tabs
                                    from Ultimate-Guitar.com database.

                                    Type "ultimate guitar tabs" in Apple
                                    App Store's or Android Market's
                                    search to find the application.
#----------------------------------PLEASE NOTE---------------------------------#
#This file is the author's own work and represents their interpretation of the #
#song. You may only use this file for private study, scholarship, or research. #
#------------------------------------------------------------------------------#

MINAS TIRITH
As recorded by Howard Shore
(From the 2003 Album LORD OF THE RINGS - THE RETURN OF THE KING O.S.T.)

Transcribed by mpamps
        

Words by Philippa Boyens Music by Howard Shore

Gtr I (B E A D G B E) - 'String Ensemble 1'
Gtr II (E A D G B E) - 'String Ensemble 2'
Gtr III (E A D G B E) - 'French Horn'
Gtr IV (E A D G B E) - 'Clarinet'
Gtr V (E A D G B E) - 'Brass Section'

 Intro
  Q=120
  Bmaj7/Eb
 4/4
  Gtr I
  <
  W           +W             +W           +W
|-7---------|-(7)----------|-(7)--------|-(7)----|
|-----------|--------------|------------|--------|
|-----------|--------------|------------|--------|
|-----------|--------------|------------|--------|
|-----------|--------------|------------|--------|
|-----------|--------------|------------|--------|
|-----------|--------------|------------|--------|
|
| Gtr II
| W           +W             +W           +W
|-----------|--------------|------------|--------|
|-----------|--------------|------------|--------|
|-----------|--------------|------------|--------|
|-8---------|-(8)----------|-(8)--------|-(8)----|
|-6---------|-(6)----------|-(6)--------|-(6)----|
|-----------|--------------|------------|--------|
|
| Gtr III
| H    H       H.      E E    W            W
|------6----|------------6-|--9---------|--6-----|
|-----------|--9-------9---|------------|--------|
|-8---------|--------------|------------|--------|
|-----------|--------------|------------|--------|
|-----------|--------------|------------|--------|
|-----------|--------------|------------|--------|


  Eb5    Bmaj7/Eb            Cmaj7/E    Emadd2
   H     H      +W           W           W
|--6-----7----|-(7)--------|----------|--3-----|
|-------------|------------|-8--------|--7-----|
|-------------|------------|----------|--------|
|-------------|------------|-5--------|--5-----|
|-------------|------------|----------|--9-----|
|-------------|------------|----------|--------|
|-------------|------------|----------|--------|
|
| +W            +W           W          +W
|-------------|------------|----------|--------|
|-------------|------------|----------|--------|
|-------------|------------|----------|--------|
|-(8)---------|-(8)--------|-9--------|-(9)----|
|-(6)---------|-(6)--------|-7--------|-(7)----|
|-------------|------------|----------|--------|
|
| +W            +W           W           W
|-(6)---------|-(6)--------|----------|--------|
|-------------|------------|-8--------|--7-----|
|-------------|------------|----------|--------|
|-------------|------------|----------|--------|
|-------------|------------|----------|--------|
|-------------|------------|----------|--------|


  Bbm                           Am
  W              W              W              W
|-------------|---------------|-------------|----------------|
|-------------|---------------|-------------|--5-------------|
|-6-----------|---------------|-5-----------|----------------|
|-------------|--8------------|-------------|----------------|
|-------------|---------------|-------------|----------------|
|-------------|---------------|-------------|----------------|
|-------------|---------------|-------------|----------------|
|
| W             +W              W             +W
|-------------|---------------|-------------|----------------|
|-------------|---------------|-5-----------|-(5)------------|
|-6-----------|-(6)-----------|-5-----------|-(5)------------|
|-8-----------|-(8)-----------|-7-----------|-(7)------------|
|-8-----------|-(8)-----------|-------------|----------------|
|-------------|---------------|-------------|----------------|
|
| Gtr IV
|    <               >             <
| Q  Q  Q  Q     Q   Q  Q  Q    Q  Q  Q  Q     Q   Q  Q  Q
|-------------|---------------|-------------|------0--0------|
|----------2--|--2------------|----1--1--1--|--1---------1---|
|-------3-----|------3--3-----|-------------|----------------|
|----3--------|------------3--|-------------|----------------|
|-------------|---------------|-------------|----------------|
|-------------|---------------|-------------|----------------|


  Bmaj7/Bb   B            Cm
  W           W           W             W
|----------|------------|-------------|--------------|
|----------|------------|-------------|--------------|
|-4--------|--3---------|-------------|--------------|
|----------|------------|-------------|--------------|
|----------|------------|-------------|--------------|
|----------|------------|-------------|--------------|
|----------|------------|-------------|--------------|
|
| W          +W           Q  Q  Q  q    Q  Q  Q  q
|----------|------------|-------------|--------------|
|----------|------------|-------3--4--|-------3--4---|
|-8--------|-(8)--------|----5--------|----5---------|
|-8--------|-(8)--------|-5-----------|-5------------|
|----------|------------|-3-----------|-3------------|
|----------|------------|-------------|--------------|
|                         W             W
|
| W           W           W             W
|----------|------------|-------------|--------------|
|----------|------------|-------------|--------------|
|-4--------|--3---------|-------------|--------------|
|----------|------------|-------------|--------------|
|----------|------------|-------------|--------------|
|----------|------------|-------------|--------------|


  Cm
  Gtr II
  Q  Q  Q  q     Q   q  Q  q    Q  Q  Q  q    Q  Q  Q  q
|-------------|---------------|-3--3--2-----|-3--3--2------|
|-------3--4--|--4---3-----3--|----------4--|----------4---|
|----5--------|---------5-----|-------------|--------------|
|-5-----------|-(5)-----------|-5-----------|-5------------|
|-3-----------|-(3)-----------|-3-----------|-3------------|
|-------------|---------------|-------------|--------------|
  W             +W              W             W


  Cm
  Gtr I
  W             W             Q   H.           +W
|-------------|-------------|---------------|-----------------|
|-------------|-------------|----12---------|-(12)------------|
|-------------|-------------|---------------|-----------------|
|-------------|-------------|-----9---------|--(9)------------|
|-------------|-------------|---------------|-----------------|
|-------------|-------------|---------------|-----------------|
|-------------|-------------|---------------|-----------------|
|
| Gtr II
| Q  Q  Q  q    Q  Q  Q  Q    Q   Q   Q  q      Q   Q  Q  q
|-------------|----2--2--3--|---------------|-----------------|
|-------3--4--|-4-----------|---------3--4--|----------3--4---|
|----5--------|-------------|-----5---------|-------5---------|
|-5-----------|-5-----------|-5-------------|---5-------------|
|-3-----------|-3-----------|-3-------------|---3-------------|
|-------------|-------------|---------------|-----------------|
  W             W             W                 W


                                  Cm
                                   <
   W              +W               W
|--8-----------|--(8)-----------|--9----||
|-12-----------|-(12)-----------|-------||
|--5-----------|--(5)-----------|-11----||
|--9-----------|--(9)-----------|-11----||
|--------------|----------------|-------||
|--------------|----------------|-------||
|--------------|----------------|-------||
|  W              +W
|
|                                  <
|  Q  Q  Q  q      Q   Q  Q  q     W
|--------------|----------------|-^3----||
|--------3--4--|---4---3-----3--|-^4----||
|-----5--------|----------5-----|-------||
|--5-----------|---5------------|-^5----||
|--3-----------|---3------------|-^3----||
|--------------|----------------|-------||
   W               W


  Faster Q=152
  D5
 3/4
  E  E E E E E   E  E E E E E   E  E E E E E    E  E E E E E
|--------------|--------------|--------------|---------------|
|------5-6-8-6-|-5--6-----5-6-|------5-6-8-6-|--5--6-----5-6-|
|----7---------|--------7-----|----7---------|---------7-----|
|-7------------|------7-------|-7------------|-------7-------|
|--------------|--------------|--------------|---------------|
|--------------|--------------|--------------|---------------|
|--------------|--------------|--------------|---------------|
|
| Q    E E Q     Q    E E Q     H.             +H.
|--------------|--------------|-8------------|-(8)-----------|
|--------------|--------------|--------------|---------------|
|-7------------|-7------------|-7------------|--7------------|
|------7-7-----|------7-7-----|------7-7-----|-------7-7-----|
|----------5---|----------5---|----------5---|-----------5---|
|--------------|--------------|--------------|---------------|
|                               Q    E E Q      Q    E E Q
|
| Gtrs III, V
| H.             H.             H.             +H.
|--------------|-5------------|--------------|---------------|
|--------------|--------------|-8------------|-(8)-----------|
|-7------------|--------------|--------------|---------------|
|--------------|--------------|--------------|---------------|
|--------------|--------------|--------------|---------------|
|--------------|--------------|--------------|---------------|


  D5
  E  E E E E E    E  E E E E E    E  E  E  E  E E     E  E  E  E  E E
|--------------|---------------|--------------5-7-|---8--7--5----------|
|------5-6-8-6-|--5--6-----5-6-|-----5--6--8------|------------8--5----|
|----7---------|---------7-----|--7---------------|-----------------5--|
|-7------------|-------7-------|------------------|--------------------|
|--------------|---------------|------------------|--------------------|
|--------------|---------------|------------------|--------------------|
|--------------|---------------|------------------|--------------------|
|
| H.             +H.              H.                  H.
|-7------------|-(7)-----------|------------------|---8----------------|
|--------------|---------------|-10---------------|-(10)---------------|
|-7------------|--7------------|------------------|--------------------|
|------7-7-----|-------7-7-----|-12---------------|--12----------------|
|----------5---|-----------5---|-------12-12------|--------12-12-------|
|--------------|---------------|-------------10---|--------------10----|
| Q    E E Q      Q    E E Q      Q     E  E  Q       Q     E  E  Q
|
| H.             +H        E E    H.                 +H.
|--------------|---------------|------------------|--------------------|
|-6------------|-(6)-------6-8-|--5---------------|--(5)---------------|
|--------------|---------------|------------------|--------------------|
|--------------|---------------|------------------|--------------------|
|--------------|---------------|------------------|--------------------|
|--------------|---------------|------------------|--------------------|


  D5                                                              Dm
  E  E E E E E   E  E E E E E   E  E  E E  E  E    E  E E E E E    Q   Q  Q
|--------------|--------------|-----------------|---------------|-------------|
|------5-6-8-6-|-5--6-----5-6-|-------5-6--8--6-|--5--6-----5-6-|--3---5--6---|
|----7---------|--------7-----|----7------------|---------7-----|-------------|
|-7------------|------7-------|-7---------------|-------7-------|--0---2--3---|
|--------------|--------------|-----------------|---------------|-------------|
|--------------|--------------|-----------------|---------------|-------------|
|--------------|--------------|-----------------|---------------|-------------|
|
| Q    E E Q     Q    E E Q     Q     E E  Q       Q    E E Q      H.
|--------------|--------------|-----------------|---------------|--5----------|
|--------------|--------------|-----------------|---------------|--6----------|
|-7------------|-7------------|-7---------------|--7------------|--7----------|
|------7-7-----|------7-7-----|-------7-7-------|-------7-7-----|-------------|
|----------5---|----------5---|------------5----|-----------5---|------5--5---|
|--------------|--------------|-----------------|---------------|-------------|
|                                                                  Q   Q  Q
|
| H.             H.             H.                +H.              Q   H
|--------------|-5------------|-----------------|---------------|-10----------|
|--------------|--------------|-5---------------|-(5)-----------|-------------|
|-7------------|--------------|-5---------------|---------------|--7----------|
|--------------|--------------|----7------(7)---|-(7)-------7-7-|-------------|
|--------------|--------------|-----------------|---------------|-------------|
|--------------|--------------|-----------------|---------------|-------------|
                                E  Q.     +Q      +H        E E


  G/D          Dm            G/D          Dm           Bm/D
   Q   Q  Q     Q    Q  Q     Q   Q  Q     Q   Q  Q     Q   Q  Q
|------------|-------------|------------|------------|-------------||
|--3---5--6--|--3----5--6--|--3---5--6--|--3---5--6--|--3---5--6---||
|------------|-------------|------------|------------|-------------||
|--0---2--3--|--0----2--3--|--0---2--3--|--0---2--3--|--0---2--3---||
|------------|-------------|------------|------------|-------------||
|------------|-------------|------------|------------|-------------||
|------------|-------------|------------|------------|-------------||
|
|  H.           H.            H.           H.           H.
|--7---------|--5----------|--7---------|--5---------|--7----------||
|--8---------|--6----------|--8---------|--6---------|--7----------||
|--7---------|--7----------|--7---------|--7---------|--7----------||
|------------|-------------|------------|------------|-------------||
|------5--5--|-------5--5--|------5--5--|------5--5--|------5--5---||
|------------|-------------|------------|------------|-------------||
|  Q   Q  Q     Q    Q  Q     Q   Q  Q     Q   Q  Q     Q   Q  Q
|
|  Q   H        Q    H        H.           H.           H.
|-10---------|------17-----|-15---------|-13---------|-12----------||
|------------|-15----------|------------|------------|-------------||
|--7---------|------14-----|-12---------|-10---------|--9----------||
|------------|-12----------|------------|------------|-------------||
|------------|-------------|------------|------------|-------------||
|------------|-------------|------------|------------|-------------||


 Minas Tirith Song
  Am            G         Cadd4     Dm/A        Bmadd4
  E  E +H       H.        H.          H.        H.
|-------------|---------|---------|---1-------|-3-----|
|----5-(5)----|-3-------|-5-------|---5-------|-5-----|
|-------------|-4-------|-5-------|-----------|-0-----|
|-7-----------|-5-------|-3-------|---3-------|-------|
|-3-----------|-5-------|-7-------|-----------|-------|
|-5-----------|---------|---------|-----------|-------|
|-------------|---------|---------|-----------|-------|
| H.
|
| H.            H.        H.          H.        H.
|-------------|-1-------|-3-------|-^10-------|-7-----|
|-5-----------|-3-------|-5-------|-^10-------|-5-----|
|-5-----------|---------|---------|-^10-------|-7-----|
|-2-----------|-3-------|-5-------|-^-7-------|-9-----|
|-------------|---------|---------|-----------|-------|
|-------------|---------|---------|-----------|-------|


  A5         E5/D       C5         D5
   H.         H.         H.         H.         +H.
|----------|----------|----------|----------|---------|
|-10-------|-12-------|-13-------|-15-------|-(15)----|
|--9-------|-10-------|-12-------|-14-------|-(14)----|
|--7-------|--9-------|-10-------|-12-------|-(12)----|
|----------|----------|----------|----------|---------|
|----------|----------|----------|----------|---------|
|----------|----------|----------|----------|---------|
|
|  H.         H.         H.         H.         +H.
|--5-------|--7-------|--8-------|-10-------|-(10)----|
|--3-------|--5-------|--6-------|--8-------|--(8)----|
|--5-------|--7-------|--9-------|-10-------|-(10)----|
|----------|----------|----------|----------|---------|
|----------|----------|----------|----------|---------|
|----------|----------|----------|----------|---------|


                          A5         G
   +H.         +H.         H.         H.
|-----------|-----------|----------|--------|
|-(15)------|-(15)------|-10-------|-12-----|
|-(14)------|-(14)------|--9-------|-12-----|
|-(12)------|-(12)------|--7-------|--9-----|
|-----------|-----------|----------|--------|
|-----------|-----------|----------|--------|
|-----------|-----------|----------|--------|
|
|  +H.         +H.         H.         H.
|-(10)------|-(10)------|--5-------|--7-----|
|--(8)------|--(8)------|--5-------|--8-----|
|-(10)------|-(10)------|--7-------|--7-----|
|-----------|-----------|-10-------|--9-----|
|-----------|-----------|----------|--------|
|-----------|-----------|----------|--------|


  F/A                    G/D
   +H.         H.         H.          H.
|-----------|--8-------|-(8)------|--(8)----||
|-(12)------|-10-------|-12-------|-(12)----||
|-(12)------|----------|----------|---9-----||
|--(9)------|-10-------|-12-------|---------||
|-----------|----------|----------|---------||
|-----------|----------|----------|---------||
|-----------|----------|----------|---------||
|
|  +H.         H.         H.         +H.
|--(7)------|----------|----------|---------||
|--(8)------|-10-------|-12-------|-(12)----||
|--(7)------|--9-------|-10-------|-(10)----||
|--(9)------|--7-------|-(7)------|--(7)----||
|-----------|----------|----------|---------||
|-----------|----------|----------|---------||


  Slowly Q=60
  D5
 4/4
  Gtrs III, V
   Q   Q  E  Q.      H      H       Q    Q  E  Q.      Q.    S  S  H
|-10--------------|--8-----------|-10---------------|-------------------||
|-----10--8-10----|--------10----|------10--8-10----|-13----10-13-15----||
|--7--------------|--5-----------|--7---------------|-------------------||
|------7--5--7----|---------7----|-------7--5--7----|-10-----7-10-12----||
|-----------------|--------------|------------------|-------------------||
|-----------------|--------------|------------------|-------------------||
|
| Gtr II
|  W                +W             +W                 +W
|-----------------|--------------|------------------|-------------------||
|--3--------------|-(3)----------|-(3)--------------|-(3)---------------||
|-----------------|--------------|------------------|-------------------||
|--0--------------|-(0)----------|-(0)--------------|-(0)---------------||
|-----------------|--------------|------------------|-------------------||
|-----------------|--------------|------------------|-------------------||


  Q=120
  E5
   H       H         +H        H
|-----------------|-------------------|
|-----------------|-----------10------|
|---------12------|-(12)--------------|
|-14--------------|-(14)--------------|
|-----------------|-------------------|
|-----------------|-------------------|
|  W                 +W
|
|  W                  W
|-----------------|-------------------|
|-----------------|-------------------|
|--4--------------|---4---------------|
|--2-2-----2------|---2--2-----2------|
|-----------------|-------------------|
|-----------------|-------------------|
   E E Q   E E Q      E  E Q   E E Q


 2/4         4/4                 6/4
   +H          Q    Q   Q    Q      W.
|-----------|-------------------|--12-----|
|-(10)------|------12--13---15--|-(15)----|
|-(12)------|-14----------------|-(14)----|
|-(14)------|-14----------------|-(14)----|
|-----------|-------------------|---------|
|-----------|-------------------|---------|
|              W
|
|  +H          W                    W.
|-----------|-------------------|---------|
|-----------|--5----------------|--(5)----|
|--(4)------|--2----------------|--(2)----|
|---2--2----|--2-2------2-------|---2-----|
|-----------|-------------------|---------|
|-----------|-------------------|---------|
    E  E Q     E E  Q   E E  Q


 Mithrandir Song
  Brightly Q=168
  N.C.
 4/4
  Gtr I
  E E E E E E E E    E  E E E E E E E    E  E E E E E E E
|-----------------|-------------------|-------------------|
|-----------------|-------------------|-------------------|
|-------2-------2-|---------2-------2-|---------2-------2-|
|---2-3-----2-3---|-----2-3-----2-3---|-----2-3-----2-3---|
|-5-------5-------|--5--------5-------|--5--------5-------|
|-----------------|-------------------|-------------------|
|-----------------|-------------------|-------------------|
|
| Gtr II
| W                 +W                  +W
|-----------------|-------------------|-------------------|
|-----------------|-------------------|-------------------|
|-7---------------|-(7)---------------|-(7)---------------|
|-----------------|-------------------|-------------------|
|-----------------|-------------------|-------------------|
|-----------------|-------------------|-------------------|
|
| Gtrs III, V
| W                  W                   W
|-----------------|-------------------|-------------------|
|-----------------|-------------------|-------------------|
|-----------------|-------------------|-------------------|
|-----------------|-------------------|-------------------|
|-----------------|-------------------|-------------------|
|-----------------|-------------------|-------------------|


   E  E E E E E E E    E  E E E E E E E
|-------------------|---------------------|
|-------------------|---------------------|
|---------2-------2-|---------2-------2---|
|-----2-3-----2-3---|-----2-3-----2-3-----|
|--5--------5-------|--5--------5---------|
|-------------------|---------------------|
|-------------------|---------------------|
|
| +H        H          W
|-------------------|---------------------|
|-------------------|---------------------|
|-(7)---------------|---------------------|
|-------------------|---------------------|
|-------------------|---------------------|
|-------------------|---------------------|
|
|  H        H         +W
|-----------1-------|-(1)-----------------|
|-----------3-------|-(3)-----------------|
|-----------4-------|-(4)-----------------|
|-------------------|---------------------|
|-------------------|---------------------|
|-------------------|---------------------|


   E  E E E E E E E   E E E E E E E E   E E E E E E E E   E E E E E E E E
|-------------------|-----------------|-----------------|-----------------|
|-------------------|-----------------|-----------------|-----------------|
|---------2-------2-|-------2-------2-|-------2-------2-|-------2-------2-|
|-----2-3-----2-3---|---2-3-----2-3---|---2-3-----2-3---|---2-3-----2-3---|
|--5--------5-------|-5-------5-------|-5-------5-------|-5-------5-------|
|-------------------|-----------------|-----------------|-----------------|
|-------------------|-----------------|-----------------|-----------------|
|
| Gtrs III, V
| +W                  W                 W                 W
|-(1)---------------|-----------------|-----------------|-----------------|
|-(3)---------------|-----------------|-----------------|-----------------|
|-(4)---------------|-----------------|-----------------|-----------------|
|-------------------|-----------------|-----------------|-----------------|
|-------------------|-----------------|-----------------|-----------------|
|-------------------|-----------------|-----------------|-----------------|


  E E E E E E E E   E E E E E E E E   E E E E E E E E
|-----------------|-----------------|-----------------|
|-----------------|-----------------|-----------------|
|-------2-------2-|-------2-------2-|-------2-------2-|
|---2-3-----2-3---|---2-3-----2-3---|---2-3-----2-3---|
|-5-------5-------|-5-------5-------|-5-------5-------|
|-----------------|-----------------|-----------------|
|-----------------|-----------------|-----------------|
|
| W                 W                 W
|-----------------|-----------------|-----------------|
|-----------------|-----------------|-----------------|
|-----------------|-----------------|-----------------|
|-----------------|-----------------|-----------------|
|-----------------|-----------------|-----------------|
|-----------------|-----------------|-----------------|


  E E E E E E E E   W           W
|-----------------|----------|--------|
|-----------------|----------|--------|
|-------2-------2-|----------|--------|
|---2-3-----2-3---|----------|--------|
|-5-------5-------|----------|--------|
|-----------------|----------|--------|
|-----------------|----------|--------|
|
|                   Gtr II
| W                 W          +W
|-----------------|-1--------|-(1)----|
|-----------------|-3--------|-(3)----|
|-----------------|-4--------|-(4)----|
|-----------------|----------|--------|
|-----------------|----------|--------|
|-----------------|----------|--------|


   W            +H      H       W            H.       Q     W
|-10---------|-(10)----12----|------------|--------------|--------|
|------------|---------------|-10---------|-11-------10--|--8-----|
|--7---------|--(7)-----9----|------------|--------------|--------|
|------------|---------------|--7---------|--8--------7--|--5-----|
|------------|---------------|------------|--------------|--------|
|------------|---------------|------------|--------------|--------|
|------------|---------------|------------|--------------|--------|
|
| +W            +W             +W           +W             +W
|-(1)--------|--(1)----------|-(1)--------|-(1)----------|-(1)----|
|-(3)--------|--(3)----------|-(3)--------|-(3)----------|-(3)----|
|-(4)--------|--(4)----------|-(4)--------|-(4)----------|-(4)----|
|------------|---------------|------------|--------------|--------|
|------------|---------------|------------|--------------|--------|
|------------|---------------|------------|--------------|--------|


                                                               2/4
   Q    H.         +Q    Q  H       H.       Q     +W            +H
|---------------|----------------|--------------|-------------|---------|
|-10------------|----------------|--------------|-------------|---------|
|------10-------|-(10)--12--9----|-10--------7--|--(7)--------|--(7)----|
|--7------------|----------------|--------------|-------------|---------|
|-------8-------|--(8)--10--7----|--8--------5--|--(5)--------|--(5)----|
|---------------|----------------|--------------|-------------|---------|
|---------------|----------------|--------------|-------------|---------|
|
| +W               +W              +W              +W            +H
|-(1)-----------|--(1)-----------|-(1)----------|--(1)--------|--(1)----|
|-(3)-----------|--(3)-----------|-(3)----------|--(3)--------|--(3)----|
|-(4)-----------|--(4)-----------|-(4)----------|--(4)--------|--(4)----|
|---------------|----------------|--------------|-------------|---------|
|---------------|----------------|--------------|-------------|---------|
|---------------|----------------|--------------|-------------|---------|
|
| Gtrs III, V
|  W                W               H.       Q     +W            +H
|---------------|----------------|-13-------10--|-(10)--------|-(10)----|
|---------------|----------------|--------------|-------------|---------|
|---------------|----------------|--------------|-------------|---------|
|---------------|----------------|--------------|-------------|---------|
|---------------|----------------|--------------|-------------|---------|
|---------------|----------------|--------------|-------------|---------|


 Gondor Theme
  Q=148
  D5
 4/4
  Gtr II
   q  q   E E Q     q  q  E E Q     q  q  E E Q     q  q  E E Q
|--5--5---5-5----|--5--5--5-5----|--5--5--5-5----|--5--5--5-5-----|
|--3--3---3-3----|--3--3--3-3----|--3--3--3-3----|--3--3--3-3-----|
|----------------|---------------|---------------|----------------|
|----------------|---------------|---------------|----------------|
|----------------|---------------|---------------|----------------|
|----------------|---------------|---------------|----------------|
|
| Gtrs III, V
|  H      H         W               W               W
|--------17------|-15------------|-13------------|-12-------------|
|-15-------------|---------------|---------------|----------------|
|----------------|---------------|---------------|----------------|
|----------------|---------------|---------------|----------------|
|----------------|---------------|---------------|----------------|
|----------------|---------------|---------------|----------------|


  Gtr I
    H      H         W                W               W
|-----------------|----------------|---------------|-------------------|
|-----------------|----------------|---------------|-------------------|
|----------7------|----------------|--7------------|--5----------------|
|---7-------------|-10-------------|---------------|--5----------------|
|-----------------|----------------|---------------|-------------------|
|-----------------|----------------|---------------|-------------------|
|-----------------|----------------|---------------|-------------------|
|
| Gtr II
|   q   q  E E Q     q  q   E E Q     q  q  E E Q     q   q  E E  Q
|---5---5--5-5----|--5--5---5-5----|--5--5--5-5----|--5---5--5-5-------|
|---3---3--3-3----|--3--3---3-3----|--3--3--3-3----|--3---3--3-3-------|
|-----------------|----------------|---------------|-------------------|
|-----------------|----------------|---------------|-------------------|
|-----------------|----------------|---------------|-------------------|
|-----------------|----------------|---------------|-------------------|
|
| Gtrs III, V
|  +W                H      H         W               H.          E  E
|-(12)------------|--------17------|-15------------|-------------17-20-|
|-----------------|-15-------------|---------------|-15----------------|
|-----------------|----------------|---------------|-------------------|
|-----------------|----------------|---------------|-------------------|
|-----------------|----------------|---------------|-------------------|
|-----------------|----------------|---------------|-------------------|


                                    Bb
   W               +W                W               +W
|---------------|-----------------|---------------|-----------------|
|---------------|-----------------|---------------|-----------------|
|---------------|-----------------|---------------|-----------------|
|--7------------|--(7)------------|--8------------|--(8)------------|
|--5------------|--(5)------------|--8------------|--(8)------------|
|---------------|-----------------|---------------|-----------------|
|---------------|-----------------|---------------|-----------------|
|
|  q  q  E E Q      q   q  E E Q     q  q  E E Q      q   q  E E Q
|--5--5--5-5----|---5---5--5-5----|---------------|-----------------|
|--3--3--3-3----|---3---3--3-3----|--3--3--3-3----|---3---3--3-3----|
|---------------|-----------------|--3--3--3-3----|---3---3--3-3----|
|---------------|-----------------|--3--3--3-3----|---3---3--3-3----|
|---------------|-----------------|---------------|-----------------|
|---------------|-----------------|---------------|-----------------|
|
|  W               +W                W               +W
|-22------------|-(22)------------|-22------------|-(22)------------|
|---------------|-----------------|---------------|-----------------|
|---------------|-----------------|---------------|-----------------|
|---------------|-----------------|---------------|-----------------|
|---------------|-----------------|---------------|-----------------|
|---------------|-----------------|---------------|-----------------|


  Dm                                   F                  Dm
  Gtr II
   Q  Q   E E Q     Q   Q  E E  Q       Q   Q   E  E Q     Q   Q   E E  Q
|--5--5---5-5----|--7---7--7-7-------|--8---8---8--8----|--5---5---5-5-----|
|--6--6---6-6----|--8---8--8-8-------|-10--10--10-10----|--6---6---6-6-----|
|--7--7---7-7----|--7---7--7-7-------|-10--10--10-10----|--7---7---7-7-----|
|----------------|-------------------|------------------|------------------|
|----------------|-------------------|------------------|------------------|
|----------------|-------------------|------------------|------------------|
|
| Gtrs III, V
|  H      H         H.          E  E    W                  W
|--------17------|-15----------15-17-|-20---------------|-17-----------17--|
|-15-------------|-------------------|------------------|-----15--20-------|
|----------------|-------------------|------------------|------------------|
|----------------|-------------------|------------------|------------------|
|----------------|-------------------|------------------|------------------|
|----------------|-------------------|------------------|------------------|
                                                           Q   Q   Q    Q


  Bb                      C
  Gtr I
   S  S  E  +H.            H      +Q.      S  S
|-----------------------|-----------------------|
|-----------------------|-----------------------|
|-----------------------|-----------------------|
|-12-10-12-(12)---------|-14-----(14)-----12-14-|
|-----------------------|-----------------------|
|-----------------------|-----------------------|
|-----------------------|-----------------------|
|
| Gtr II
|  Q         Q   E E Q     Q  Q    E  E Q
|--6---------6---6-6----|--8--8----8--8---------|
|--6---------6---6-6----|--8--8----8--8---------|
|--7---------7---7-7----|--9--9----9--9---------|
|-----------------------|-----------------------|
|-----------------------|-----------------------|
|-----------------------|-----------------------|
|
| Gtrs III, V
|  S  S  E  +H.            H      +Q.      S  S
|-----------------------|-----------------------|
|-15-13-15-(15)---------|-17-----(17)-----15-17-|
|-----------------------|-----------------------|
|-----------------------|-----------------------|
|-----------------------|-----------------------|
|-----------------------|-----------------------|


  Dm                 A
   W                  Q   H.
|------------------|------------|
|------------------|------------|
|------------------|-12--14-----|
|-15---------------|------------|
|------------------|------------|
|------------------|------------|
|------------------|------------|
|
|  Q   Q   E  E Q     Q   H.
|-10--10--10-10----|-12--12-----|
|-10--10--10-10----|-14--14-----|
|-10--10--10-10----|-14--14-----|
|------------------|------------|
|------------------|------------|
|------------------|------------|
|
|  W                  Q   H.
|------------------|-15--17-----|
|-18---------------|------------|
|------------------|------------|
|------------------|------------|
|------------------|------------|
|------------------|------------|


  Dm               G                   F                      G
   H      H         H.          E  E    H.             E  E    W
|----------------|-------------------|----------------------|------------------|
|----------------|-------------------|-13----------------13-|-15---------------|
|--------14------|-12----------12-14-|----------------14----|------------------|
|-12-------------|-------------------|----------------------|------------------|
|----------------|-------------------|----------------------|------------------|
|----------------|-------------------|----------------------|------------------|
|----------------|-------------------|----------------------|------------------|
|
|  Q  Q   E E Q     Q   Q  E E  Q       Q    Q   E  E  Q       Q   Q   E E  Q
|--5--5---5-5----|--7---7--7-7-------|--8----8---8--8-------|--7---7---7-7-----|
|--6--6---6-6----|--8---8--8-8-------|-10---10--10-10-------|--8---8---8-8-----|
|--7--7---7-7----|--7---7--7-7-------|-10---10--10-10-------|--7---7---7-7-----|
|----------------|-------------------|----------------------|------------------|
|----------------|-------------------|----------------------|------------------|
|----------------|-------------------|----------------------|------------------|
|
|  H      H         H.          E  E    H.             E  E    W
|--------17------|-15----------15-17-|-20-------------17-20-|-22------19---22--|
|-15-------------|-------------------|----------------------|-----20-----------|
|----------------|-------------------|----------------------|------------------|
|----------------|-------------------|----------------------|------------------|
|----------------|-------------------|----------------------|------------------|
|----------------|-------------------|----------------------|------------------|
                                                               Q   Q   Q    Q


  Bb                      C
   S  S  E  +H.            H      +Q.      S  S
|-----------------------|-----------------------|
|-----------------------|-----------------------|
|-----------------------|-----------------------|
|-14-12-14-(14)---------|-15-----(15)-----14-15-|
|-----------------------|-----------------------|
|-----------------------|-----------------------|
|-----------------------|-----------------------|
|
|  Q         Q   E E Q     Q  Q    E  E Q
|--6---------6---6-6----|--8--8----8--8---------|
|--6---------6---6-6----|--8--8----8--8---------|
|--7---------7---7-7----|--9--9----9--9---------|
|-----------------------|-----------------------|
|-----------------------|-----------------------|
|-----------------------|-----------------------|
|
|  S  S  E  +H.            H      +Q.      S  S
|-----------------------|-----------------------|
|-17-15-17-(17)---------|-18-----(18)-----17-18-|
|-----------------------|-----------------------|
|-----------------------|-----------------------|
|-----------------------|-----------------------|
|-----------------------|-----------------------|


  Dm                 A
   W                  Q   H.
|------------------|------------|
|------------------|------------|
|-12---------------|-12--14-----|
|------------------|------------|
|------------------|------------|
|------------------|------------|
|------------------|------------|
|
|  Q   Q   E  E Q     Q   H.
|-10--10--10-10----|-12--12-----|
|-10--10--10-10----|-14--14-----|
|-10--10--10-10----|-14--14-----|
|------------------|------------|
|------------------|------------|
|------------------|------------|
|
|  W                  Q   H.
|-15---------------|-15--17-----|
|------------------|------------|
|------------------|------------|
|------------------|------------|
|------------------|------------|
|------------------|------------|


  Bb                             Dm
                                3/4          2/4       4/4
   H.       Q      H.       Q     Q    H       +H        W           +W
|--------------|---------------|------------|---------|-----------|---------*|
|--------------|---------------|------------|---------|--5--------|--(5)----*|
|-15-----------|--15-----------|-------7----|--(7)----|--6--------|--(6)----*|
|-15-------15--|--15-------15--|--7----7----|--(7)----|--7--------|--(7)----*|
|----------13--|---------------|--8---------|---------|--7--------|--(7)----*|
|--------------|---------------|------------|---------|-----------|---------*|
|--------------|---------------|------------|---------|-----------|---------*|
|
|  W              +W              H.           +H        W           +W
|-10-----------|-(10)----------|-10---------|-(10)----|-----------|---------*|
|-11-----------|-(11)----------|-10---------|-(10)----|--5--------|--(5)----*|
|-10-----------|-(10)----------|-10---------|-(10)----|--6--------|--(6)----*|
|--------------|---------------|------------|---------|--7--------|--(7)----*|
|--------------|---------------|------------|---------|-----------|---------*|
|--------------|---------------|------------|---------|-----------|---------*|
|
|  H.       Q      H.       Q     Q    H        H        W           +W
|-18-----------|--18-----------|------------|---------|-----------|---------*|
|----------18--|-----------18--|------10----|--10-----|-10--------|-(10)----*|
|--------------|---------------|-10---------|---------|-----------|---------*|
|--------------|---------------|------------|---------|-----------|---------*|
|--------------|---------------|------------|---------|-----------|---------*|
|--------------|---------------|------------|---------|-----------|---------*|



Duration Legend
---------------
W - whole; H - half; Q - quarter; E - 8th; S - 16th; T - 32nd; X - 64th; a - acciaccatura
+ - note tied to previous; . - note dotted; .. - note double dotted
Uncapitalized letters represent notes that are staccato (1/2 duration)
Irregular groupings are notated above the duration line
Duration letters will always appear directly above the note/fret number it represents the
duration for.  Duration letters with no fret number below them represent rests.  Multi-
bar rests are notated in the form Wxn, where n is the number of bars to rest for.  Low
melody durations appear below the staff

Tablature Legend
----------------
 h   - hammer-on
 p   - pull-off
 b   - bend
 pb  - pre-bend
 r   - bend release (if no number after the r, then release immediately)
 /\  - slide into or out of (from/to "nowhere")
 s   - legato slide
 S   - shift slide
 - natural harmonic
[n]  - artificial harmonic
n(n) - tapped harmonic
 ~   - vibrato
 tr  - trill
 T   - tap
 TP  - trem. picking
 PM  - palm muting
\n/  - tremolo bar dip; n = amount to dip
 \n  - tremolo bar down
 n/  - tremolo bar up
/n\  - tremolo bar inverted dip
 =   - hold bend; also acts as connecting device for hammers/pulls
 <> - volume swell (louder/softer)
 x   - on rhythm slash represents muted slash
 o   - on rhythm slash represents single note slash

Misc Legend
-----------
 |  - bar
||  - double bar
||o - repeat start
o|| - repeat end
*|  - double bar (ending)
 :  - bar (freetime)
 $  - Segno
 &  - Coda
Tempo markers -  = BPM(8/16=s8/s16), where s8 = swing 8ths, s16 = swing 16ths

comments
We did not receive enough feedback on this tab! Please rate:
print report bad tab
1 2 3 4 5
I want to post or [tab]
guest
You may want to rate the tab now too:
select rating
Please do not post tabs as comments. Select "correction" instead!