Oops, an error
Loading. Please wait.

Way Back Into Love Tab

ver1
ver1

Intro

Whole song

Interactive

More versions @911Tabs.com
53,137 views 65 this week
2 commentsread comments
1 2 3 4 5
accurate
x 7
Autoscroll
+/-
esc
set tempo
stop
Difficulty
novice
Hey! There's an official Ultimate Guitar app which is ideal
for learning songs when you're away from computer. Get the app
WARNING: You are trying to view
                                    content from Ultimate-Guitar.com
                                    in an unauthorized application,
                                    which is prohibited.

                                    Please use an official Ultimate
                                    Guitar Tabs application for iPhone,
                                    iPad or Android to access legitimate
                                    chords, guitar, bass, and drum tabs
                                    from Ultimate-Guitar.com database.

                                    Type "ultimate guitar tabs" in Apple
                                    App Store's or Android Market's
                                    search to find the application.
This is my first tab ever! I saw this film today and i love it. the lyrics on some of 
really touch you, And tbh. We all know Hugh grant is sexy for 46 ;) ... Oh dear lmaoo. I 
only 12 please be nice :) I dont get guitar lessons, i taught myself so im not quite sure about it but
www.myspace.com/x_sammybob_x add it if you wanna talk about it or see if i could maybe 
another tab for you.. If i can do it

If you listen to the song, you can get the timing of the solo bits right, and if your 
and know what notes the intro is (I do tbh..) you can play them on piano :)

Thankyou for reading xx

n yes. i have put the difficulty as novice cos even i can do it. away:P

Sam ..  yes i am a girl.


Way back into love - Hugh grant & haylet bennett.

Music and lyrics soundtrack


E| 13--15--17--18--17--15--10--13--13-- 13--15--17--18--15--10--15--15--|
B|----------------------------------------------------------------------|
G|----------------------------------------------------------------------|
D|----------------------------------------------------------------------|
A|----------------------------------------------------------------------|
E|----------------------------------------------------------------------|

E|--15--15--15--13--11--10--8--15--15--15--15--13--11--10-10--11--10--8--|
B|-----------------------------------------------------------------------|
G|-----------------------------------------------------------------------|
D|-----------------------------------------------------------------------|
A|-----------------------------------------------------------------------|
E|-----------------------------------------------------------------------|

1st verse

Bb		      Gm
I've been living with a shadow overhead
Bb		           Gm
I've been sleeping with a cloud above my bed
Cm		   Bb	F
I've been lonely for so long
Cm		                       Bb	      F
Trapped in the past, I just can't seem to move on

2nd verse
Bb		        Gm
I've been hiding all my hopes and dreams away
Bb	              Gm
Just in case I ever need em again someday
Cm		  Bb	F
 I've been setting aside time
 Cm		                  Bb	     F
To clear a little space in the corners of my mind


Chorus

Bb	       Gm              Eb	       Bb
All I want to do is find a way back into love
Bb	           Gm                        Eb	     Bb
I can't make it through without a way back into love
      F        Eb F
Oh oh oh


3rd verse
Bb		              Gm
I've been watching but the stars refuse to shine
Bb		           Gm
I've been searching but I just don't see the signs
Cm	         Bb          F
I know that it's out there
Cm		  	         Bb	        F
There's got to be something for my soul somewhere

4th verse
Bb		     Gm
I've been looking for someone to shed some light
Bb		              Gm
Not just somebody just to get me through the night
Cm		       Bb  F
I could use some direction
Cm	             Bb         F
And I'm open to your suggestions


Chorus

Bb	       Gm              Eb	         Bb
All I want to do is find a way back into love
Bb	           Gm                        Eb	       Bb
I can't make it through without a way back into love
Cm
And if I open my heart again
Cm				  F
I guess I'm hoping you'll be there for me in the end

E|-6--6--6--6--6--8--6-6-6--6--6--6--8--6--6--|
B|---6--6--6--6---------------6--6--6--6------|
G|--------------------------------------------|
D|--------------------------------------------|
A|--------------------------------------------|
E|--------------------------------------------|

E|--11--10--11--10--11--10--11--10--11--10-----11----10----------------------------------------------|
B|---------------------------------------------------------------------------------------------------|
G|-----------------------------------------------------------------------------------------|      <--|    X2
D|---------------------------------------------------------------------------------------------------|
A|---------------------------------------------------------------------------------------------------|
E|---------------------------------------------------------------------------------------------------|


Verse 5
Bb		              Gm
There are moments when I don't know if it's real
Bb                    Gm
Or if anybody feels the way I feel
Cm              Bb	        F
I need inspiration
Cm                           Bb F
Not just another negotiation

Chorus

Bb	       Gm              Eb	         Bb
All I want to do is find a way back into love
Bb	           Gm                        Eb	       Bb
I can't make it through without a way back into love
Cm
And if I open my heart to you
Gm
I'm hoping you'll show me what to do
Cm
And if you help me to start again
         F
You know that I'll be there for you in the end


E|-6--6--6--6--6--8--6-6-6--6--6--6--8--6--6--|
B|---6--6--6--6---------------6--6--6--6------|
G|--------------------------------------------|
D|--------------------------------------------|
A|--------------------------------------------|
E|--------------------------------------------|

E|--11--10--11--10--11--10--11--10--11--10-----11----10------------------------------------------------|
B|-----------------------------------------------------------------------------------------------------|
G|-----------------------------------------------------------------------------------------|        <--|    X2
D|-----------------------------------------------------------------------------------------------------|
A|-----------------------------------------------------------------------------------------------------|
E|-----------------------------------------------------------------------------------------------------|

E|-6--6--6--6--6--8--6-6-6--6--6--6--8--6--6--|
B|---6--6--6--6---------------6--6--6--6------|
G|--------------------------------------------|
D|--------------------------------------------|
A|--------------------------------------------|
E|--------------------------------------------|

E|--11--10--11--10--11--10--11--10--11--10-----11----10------------------------------------------------|
B|-----------------------------------------------------------------------------------------------------|
G|-----------------------------------------------------------------------------------------|        <--|    X2
D|-----------------------------------------------------------------------------------------------------|
A|-----------------------------------------------------------------------------------------------------|
E|-----------------------------------------------------------------------------------------------------|

E| 13--15--17--18--17--15--10--13--13-- 13--15--17--18--15--10--15--15--|
B|----------------------------------------------------------------------|
G|----------------------------------------------------------------------|
D|----------------------------------------------------------------------|
A|----------------------------------------------------------------------|
E|----------------------------------------------------------------------|
comments
print report bad tab
2 comments total.
0 reply
bigeyedbob wrote on May 27 2007, 11:13 am

Oops. I made this one but i wasnt registered then ;/

0 reply
JavaDDD wrote on September 24 2007, 12:56 am

great tab! the solo is kinda wrong it should go like this

E-----6-----6-----8-----6-----10-------11----------------
B---6-----6-----6-----6---6------8---8------------------
G-7-----7-----7-----7-------8------8-------------------
D------------------------------------------------------
A------------------------------------------------------
E------------------------------------------------------

Or something like that...

I want to post or [tab]
guest
You may want to rate the tab now too:
select rating
Please do not post tabs as comments. Select "correction" instead!