Oops, an error
Loading. Please wait.

Candy Apple Gret Tab

9,426 views 21 this week
1 commentread comment
1 2 3 4 5
excellent!
x 5
Autoscroll
+/-
esc
set tempo
stop
Contributor
Hey! There's an official Ultimate Guitar app which is ideal
for learning songs when you're away from computer. Get the app
WARNING: You are trying to view
                                    content from Ultimate-Guitar.com
                                    in an unauthorized application,
                                    which is prohibited.

                                    Please use an official Ultimate
                                    Guitar Tabs application for iPhone,
                                    iPad or Android to access legitimate
                                    chords, guitar, bass, and drum tabs
                                    from Ultimate-Guitar.com database.

                                    Type "ultimate guitar tabs" in Apple
                                    App Store's or Android Market's
                                    search to find the application.
CRYSTAL (Bob Mould)

Chords and rhythm pattern (used throughout)

   C                          D
e:---------0-0-0-0---0-0---||-------------------------|
B:---------5-5-5-5---5-5---||---------7-7-7-7---7-7---|
G:-5---5---0-0-0-0---0-0---||-7---7---0-0-0-0---0-0---|
D:-5---5---5-5-5-5---5-5---||-7---7---7-7-7-7---7-7---|
A:-3---3---3-3-3-3---3-3---||-5---5---5-5-5-5---5-5---|
E:-------------------------||-------------------------|

   G
e:-3---3---3-3-3-3---3-3---|
B:-3---3---0-0-0-0---0-0---|
G:-0---0---0-0-0-0---0-0---|
D:-5---5---5-5-5-5---5-5---|
A:-5---5---5-5-5-5---5-5---|
E:-3---3---3-3-3-3---3-3---|

Intro:

C X 4

C
Avalanche looms overhead
Airplane flies overhead
Important man sits by the window
Sucked out of the first class window
Images run by, thousand miles an hour
But the time seems far away
Folding clothes in a folding closet
Folding money in a resume

D
Time to let off some pressure
Time to let off some steam
All your notebooks get thrown away
And you start your diary clean
G
Crystal glass lined up in a row
Watched over by the G.I. Joes
Sugar in your coffee doesn't taste quite right
Feeling the effects for a hundred thousand nights

C X 4

C
When civilization falls in its grave
Technology throws on the dirt
You realize the finest things in life
Are the ones that can never be hurt
D
Time to let off some pressure
Time to let off some steam
All your notebooks get thrown away
And you start your diary clean
G
Crystal glass lined up in a row
Watched over by the G.I. Joes
Sugar in your coffee doesn't taste quite right
Feeling the effects for a hundred thousand nights
C X 8

D X 4

G X 4

C (to end)
Shatters your brain in a million tiny pieces
The sounds you hear aren't coming out right
You think it might be mystic, you think I might be cryptic
The crystal in your china case is breaking in a million tiny pieces


Ends with this octave pattern played over C chord
e:----------------------------------------------------------------------------|
B:----------------------------------------------------------------------------|
G:-9-9-9-9-9-9-9-9--7-7-7-7-7-7-7-7--11-11-11-11-11-11-11-11--9-9-9-9-9-9-9-9-|
D:----------------------------------------------------------------------------|
A:-7-7-7-7-7-7-7-7--5-5-5-5-5-5-5-5--9--9--9--9--9--9--9--9---7-7-7-7-7-7-7-7-|
E:----------------------------------------------------------------------------|

TP.



DON'T WANT TO KNOW IF YOU ARE LONELY (Grant Hart)

Riff 1
  Em                   B                    C        G                   
e:----0------0--0-------------------------|-0--0--------------------------|
B:----0------0--0------0------0--0--0--0--|-5--3--0-----0--(0)-(0)--------|
G:----0------0--0------4------4--4--4--4--|-------4--2--4-b-5-r-4---------|
D:----2------2--2------4------4--4--4--4--|-------------------------------|
A:----2------2--2------2------2--2--2--2--|-------------------------------|
E:-0---------0--0-------------------------|------------------------3--3-2-|

   Asus2 Riff
e:-0-0---0-0---0-0---0-0---0-0---0-0---|
B:-0-0---0-0---0-0---0-0---0-0---0-0---|
G:-2-4---4-4---4-4---2-4---4-4---4-4---|
D:-2-2---2-2---2-2---2-2---2-2---2-2---|
A:-0-0---0-0---0-0---0-0---0-0---0-0---|
E:-------------------------------------|

Chords:

Em  022000  B    X2440X  C     X355XX

G   320003  G/F# 2X0003  Cmaj7 X32000   Asus2   X02200 


DON'T WANT TO KNOW IF YOU ARE LONELY

Riff 1 X 2

Em      B            C             G     G/F#
I'm curious to know exactly how you are
Em         B               C                G     G/F#
I keep my distance but that distance is too far
Em      B               C                G     G/F#
It reassures me just to know that you're okay
Em          B                C (riff)        G    
But I don't want you to go on needing me this way

Chorus:

      B            C                Asus2 (riff)
And I don't want to know if you are lonely
B            C                Asus2 (riff)
Don't want to know if you are less than lonely
B            C                Asus2 (riff)
Don't want to know if you are lonely
B            C                   Asus2 (riff)
Don't want to know, don't want to know


Em          B               C             G      G/F#
The day you left me, left me feeling oh so bad
Em            B           C                G      G/F#
Still I'm not sure about a-ll the doubts we had
Em         B              C                G      G/F#
From the beginning we both knew it wouldn't last
Em        B                 C (riff)     G 
Decisions have been made the die has been cast

Chorus:

      B            C                Asus2 (riff)
And I don't want to know if you are lonely
B            C                Asus2 (riff)
Don't want to know if you are less than lonely
B            C                Asus2 (riff)
Don't want to know if you are lonely
B            C                   Asus2 (riff)
Don't want to know, don't want to know

Solo:

Over: Em B C G pattern repeated 4 times then following played twice,

Cmaj7    /    /    / /    /    Em    /    /    / /    /
Don't,          Don't want to  Know          Don't want to

Cmaj7    /    /    / /    /    Em    /    /    / /    /
know            Don't want to  Know          Don't want to

Em           B              C                 G      G/F#
The phone is ringing and the clock says four A.M.
Em           B                    C                 G      G/F#
If it's your friends, well I don't want to hear from them
Em                B           C              G      G/F#
Please leave your number and a message at the tone
Em          B            C (riff)      G 
Or you can just go on and leave me here alone

Chorus:

      B            C                Asus2 (riff)
And I don't want to know if you are lonely
B            C                Asus2 (riff)
Don't want to know if you are less than lonely
B            C                Asus2 (riff)
Don't want to know if you are lonely
B            C                   Asus2 (riff)
Don't want to know, don't want to know
      B            C                Asus2 (riff)
And I don't want to know if you are lonely
B            C                Asus2 (riff)
Don't want to know if you are less than lonely
B            C                Asus2 (riff)
Don't want to know if you are lonely
B            C                  G
Don't want to know

TP.



I DON'T KNOW FOR SURE (Bob Mould)

Chords:

Am X02210  F 133211  G 320033  D XX0232 Em 022000  C X32010

Am                    F
Can't tell you what's coming next
G              D        Em  
'cause I don't know for sure
Am                        F
It could be good, and it could be bad
G       D        Em
I don't know for sure
Am                   F     G       D      Em 
I guess that I'll continue on from day to day
Am              D
The only way to answer that
Am                   D             G    C G    C G    C G
To answer that would be to be that way oh, oh


Am                   F
I wanted this, and I wanted that
G       D        Em
I don't know for sure
Am                    F
And don't ask because I don't know
G       D        Em
I don't know for sure
Am                          F              G    D   Em  
I never get confused 'cause I don't really know oh, oh
Am           D
So I'm happy and so what
Am      D                  G       C G    C G    C G
So what means that I don't know

Am              F
It's too simple to explain
G              D        Em
'cause I don't know for sure
Am                  F
And words are never proper words
G              D        Em
'cause I don't know for sure
Am              D
What is simple, what is hard
Am              D
Is harder to discern
Am             D 
These feelings that are feeling
Am                D       G       C G    C G    C G  
Like the feelings that we learn

Am                    F
Can't tell you what's coming next
G              D        Em
'cause I don't know for sure
Am                       F
It could be good, and it could be bad
G       D        Em
I don't know for sure

Am                          F              G    D   Em  
I never get confused 'cause I don't really know oh, oh
Am           D
So I'm happy and so what

Am      D                  G     C G    C G    C G
So what means that I don't know

Am                         F           G    C G    C
Oh I can't tell you what's coming next
Am             F             G    C G    C
'cause I don't know for sure
Am                      F           G    C G    C 
I can't tell you what's coming next
Am             F             G    C   G    C G    C G(hold)
'cause I don't know for sure now  oh, oh            now....

TP



SORRY SOMEHOW (Grant Hart)

INTRO CHORDS:
C  X3555X  Bb  X1333X  Am X02210

VERSE CHORDS:
F  133211  C  X32010  G  320033  Am  X02210 (see riff below)

   Riff used on Am throughout:
e:--------------------------------|
B:-1--0---------------------------|
G:-------2--0--2------------------|
D:--------------------------------|
A:--------------------------------|
E:--------------------------------|

INTRO:

C   Bb   Am   played twice

F           C                G           Am
Time heals, time goes on and time really flies
F           C                    G                Am
Time hurts and time can cut you, cut you down to size
F                  C                  G         Am
There's no need to touch you now, no, I'm doing fine
F            C                G              Am
Life too can cut you and I've cut you out of mine

You're making me...
C      Bb        Am (as in intro)
Sorry, sorry somehow

You're making me
C      Bb        Am
Sorry, sorry somehow

F                  C                    G                   Am
There's no need to talk to you, well to know what's on your mind
F                  C                   G              Am
There's no need to see you either, no, I'm just being kind
F              C                       G       Am
You want me to beg forgiveness, tender an apology
F           C                    G                Am
It's not my fault and you're not getting one from me

You're making me...
C      Bb        Am 
Sorry, sorry somehow

You're making me
C      Bb        Am
Sorry, sorry somehow

F                C             G         Am
Now I guess it's your decision now you decide
F              C              G             Am
Take me to the cleaners baby, take me for a ride
F                  C                 G               Am
Who ever cares for your affairs will sort it out for you
F            C          G               Am
Send me a subpoena baby tell me what to do    You're making me...
C      Bb        Am 
Sorry, sorry somehow

You're making me
C      Bb        Am
Sorry, sorry somehow

You're making me...
C      Bb        Am 
Sorry, sorry somehow

You're making me
C      Bb        Am
Sorry,       somehow

Solo:  F   C   G   Am  progression played four times

You're making me...
C      Bb        Am 
Sorry, sorry somehow

You're making me
C      Bb        Am
Sorry, sorry somehow

F               C                G               Am
I don't have to think about you, think about the past
F                C                        G              Am
Those days stand out in my mind and those days were the last
F           C                    G                Am
I know the time is coming and I'm waiting for the day
F            C                        G                       Am
I'd give you everything in the world just to get it out of the way

You're making me...
C      Bb        Am 
Sorry, sorry somehow

You're making me
C      Bb        Am
Sorry, sorry somehow

You're making me...
C      Bb        Am 
Sorry, sorry somehow

You're making me
C      Bb        Am
Sorry,       somehow

You're making me...

C      Bb        Am 
Sorry, sorry    sorry
C      Bb        Am
Sorry, sorry     sorry
C      Bb        Am 
Sorry, sorry     sorry
C      Bb        Am
Sorry,           sorry
C      Bb        Am.                                         

TP



TOO FAR DOWN (Bob Mould)

Chords:

Am7   X02010      G  320033   Fsus2 133011    G/F# 2X0033    Dsus4/F# 2X0233    

Csus2 X32033  D7sus4 XX0213      D7 XX0212    Em7  022033    

Em    022000     D   XX0232  

Intro:

Am7   G    Fsus2  (played four times)

Am7       D7sus4
I'm down again
Am7              D7sus4
And I don't know how to tell you
    G          Dsus4/F# Csus2  
But maybe this time  I  can't come back
          Am7              D7 
Because I might be too far down


Am7        D7sus4
I wish for real
Am7          D7sus4          G 
That I could turn it on and off
     Dsus4/F# Csus2 
Like hot and  cold and up and down
        Am7       D7 
Because I'm down again


Am7         D7sus4 
I'm too far down
Am7          D7sus4 
I couldn't begin to smile
          G          Dsus4/F# Csus2
Because I can't even laugh or cry
        Am7               D7
Because I just can't do it


G     G/F#   Em7        Dsus4/F#   
If it was so easy to be happy
G      G/F# Em7     Dsus4/F# 
Why am I so down?
Am7       G     Fsus2   Em             D    
All I can do is sit and wonder if it's going to end
      Am7      G    Fsus2  Em     D
Or if I should just go    away forever


Am7            D7sus4 
When I sit and think
Am7           D7sus4   
I wish that I just could die
   G           Dsus4/F# Csus2 
Or let someone else be  happy
              Am7           D7 
By setting my own self free
Am7                    D7sus4
And you don't want the emotion
Am7                                D7sus4    
Because the taste it leaves is for real
    G              Dsus4/F# Csus2
But nothing's ever real   until it's gone
Am7                    D7
And I might be too far down


Am7               D7sus4
And is this just another thrown away
Am7                       D7sus4
Or is this the end of the whole stupid road
        G                Dsus4/F#   Csus2
But you wouldn't want to know how I feel anyway
            Am7                    D7
Because the darkest hole is at the end of the road


Am7    G     Fsus2 (played four times)

Am7       D7sus4
I'm down again
Am7                     D7sus4        G
And I guess I'm not the only one who dreams
                 Dsus4/F#   Csus2
That there's not any way to tell you
          Am7              D7
Because I might be too far down

Am7
Oh
G       Fsus2
too far dowm

D      Em.

TP.



HARDLY GETTING OVER IT (Bob Mould)

Chords:

G 320033    A7sus4 X02233    G/B X20033    Csus2 X32033    Em7 022033    

Dsus4 XX0233    D XX0232

Intro:(The low G is played by a bass on the record)

  G
e:-----------------|---------3-------|-----------------|---------3-3-3--|
B:-----------------|-----------3-----|-----------------|---------3-3-3--|
G:-----------------|-------------0---|-----------------|---------0-0-0--|
D:-----------------|-----------------|-----------------|---------0-0-0--|
A:-----------------|-----------------|-----------------|----------------|
E:-3---3---3-3-3---|-3---3-----------|-3---3---3-3-3---|-3---3----------|


G            A7sus4     G/B                Csus2
Twenty years ago, saw a friend was walking by
G                    A7sus4            G/B             Csus2
And I stopped on the street to ask him how it went but all he did was cry
G                     A7sus4  G/B                   Csus2
When I looked him the face, I couldn't see past his eyes
G                  A7sus4               G/B              Csus2 
Asked him what the problem was, he said "Here is your disguise"


Em7                     G
Now he's hardly getting over it,
Em7            G               Csus2
Hardly getting used to getting by.
Em7                     G
Now he's hardly getting over it,
     Em7            G               Csus2
He's hardly getting used to getting by     by-eye.

Riff 1:

  Dsus4                               G D(hold)
e:------------------------------------------|
B:----3-------3-------3-------3-----3-3-3---|
G:2--(2)-----(0)-----(0)-----(0)---(0)0-2---|
D:0-----------------------------------0-0---|
A:--------3-------2-------3-------2p0-2-----|
E:------------------------------------3-----|

                G
e:--------------3---------------3-----------|
B:------------------3-------3-------3-------|
G:----------------------0---------------0---|
D:------------------------------------------|
A:------------------------------------------|
E:------------------------------------------|

G       A7sus4    G/B             Csus2
Old man lays down by the railroad tracks
            G            A7sus4               G/B          Csus2
He's got no paper on his pockets, he's got no paper on his back
      G                A7sus4             G/B              Csus2
Now I ask him what the time was, he says "Hit the road now Jack"
G                A7sus4              G/B               Csus2
Went back to see him next week, he'd died of a heart attack and died away

Em7                     G
Now he's hardly getting over it,
Em7            G               Csus2
Hardly getting used to getting by.
Em7                     G
Now he's hardly getting over it,
     Em7            G               Csus2
He's hardly getting used to getting by by-eye.

Riff 1

    G                A7sus4    G/B          Csus2
Now Grandma, she got sick, and she is gonna die
    G             A7sus4                G/B            Csus2
And grandpa had a seizure, moved into a hotel cell and died away
   G                 A7sus4      G/B                 Csus2
My parents they just wonder when they both are gonna die
G             A7sus4  G/B       Csus2
And what do I do      when they die?


Em7                    G
Now I'm hardly getting over it,
Em7            G               Csus2
Hardly getting used to getting by.
Em7            G
Hardly getting over it,
Em7            G               Csus2
Hardly getting used to getting by.

Riff 1

G   A7sus4  G/B   Csus2 X 4 (keyboard solo over)

or Live Solo (from The Living End):

   G         A7sus4                  G/B
e:-10---10---12-10---8-----------8---10---12-10--|
B:-8----8-------8----8-12---12---8---8-------8---|
G:-0----0--------------0----0--------------------|
D:-----------------------------------------------|
A:-----------------------------------------------|
E:-----------------------------------------------|

   Csus2
e:-8---------------------------------------------|
B:-8---------------------------------------------|
G:-----------------0-0--0-0--0-0--0-0----0-0-----|
D:---10----10------9h10-9h10-9h10-9h10---9-10----|
A:------10----10------------------------------10-|
E:-----------------------------------------------|

   G         A7sus4                  G/B
e:-10---10---12-10---8-----------8---10---12-10--|
B:-8----8-------8----8-12---12---8---8-------8---|
G:-0----0--------------0----0--------------------|
D:-----------------------------------------------|
A:-----------------------------------------------|
E:-----------------------------------------------|

   Csus2
e:-8----8-8----8-8-------------------------------|
B:-8----8-8----8-8-------------------------------|
G:---0--0-0--0-0-0--0-0--0-0--0-0--0-0---0-0-----|
D:---10-----10------9h10-9h10-9h10-9h10--9-10----|
A:--------------------------------------------10-|
E:-----------------------------------------------|

REPEAT the two bars above.

   G       A7sus4                              G/B
e:---------------------------------------------------------|
B:---------------------------------------------------------|
G:-0---2---4h5p4h5p4h5p4h5p4h5p4h5p4h5p4h5p4h5p4h5p4h5-/-7-|
D:---------------------------------------------------------|
A:---------------------------------------------------------|
E:---------------------------------------------------------|

   Csus2
e:-3---3----3--3--3--3-----3---3----3--3--3--3---|
B:-3---3----3--3--3--3-----3---3----3--3--3--3---|
G:-5---5----5--5--5--5-----5---5----5--5--5--5---|
D:-5---5----5--5--5--5-----5---5----5--5--5--5---|
A:-3---3----3--3--3--3-----3---3----3--3--3--3---|
E:-----------------------------------------------|

    G              A7sus4   G/B            Csus2
I'm hardly getting over it. Hardly getting by.
    G              A7sus4   G/B            Csus2
I'm hardly getting over it. Hardly getting by.
    G              A7sus4   G/B            Csus2
I'm hardly getting over it. Hardly getting by.
    G            A7sus4  G/B        Csus2
Can't hardly get over it all. Can't hardly get by - by - goodbye.

G   A7sus4  G/B   Csus2 X 8 (keyboard solo over).


TP.



DEAD SET ON DESTRUCTION (Grant Hart)

Intro: played twice

   Bbsus2  F     C           Bb                      C
e:-1---1---1-1---0-0-0-0-0-|-------------------------0-0-|
B:-1---1---1-1---1-1-1-1-1-|-------------------------1-1-|
G:-3---3---2-2---0-0-0-0-0-|-3---3-3---3---3-3---3---0-0-|
D:-3---3---3-3---2-2-2-2-2-|-3---3-3---3---3-3---3---2-2-|
A:---------------3-3-3-3-3-|-1---1-0---1---1-0---1---3-3-|
E:-------------------------|-----------------------------|

Verse:
         Bb                  C             Bb                      C
      e:---------------------0---0-0-0-0-|-------------------------0-0-|
      B:---------------------1---1-1-1-1-|-------------------------1-1-|
      G:-3---3-3---3---3-3---0---0-0-0-0-|-3---3-3---3---3-3---3---0-0-|
      D:-3---3-3---3---3-3---2---2-2-2-2-|-3---3-3---3---3-3---3---2-2-|
      A:-1---1-1---1---1-0---3---3-3-3-3-|-1---1-0---1---1-0---1---3-3-|
      E:---------------------------------|-----------------------------|
Well I'm standing in    the  queue And I   can't stand anymore missing you


      Bb                  C             Bb                          C
   e:---------------------0---0-0-0-0-|-----------------------------0-0-|
   B:---------------------1---1-1-1-1-|-----------------------------1-1-|
   G:-3---3-3---3---3-3---0---0-0-0-0-|-3---3-3---3---3-3---3-------0-0-|
   D:-3---3-3---3---3-3---2---2-2-2-2-|-3---3-3---3---3-3---3-------2-2-|
   A:-1---1-1---1---1-0---3---3-3-3-3-|-1---1-0---1---1-0---1-------3-3-|
   E:---------------------------------|---------------------------------|
And I can't stand    the pain 'Cause I can't get home 'cause of a hurricane


Chorus: played twice.

   Bbsus2  F      C           Bb                      C
e:-1---1---1-1----0-0-0-0-0-|-------------------------0-0-|
B:-1---1---1-1----1-1-1-1-1-|-------------------------1-1-|
G:-3---3---2-2----0-0-0-0-0-|-3---3-3---3---3-3---3---0-0-|
D:-3---3---3-3----2-2-2-2-2-|-3---3-3---3---3-3---3---2-2-|
A:----------------3-3-3-3-3-|-1---1-0---1---1-0---1---3-3-|
E:--------------------------|-----------------------------|
   DEAD    SET ON DESTRUCTION


There's no flights home today
And no services out on the motorway
And I can't leave the ground
And I can't find a place now to put her down

Chorus: then repeat intro. with chord inversions.

The Atlantic winds are high
There's only one virgin and she don't fly
And they, they can't land the plane
And they can't get home 'cause of a hurricane

Chorus: repeated eight times.


TP.



EIFFEL TOWER HIGH (Bob Mould)

Chords:

A X02220  D XX023X  G 320033  G/F# 2X0033  E 022100  E+C# 022120

A/G# 402220  D/C# X4X232  B X2440X  C# X4660X  C5 X355XX  D5 X577XX

NB. * Denotes single notes picked out while chord is held.

Intro:

A  /  //  /  D  /  //  /  G  /  /G/F#  E  /  E+C#/  / (played 3 times)

A  /  //  /  D  /  //  /  G  /  /G/F#  E  /  E+C#/  /  E  /  E+C#/  / 


A         A/G#           D
Walking towards the boulevard
       D/C#            A 
She's studied it all before
    A/G#                D
She buys herself a seat
     D/C#
And sits on the floor

B      C#           D   
Taking in a picture show
        D/C#              B
She doesn't know where to go
        C#             D (hold chord)  C#*  B*  A*
Is it a film, or is it real?

A                 A/G#
She went into the movie
      D               D/C#
She's been there ever since
A                     A/G#
She walked out to the lobby
      D             D/C#
For a box of Junior Mints

B         C#               D
She never looks beyond the mirror
        D/C#        B
Or the image that appears
             C#                 D (hold chord)
Well, I just watch the world go by
C#*        B*        A* 
And try to get her attention
G*             A*    E  
Scream at her, and I yell and scream at her

And I scream, ice cream, I scream

A   /     B  /  C5 /    / /  D5
I scream "Merry Eiffel Tower High" (Played 11 times)
A   /     B  /  A(hold)
I scream "Merry Eiffel Tower High"

TP. 



NO PROMISE HAVE I MADE (Grant Hart)

Chords:

F 133211   C X32010   Dm XX0231    Bb XX0331    C5 X355XX

Intro:

Dm/// Bb/// F/// C///

Dm/// Bb/// F/// C///

Dm         Bb                  F                C
If I could change my mind what changes would it bring
Dm         Bb                  F                 C
If I could change you, well it wouldn't change a thing
Dm         Bb               F             C
So now you know and now you shouldn't be afraid
Dm  Bb  F                 C                  Dm    F     C     Dm    F 
Oh, oh, no promise have I ma    -    a   -   hay - hay - hay - hay - de

Dm        Bb             F           C
Tell me a story tell me just another lie
Dm         Bb                F            C
Well I can tell you set your expectations high
Dm            Bb              F           C
Well now I've faced up to you facing me betrayed
Dm  Bb  F                 C
Oh, oh, no promise have I ma     -   a  -  a  -  hay  -  de

Oh, oh, no promise have I ma     -   a  -  a  -  hay  -  de

Have I made,  Have I made,  Have I made,

Dm                Bb                     F                      C
Well there's some green and there's some white and there's some gold
Dm           Bb            F             C
But brighter colors I have left you to behold
Dm             Bb                F             C
It's your good fortune there's a fortune to be paid
Dm  Bb  F                 C (to end of song but change to C5)
Oh, oh, no promise have I ma     -   a  -  a  -  hay  -  de

Have I ma     -   a  -  a  -  hay  -  de

Have I made,  Have I made,  Have I made,  Have I made,  Have I made,

No promise, have I made, have I made to you,

Have I made,  Have I made (repeat to fade).

TP.



ALL THIS I'VE DONE FOR YOU (Bob Mould)

Chords:

D   XX0232    C   X32010     G   320033    Csus2 X32033    Em  022000    
F5  133XXX    Bb5 X133XX     A5  X022XX    Fsus2 133233

   Em Riff
e:---------------0-------------|
B:-----------------3-0---0-3-0-|
G:-0---0---0-0-0---------------|
D:-2---2---2-2-2---------------|
A:-2---2---2-2-2---------------|
E:-0---0---0-0-0---------------|

   G Riff                                  End   
e:-3--------------------------|-5-------||--------|
B:-3--------------------------|-----5---||--------|
G:-0--------------------------|---------||--------|
D:-5--------------------------|---------||--------|
A:-5--------------------------|---------||-5-\-2--|
E:-3--------------------------|---------||--------|


Intro:

   D
e:-2---2---2-2-2---2------2---2---2-2-2---2--|
B:-3---3---3-3-3---3------3---3---3-3-3---3--|
G:-2---2---2-2-2---2------2---2---4p2p0---2--|
D:-0---0---0-0-0---0------0---0---0-0-0---0--|
A:-------------------------------------------|
E:-------------------------------------------|

   C               Csus2  C               Csus2
e:-0---0---0-0-0---3------0---0---0-0-0---3--|
B:-1---1---1-1-1---3------1---1---1-1-1---3--|
G:-0---0---0-0-0---0------0---0---0-0-0---0--|
D:-2---2---2-2-2---2------2---2---2-2-2---2--|
A:-3---3---3-3-3---3------3---3---3-3-3---3--|
E:-------------------------------------------|

G          Csus2    G              Csus2 
When I was younger, worrying about it
G                    Csus2            Em (riff) 
Trying to make these decisions for myself
G              Csus2             G               Csus2 
And I go on to ask myself what's right and wrong about it
G                  Csus2               Em (riff) 
And I don't really know what makes it, ask yourself

F5             Bb5 (hammer on and off A string)
Now I see you, you want to ask me
F5                    Bb5
I want you to ask me, I want you to ask me
D            G        D            G
What does it matter?  What does it mean?
F5          Bb5                                F5
Sometimes I don't know why you want to try and help me

Bb5
I get so confused
D          Bb5       F5
I start to fall over backwards
C5     G (Riff)
Then I ask this to myself, and see within myself

And wonder what it means, and ask these questions to myself

G                    Csus2
Now I'm a little bit older
G                           Csus2
And I'm not a hell of a lot wiser
G                          Csus2          Em(Riff)
So I've gotta sit down and contemplate it


F5                                    Bb5        
Should I talk to the mirror, should I talk to a wall
F5            Bb
Should I even talk at all

*D    /    /        Bb5 / /  C5  //   A5  //
Would a little tiny bit of action
F5    /   /           C  //   G(Riff)
Would it make it even seem to matter anymore

I guess it matters just to you

* It could also be played like this

   D         Bb        C         A         F         C         G(Riff)
e:-----3-3-------3-3-------3-3-------3-3-------3-3-------3-3---3---|
B:-----3-3-------3-3-------3-3-------3-3-------3-3-------3-3---3---|
G:-------------------------------------------------------------0---|
D:-0-----------------------------------------------------------5---|
A:-----------1---------3---------0-------------------3---------5---|
E:-----------------------------------------1-------------------3---|


G                      Csus2
All this I've done for you
G                      Csus2
All this I've done for you
G                      Csus2
All this I've done for you
G                      Csus2
All this I've done for you


G    Csus2   Fsus2 Csus2    X 4
Oh   Ah  etc.             

Then this played four times:
   G (hold)               Csus2
e:-3----------------------3---3-------|
B:-3----------------------3-------3---|
G:-0----------------------0-----------|
D:-0----------------------2-----------|
A:-2----------------------3-----------|
E:-3----------------------------------|
   All this I've done for you

Then this (fast strum):
G                      Csus2
All this I've done for you
G                      Csus2
All this I've done for you
G                      Csus2
All this I've done for you
G                      Csus2
All this I've done for you
G                      Csus2 (hold).
All this I've done for you
comments
print report bad tab
1 comment total.
0 reply
JesseVS wrote on June 30 2013, 06:17 pm

*Candy Apple Grey

I want to post or [tab]
guest
You may want to rate the tab now too:
select rating
Please do not post tabs as comments. Select "correction" instead!