Oops, an error
Loading. Please wait.

Everything Falls Apart Tab

1,716 views 1 this week
no commentswrite comment
1 2 3 4 5
please rate
Autoscroll
+/-
esc
set tempo
stop
Contributor
Difficulty
intermediate
Hey! There's an official Ultimate Guitar app which is ideal
for learning songs when you're away from computer. Get the app
WARNING: You are trying to view
                                    content from Ultimate-Guitar.com
                                    in an unauthorized application,
                                    which is prohibited.

                                    Please use an official Ultimate
                                    Guitar Tabs application for iPhone,
                                    iPad or Android to access legitimate
                                    chords, guitar, bass, and drum tabs
                                    from Ultimate-Guitar.com database.

                                    Type "ultimate guitar tabs" in Apple
                                    App Store's or Android Market's
                                    search to find the application.
Property of Tony Peart NOT MINE

FROM THE GUT (Bob Mould/Greg Norton)

Intro:

   F#5                   C#5 B5  F#5                 D5 C#5 B5
e:-----------------------------|-----------------------------|
B:-----------------------------|-----------------------------|
G:-------------------------6-4-|---------------------7---6-4-| Played
D:-4-4-4-4---4-4-4-4---4---6-4-|-4-4-4-4---4-4-4-4---7---6-4-| twice
A:-4-4-4-4---4-4-4-4---4---4-2-|-4-4-4-4---4-4-4-4---5---4-2-|
E:-2-2-2-2---2-2-2-2---2-------|-2-2-2-2---2-2-2-2-----------|


   F#5                   C#5 B5  F#5                 D5 C#5 B5
e:-----------------------------|-----------------------------|
B:-----------------------------|-----------------------------|
G:-------------------------6-4-|---------------------7---6-4-| Played
D:-4-4-4-4---4-4-4-4---4---6-4-|-4-4-4-4---4-4-4-4---7---6-4-| twice
A:-4-4-4-4---4-4-4-4---4---4-2-|-4-4-4-4---4-4-4-4---5---4-2-|
E:-2-2-2-2---2-2-2-2---2-------|-2-2-2-2---2-2-2-2-----------|
                           The gut                   from the gut
                           it hurts                  hurts so much

Break:

   Asus2                 Asus2/B               Asus2/C#                D(hold)
e:-----0-0---------0---|-----0-0---------0---|-------0-----------0---|---------|
B:-----0-0---------0---|-----0-0---------0---|-------0-0---------0-0-|-3-------|
G:-2---2-----2-2-----2-|-2---2-----2-2-----2-|-------2-2---------2-2-|-2-------|
D:-2---------2-2-----2-|-2---------2-2-----2-|-2-2---------2-2-------|-0-------|
A:-0---------0-0-------|-2---------2-2-------|-4-4---------4-4-------|---------|
E:---------------------|---------------------|-----------------------|---------|


   F#5                   C#5 B5  F#5                 D5 C#5 B5
e:-----------------------------|-----------------------------|
B:-----------------------------|-----------------------------|
G:-------------------------6-4-|---------------------7---6-4-| Played
D:-4-4-4-4---4-4-4-4---4---6-4-|-4-4-4-4---4-4-4-4---7---6-4-| twice
A:-4-4-4-4---4-4-4-4---4---4-2-|-4-4-4-4---4-4-4-4---5---4-2-|
E:-2-2-2-2---2-2-2-2---2-------|-2-2-2-2---2-2-2-2-----------|
                           The same                  quite the same
                           you know                  know too much

   A5                      E5 D5 A5                  F#5 E5 D5
e:-----------------------------|-----------------------------|
B:-----------------------------|-----------------------------|
G:-------------------------9-7-|---------------------11--9-7-|
D:-7-7-7-7---7-7-7-7---7---9-7-|-7-7-7-7---7-7-7-7---11--9-7-|
A:-7-7-7-7---7-7-7-7---7---7-5-|-7-7-7-7---7-7-7-7---9---7-5-|
E:-5-5-5-5---5-5-5-5---5-------|-5-5-5-5---5-5-5-5-----------|
                           It's yours                yours no more

   E5                      B5 A5 E5                  C5  B5 A5
e:-----------------------------|-----------------------------|
B:-----------------------------|-----------------------------|
G:-9-9-9-9---9-9-9-9---9-------|-9-9-9-9---9-9-9-9-----------|
D:-9-9-9-9---9-9-9-9---9---9-7-|-9-9-9-9---9-9-9-9---10--9-7-|
A:-7-7-7-7---7-7-7-7---7---9-7-|-7-7-7-7---7-7-7-7---10--9-7-|
E:-------------------------7-5-|---------------------8---7-5-|
                           It's mine                 for the time

   G5                      D5 C5 G5                  D5  C5 D5(hold)
e:-----------------------------|-----------------------------|
B:-----------------------------|-----------------------------|
G:-------------------------7-5-|---------------------7---5-7-|
D:-5-5-5-5---5-5-5-5---5---7-5-|-5-5-5-5---5-5-5-5---7---5-7-|
A:-5-5-5-5---5-5-5-5---5---5-3-|-5-5-5-5---5-5-5-5---5---3-5-|
E:-3-3-3-3---3-3-3-3---3-------|-3-3-3-3---3-3-3-3-----------|
                           That I'm              without you

Solo:

   F#5                   C#5 B5  F#5                 D5 C#5 B5
e:-----------------------------|-----------------------------|
B:-----------------------------|-----------------------------|
G:-------------------------6-4-|---------------------7---6-4-|
D:-4-4-4-4---4-4-4-4---4---6-4-|-4-4-4-4---4-4-4-4---7---6-4-|
A:-4-4-4-4---4-4-4-4---4---4-2-|-4-4-4-4---4-4-4-4---5---4-2-|
E:-2-2-2-2---2-2-2-2---2-------|-2-2-2-2---2-2-2-2-----------|

   F#5                   C#5 B5  F#5                 D5 C#5 B5
e:-----------------------------|-----------------------------|
B:-----------------------------|-------------------------5b6-|
G:-4b6--(6)-(6)(6)--6r4p0------|-4b6--(6)-(6)(6)--6r4--------|
D:-------------------------4-4-|----------------------4------|
A:-----------------------------|-----------------------------|
E:-----------------------------|-----------------------------|

   F#5(hold with vibrato)C#5 B5  F#5   (vibrato)     D5 C#5 B5
e:------------------------0-0--|-----------------------------|
B:-5b7(hold)----------r5\-2-0--|-----------------------------|
G:-----------------------------|-2---------------------------|
D:-----------------------------|---4-2-----------------------|
A:-----------------------------|-------4b5r4b5---------------|
E:-----------------------------|-----------------------------|

Break:

   Asus2                 Asus2/B               Asus2/C#                D(hold)
e:-----0-0---------0---|-----0-0---------0---|-------0-----------0---|---------|
B:-----0-0---------0---|-----0-0---------0---|-------0-0---------0-0-|-3-------|
G:-2---2-----2-2-----2-|-2---2-----2-2-----2-|-------2-2---------2-2-|-2-------|
D:-2---------2-2-----2-|-2---------2-2-----2-|-2-2---------2-2-------|-0-------|
A:-0---------0-0-------|-2---------2-2-------|-4-4---------4-4-------|---------|
E:---------------------|---------------------|-----------------------|---------|

   F#5                   C#5 B5  F#5                 D5 C#5 B5
e:-----------------------------|-----------------------------|
B:-----------------------------|-----------------------------|
G:-------------------------6-4-|---------------------7---6-4-| Played
D:-4-4-4-4---4-4-4-4---4---6-4-|-4-4-4-4---4-4-4-4---7---6-4-| twice
A:-4-4-4-4---4-4-4-4---4---4-2-|-4-4-4-4---4-4-4-4---5---4-2-|
E:-2-2-2-2---2-2-2-2---2-------|-2-2-2-2---2-2-2-2-----------|

   A5                      E5 D5 A5                  F#5 E5 D5
e:-----------------------------|-----------------------------|
B:-----------------------------|-----------------------------|
G:-------------------------9-7-|---------------------11--9-7-|
D:-7-7-7-7---7-7-7-7---7---9-7-|-7-7-7-7---7-7-7-7---11--9-7-|
A:-7-7-7-7---7-7-7-7---7---7-5-|-7-7-7-7---7-7-7-7---9---7-5-|
E:-5-5-5-5---5-5-5-5---5-------|-5-5-5-5---5-5-5-5-----------|


   E5                      B5 A5 E5                  C5  B5 A5
e:-----------------------------|-----------------------------|
B:-----------------------------|-----------------------------|
G:-9-9-9-9---9-9-9-9---9-------|-9-9-9-9---9-9-9-9-----------|
D:-9-9-9-9---9-9-9-9---9---9-7-|-9-9-9-9---9-9-9-9---10--9-7-|
A:-7-7-7-7---7-7-7-7---7---9-7-|-7-7-7-7---7-7-7-7---10--9-7-|
E:-------------------------7-5-|---------------------8---7-5-|


   G5                      D5 C5 G5                  D5  C5 D5(hold)
e:-----------------------------|-----------------------------|
B:-----------------------------|-----------------------------|
G:-------------------------7-5-|---------------------7---5-7-|
D:-5-5-5-5---5-5-5-5---5---7-5-|-5-5-5-5---5-5-5-5---7---5-7-|
A:-5-5-5-5---5-5-5-5---5---5-3-|-5-5-5-5---5-5-5-5---5---3-5-|
E:-3-3-3-3---3-3-3-3---3-------|-3-3-3-3---3-3-3-3-----------|

Outro (hold final B5):

   F#5                   C#5 B5  F#5                 D5 C#5 B5
e:-----------------------------|-----------------------------|
B:-----------------------------|-----------------------------| Played
G:-------------------------6-4-|---------------------7---6-4-| four
D:-4-4-4-4---4-4-4-4---4---6-4-|-4-4-4-4---4-4-4-4---7---6-4-| times
A:-4-4-4-4---4-4-4-4---4---4-2-|-4-4-4-4---4-4-4-4---5---4-2-|
E:-2-2-2-2---2-2-2-2---2-------|-2-2-2-2---2-2-2-2-----------|


Harmonics over outro:

   These over bars 2,3,4,6,7,8      These over bar 5
e:-----------------------------|  |-----------------------------|
B:-----------------------------|  |-9-9-9-9---9-9-9-9---9-------|
G:-9-9-9-9---9-9-9-9---9-------|  |-9-9-9-9---9-9-9-9---9-------|
D:-9-9-9-9---9-9-9-9---9-------|  |-----------------------------|
A:-----------------------------|  |-----------------------------|
E:-----------------------------|  |-----------------------------|


TP.

BLAH, BLAH, BLAH. (Bob Mould/Greg Norton)

Verse chords:    A5 577XXX   C#5 X466XX   D5 X577XX   G5  XX578X

Chorus chords:   C5 X355XX   D5  X577XX   B5 X244XX   F#5 244XXX

                 G5 355XXX   E5  022XXX

Last verse:      B5 799XXX   D#5 X688XX   E5 X799XX   A5  577XXX

Intro(Bass arranged for guitar):

e:-------------------------------------------|
B:-------------------------------------------|
G:-------------------------------------------|
D:-------------------------------5---4-2-0---|
A:-0---0---4---4---4-4---5-5-5---------------|
E:-------------------------------------------|

Then repeat the above with guitar over:

   A5(hold)                        Pick scrape
e:--------------------------------------------|
B:--------------------------------------------|
G:-2------------------------------------------|
D:-2-------------------------------/----------|
A:-0-------------------------------/----------|
E:--------------------------------------------|

A5               C#5
Got something to say
D5                G5
like something to me
A5                     C#5
well just go ahead and spit it out
D5                     G5
It's all the same, you see
A5              C#5
What's that, it doesn't make sense
D5                 G5
Are you talking in tongues
A5         C#5
or is your brain out of gear
D5            G5
I can hear it rattle in your head

Chorus:

C5
I can see you lips move
D5   C5   B5
Blah Blah Blah
               F#5  /  ///  / G5 F#5 E5  /
but all I hear is
C5
I can see you lips move
D5   C5   B5
Blah Blah Blah
               F#5  /  ///  / G5 F#5 E5  /
but all I hear is


A5               C#5
Got something to say
D5                G5
Like something to me
A5                     C#5
Well just go ahead and spit it out
D5                     G5
It's all the same, you see
A5              C#5
It's coming out better
D5                  G5
but it doesn't make sense
A5        C#5
Is that a head on your shoulders
D5                       G5
or something you use for ornamentation

Chorus:

C5
I can see you lips move
D5   C5   B5
Blah Blah Blah
               F#5  /  ///  / G5 F#5 E5  /
but all I hear is
C5
I can see you lips move
D5   C5   B5
Blah Blah Blah
               F#5  /  ///  / G5 F#5 E5  /
but all I hear is

Solo:

   A5                  C#5                   D5                G5
e:-5-5-5(5)--5-5-5(5)--5-5-5(5)--5(5)5(5)5(5)5(5)5(5)5(5)--0--(0)-|
B:-5-5-5(5)--5-5-5(5)--5-5-5(5)--5(5)5(5)5(5)5(5)5(5)5(5)--5-/-10-|
G:-----7b9-------7b9-------7b9---7b9-7b9-7b9-7b9-7b9-7b9----------|
D:----------------------------------------------------------------|
A:----------------------------------------------------------------|
E:----------------------------------------------------------------|

   A5          C#5           D5            G5
e:-------------0-0--(0)--0----------------------------------------|
B:-0---0---0---5-5-/-7---5---0---0---0(0)--0(0)--0-0---0---0------|
G:-2---4---6-----------------2---4---4b6---2p0---0-0---0---0------|
D:----------------------------------------------------------------|
A:----------------------------------------------------------------|
E:----------------------------------------------------------------|

   A5                  C#5               D5                   G5
e:---------------------0---0---0--0--0---0---0---0--0--0---0--0-(0)-|
B:-3p0--5p0--7p0--9p0--10--10--10-10-10--15--15--15-15-15--15-15b17-|
G:-2p0--4p0--5p0--7p0--9---9---9--9--9---14--14--14-14-14--14-------|
D:------------------------------------------------------------------|
A:------------------------------------------------------------------|
E:------------------------------------------------------------------|

   A5                C#5            D5 (hold)G5
e:-0---0(0)--0---0--(0)---0(0)0(0)--0--(0)---0--0-0---3---|
B:-5---5p3---5---3-/-10---8p0-7p0---5-/-10---10-9-7---3---|
G:-------------------------------------------9--7-5---0---|
D:----------------------------------------------------5---|
A:----------------------------------------------------5---|
E:----------------------------------------------------3---|

Chorus:

C5
I can see you lips move
D5   C5   B5
Blah Blah Blah
               F#5  /  ///  / G5 F#5 E5  /
but all I hear is
C5
I can see you lips move
D5   C5   B5
Blah Blah Blah

but all I hear..

   F#5            E5  C#5 G#5       C#5 G#5 A5  B5
e:--------------------------------------------------|
B:--------------------------------------------------|
G:--------------------6-------------6---------------|
D:-4--------4-4-4-2---6---6---------6---6---7---9---|
A:-4--------4-4-4-2---4---6---------4---6---7---9---|
E:-2--------2-2-2-0-------4-------------4---5---7---|
   is....

Last verse:

B5               D#5
Got something to say
E5                A5
like something to me
B5                     D#5
well just go ahead and spit it out
E5                     A5
It's all the same, you see
B5              D#5
What's that, it doesn't make sense
E5                 A5
Are you talking in tongues
B5         D#5
or is your brain out of gear
E5            A5
I can hear it rattle in your head

Chorus:

D5
I can see you lips move
E5   D5   C#5
Blah Blah Blah
               G#5  /  /  /  / A5 G#5 F#5
but all I hear is

D5
I can see you lips move
E5   D5   C#5
Blah Blah Blah
               G#5  /  /  /  / A5 G#5 F#5
but all I hear is
D5
I can see you lips move
E5   D5   C#5
Blah Blah Blah
               G#5  /  /  /  / A5 G#5 F#5
but all I hear is
D5
I can see you lips move
E5   D5   C#5
Blah Blah Blah
               G#5  /  /  /  / A5 G#5 E5(hold)
but all I hear is


TP.

PUNCH DRUNK (Bob Mould)

   C5      E5  B5  A5              B5    D#5 Bb5 G#5
e:-------------------------------|-----------------------------|
B:-------------------------------|-----------------------------|
G:---------9---------------------|-------8---------------------|
D:-10-10---9---9---7---7---7---7-|-9-9---8---8---6---6---6---6-|
A:-10-10---7---9---7---7---7---7-|-9-9---6---8---6---6---6---6-|
E:-8--8--------7---5---5---5---5-|-7-7-------6---4---4---4---4-|
   Take a look around this bar     take a look around this place

   C5     E5      Bb5             B5    D#5 Bb5 G#5
e:------------------------------|----------------------------|
B:------------------------------|----------------------------|
G:--------9---9-----------------|-------8--------------------|
D:-10-10--9---9---8---8---8---8-|-9-9---8---8---6---6---6----|
A:-10-10--7---7---8---8---8---8-|-9-9---6---8---6---6---6----|
E:-8--8-----------6---6---6---6-|-7-7-------6---4---4---4----|
   take a look around this hall   Think it's a fucking gym?

   F#5   C5        F#5   C5        F#5   C5        F#5   C5
e:-------------------------------------------------------------|
B:-------------------------------------------------------------|
G:-------5-5-------------5-5-------------5-5-------------5-5---|
D:-4-4---5-5-------4-4---5-5-------4-4---5-5-------4-4---5-5---|
A:-4-4---3-3-------4-4---3-3-------4-4---3-3-------4-4---3-3---|
E:-2-2-------------2-2-------------2-2-------------2-2---------|
Kick and punch and kick and punch and kick and punch and kick and punch

   C#5        A5       Bb5      B5       C5(hold)
e:---------------------------------------------|
B:---------------------------------------------|
G:---------------------------------------------|
D:-11-11------7-7------8-8------9-9------10-10-|
A:-11-11------7-7------8-8------9-9------10-10-|
E:-9--9-------5-5------6-6------7-7------8--8--|
Who's your friend,who's your friend,whose friend should be the enemy?

Verse2:

   C5      E5  B5  A5              B5    D#5 Bb5 G#5
e:-------------------------------|-----------------------------|
B:-------------------------------|-----------------------------|
G:---------9---------------------|-------8---------------------|
D:-10-10---9---9---7---7---7---7-|-9-9---8---8---6---6---6---6-|
A:-10-10---7---9---7---7---7---7-|-9-9---6---8---6---6---6---6-|
E:-8--8--------7---5---5---5---5-|-7-7-------6---4---4---4---4-|
   Take a look around this bar     take a look around this place

   C5     E5      Bb5             B5    D#5 Bb5 G#5
e:------------------------------|----------------------------|
B:------------------------------|----------------------------|
G:--------9---9-----------------|-------8--------------------|
D:-10-10--9---9---8---8---8---8-|-9-9---8---8---6---6---6----|
A:-10-10--7---7---8---8---8---8-|-9-9---6---8---6---6---6----|
E:-8--8-----------6---6---6---6-|-7-7-------6---4---4---4----|
  take a look right in the mirror What are you a fucking queer?

   F#5   C5        F#5   C5        F#5   C5        F#5   C5
e:-------------------------------------------------------------|
B:-------------------------------------------------------------|
G:-------5-5-------------5-5-------------5-5-------------5-5---|
D:-4-4---5-5-------4-4---5-5-------4-4---5-5-------4-4---5-5---|
A:-4-4---3-3-------4-4---3-3-------4-4---3-3-------4-4---3-3---|
E:-2-2-------------2-2-------------2-2-------------2-2---------|
Kick and punch and kick and punch and kick and punch and kick and punch

   C#5        A5       Bb5      B5       C5(hold)
e:---------------------------------------------|
B:---------------------------------------------|
G:---------------------------------------------|
D:-11-11------7-7------8-8------9-9------10-10-|
A:-11-11------7-7------8-8------9-9------10-10-|
E:-9--9-------5-5------6-6------7-7------8--8--|
Who's your friend? Where's your friend? He's over there, he's gonna fuck
it up for everybody

Solo(very fast):

e:-8-8-8---8-(8)--------------------|-7-7-7(7)------------------|
B:-8-8-8---10p8---8-8---8(8)--------|-7-7-9p7---0-------0---0---|
G:----------------8-8---9p8---------|-----------6-b(7)----------|
D:---------------------------10--10-|-------------------9---9---|
A:----------------------------------|---------------------------|
E:----------------------------------|---------------------------|


e:-8-8-8--8-------------------------|-7-7-7(7)------------------|
B:-8-8-10p8----------------0---0----|-7-7-9p7---0-------0---0---|
G:----------------8-b-9-------------|-----------6-b(7)----------|
D:-------------------------9---9----|-------------------9---9---|
A:----------------------------------|---------------------------|
E:----------------------------------|---------------------------|


   F#5   C5        F#5   C5        F#5   C5        F#5   C5
e:-------------------------------------------------------------|
B:-------------------------------------------------------------|
G:-------5-5-------------5-5-------------5-5-------------5-5---|
D:-4-4---5-5-------4-4---5-5-------4-4---5-5-------4-4---5-5---|
A:-4-4---3-3-------4-4---3-3-------4-4---3-3-------4-4---3-3---|
E:-2-2-------------2-2-------------2-2-------------2-2---------|
Kick and punch and kick and punch and kick and punch and kick and punch

   C#5        A5       Bb5      B5       C5(hold)
e:---------------------------------------------|
B:---------------------------------------------|
G:---------------------------------------------|
D:-11-11------7-7------8-8------9-9------10-10-|
A:-11-11------7-7------8-8------9-9------10-10-|
E:-9--9-------5-5------6-6------7-7------8--8--|
Who's you friend? Who's your friend? Where's your friend? I guess he'd rather
be punch drunk....


TP.

BRICKLAYER (Bob Mould)

Intro:
   D5(strum furiously)                (hold)
e:-------------------------------------------------------------------|
B:-------------------------------------------------------------------|
G:-7-----------------------------------7-----------------------------|
D:-7-------------------------------7---7-----------------------------|
A:-5-------------------------------0---5-----------------------------|
E:-------------------------------------------------------------------|

   D5    E5  B5    C5   G5    G#5 Bb5   C5      D5    F5   C5
e:-------------------------------------------------------------------|
B:-------------------------------------------------------------------|
G:-7-7---9--------------------------------------7-7---10-------------|
D:-7-7---9---9-9---10---5-5---6---8-8---10-10---7-7---10---10---10---|
A:-5-5---7---9-9---10---5-5---6---8-8---10-10---5-5---8----10---10---|
E:-----------7-7---8----3-3---4---6-6---8--8---------------8----8----|
   Brick on the head from the top of the ceiling urban sniper, urban killer
   won't be finished until you're dead

   C5      E5      Bb5    C5     D5    E5  B5    C5
e:-----------------------------|---------------------------|
B:-----------------------------|---------------------------|
G:-----------------------------|-7-7---9-------------------|
D:-10-10-/-14-14-\-8-8----10---|-7-7---9---9-9---10--------|
A:-10-10-/-14-14-\-8-8----10---|-5-5---7---9-9---10--------|
E:-8--8--/-12-12-\-6-6----8----|-----------7-7---8---------|
   urban sniper, urban killer    brick out the window, top of the head

   C5      D#5     Bb5   A5      C5 D#5       Bb5   C5
e:-----------------------------|---------------------------|
B:-----------------------------|---------------------------|
G:-----------------------------|---------------------------|
D:-10-10---13-13---8-8---7---7-|-10/13---13---8-8---10-----|
A:-10-10---13-13---8-8---7---7-|-10/13---13---8-8---10-----|
E:-8--8----11-11---6-6---5---5-|-8-/11---11---6-6---8------|
brick on the head, cause you're a fuckhead brick at the window, top of my head
you're a fuckhead

   C5      B5 A5 F#(hold)
e:--------------------------------|
B:---------------7----------------|
G:---------------6----------------|
D:-10-10---9--7--4----------------|
A:-10-10---9--7--4----------------|
E:-8--8----7--5-------------------|

Solo (fast):

e:-2---2h3p2---2---3---3h5p3---5-5---6-6---8--10--10p0--6p0--4p0--2p0---0---0-|
B:-2---2-2-2---2---3---3-3-3---5-5---6-6---8--10--10p0--6p0--4p0--2p0---0---0-|
G:----------------------------------------------------------------------------|
D:----------------------------------------------------------------------------|
A:----------------------------------------------------------------------------|
E:----------------------------------------------------------------------------|
   You're a fuckhead

e:-2p0--4p0--6p0--8p0--8p0--8p0--8p0--10--10p0--6p0--4p0--2p0--0--0--2p0--2p0-|
B:-2p0--4p0--6p0--8p0--8p0--8p0--8p0--10--10p0--6p0--4p0--2p0--0--0--2p0--2p0-|
G:----------------------------------------------------------------------------|
D:----------------------------------------------------------------------------|
A:----------------------------------------------------------------------------|
E:----------------------------------------------------------------------------|

                                                                     (hold)
e:-------------------------------------------2-2-------2-/-14-\-2---3-3-------|
B:-------------------------------------------2-2-------2-/-14-\-2---3-3-------|
G:-8-8---5-5---10--\---8-8---5-5---10--\-----------4--------------------------|
D:-8-8---5-5---10--\---8-8---5-5---10--\--------------------------------------|
A:-6-6---3-3---8---\---6-6---3-3---8---\--------------------------------------|
E:----------------------------------------------------------------------------|


TP.

AFRAID OF BEING WRONG - (Bob Mould)

Chords:

Verse:  D  X577XX   F X8,10,10,XX    E X799XX    G X,10,12,12,XX

Chorus: G# 466XXX   B 799XXX         A 577XXX

Verse:

   D                   F   E   G    E     D                   F   E   G    E
e:--------------------------------------|--------------------------------------|
B:--------------------------------------|--------------------------------------|
G:-7-7-7-7---7-7-7-7---10--9---12---9-9-|-7-7-7-7---7-7-7-7---10--9---12---9-9-|
D:-7-7-7-7---7-7-7-7---10--9---12---9-9-|-7-7-7-7---7-7-7-7---10--9---12---9-9-|
A:-5-5-5-5---5-5-5-5---8---7---10---7-7-|-5-5-5-5---5-5-5-5---8---7---10---7-7-|
E:--------------------------------------|--------------------------------------|
Don't speak unless spoken to              and then you don't say much

   D                   F   E   F    E     D                   F   E   F    E
e:--------------------------------------|--------------------------------------|
B:--------------------------------------|--------------------------------------|
G:-7-7-7-7---7-7-7-7---10--9---10---9-9-|-7-7-7-7---7-7-7-7---10--9---10---9-9-|
D:-7-7-7-7---7-7-7-7---10--9---10---9-9-|-7-7-7-7---7-7-7-7---10--9---10---9-9-|
A:-5-5-5-5---5-5-5-5---8---7---8----7-7-|-5-5-5-5---5-5-5-5---8---7---8----7-7-|
E:--------------------------------------|--------------------------------------|
You think you're so self-righteous        but your mind is out of touch

Chorus:

   G#                  D   E   B         G#                  D   E   B
e:-------------------------------------|-------------------------------------|
B:-------------------------------------|-------------------------------------|
G:---------------------7---9-----------|---------------------7---9-----------|
D:-6-6-6-6---6-6-6-6---7---9---9---9-9-|-6-6-6-6---6-6-6-6---7---9---9---9-9-|
A:-6-6-6-6---6-6-6-6---5---7---9---9-9-|-6-6-6-6---6-6-6-6---5---7---9---9-9-|
E:-4-4-4-4---4-4-4-4-----------7---7-7-|-4-4-4-4---4-4-4-4-----------7---7-7-|
You're afraid you're afraid of being wrong
                                        always be the passive one and go along

   G#                  D   E   B
e:-------------------------------------|
B:-------------------------------------|
G:---------------------7---9-----------|
D:-6-6-6-6---6-6-6-6---7---9---9---9-9-|
A:-6-6-6-6---6-6-6-6---5---7---9---9-9-|
E:-4-4-4-4---4-4-4-4-----------7---7-7-|
You're afraid you're afraid to speak your mind

   G#                  D   E   B         D  E   B         D  E   B         A
e:-------------------------------------|-------------------------------------|
B:-------------------------------------|-------------------------------------|
G:---------------------7---9-----------|-7--9-------------7--9---------------|
D:-6-6-6-6---6-6-6-6---7---9---9---9-9-|-7--9---9---9-9---7--9---9---9-9---7-|
A:-6-6-6-6---6-6-6-6---5---7---9---9-9-|-5--7---9---9-9---5--7---9---9-9---7-|
E:-4-4-4-4---4-4-4-4-----------7---7-7-|--------7---7-7----------7---7-7---5-|
                that's not for me,       not for me,       not for me

Verse 2:

   D                   F   E   G    E     D                   F   E   G    E
e:--------------------------------------|--------------------------------------|
B:--------------------------------------|--------------------------------------|
G:-7-7-7-7---7-7-7-7---10--9---12---9-9-|-7-7-7-7---7-7-7-7---10--9---12---9-9-|
D:-7-7-7-7---7-7-7-7---10--9---12---9-9-|-7-7-7-7---7-7-7-7---10--9---12---9-9-|
A:-5-5-5-5---5-5-5-5---8---7---10---7-7-|-5-5-5-5---5-5-5-5---8---7---10---7-7-|
E:--------------------------------------|--------------------------------------|
   Living in a crystal maze               Fucked, you can't get out

   D                   F   E   F    E     D                   F   E   F    E
e:--------------------------------------|--------------------------------------|
B:--------------------------------------|--------------------------------------|
G:-7-7-7-7---7-7-7-7---10--9---10---9-9-|-7-7-7-7---7-7-7-7---10--9---10---9-9-|
D:-7-7-7-7---7-7-7-7---10--9---10---9-9-|-7-7-7-7---7-7-7-7---10--9---10---9-9-|
A:-5-5-5-5---5-5-5-5---8---7---8----7-7-|-5-5-5-5---5-5-5-5---8---7---8----7-7-|
E:--------------------------------------|--------------------------------------|
   Never be the agitator                  unless you know what it's all about

Chorus:

   G#                  D   E   B         G#                  D   E   B
e:-------------------------------------|-------------------------------------|
B:-------------------------------------|-------------------------------------|
G:---------------------7---9-----------|---------------------7---9-----------|
D:-6-6-6-6---6-6-6-6---7---9---9---9-9-|-6-6-6-6---6-6-6-6---7---9---9---9-9-|
A:-6-6-6-6---6-6-6-6---5---7---9---9-9-|-6-6-6-6---6-6-6-6---5---7---9---9-9-|
E:-4-4-4-4---4-4-4-4-----------7---7-7-|-4-4-4-4---4-4-4-4-----------7---7-7-|
You're afraid you're afraid of being wrong
                                        always be the passive one and go along

   G#                  D   E   B
e:-------------------------------------|
B:-------------------------------------|
G:---------------------7---9-----------|
D:-6-6-6-6---6-6-6-6---7---9---9---9-9-|
A:-6-6-6-6---6-6-6-6---5---7---9---9-9-|
E:-4-4-4-4---4-4-4-4-----------7---7-7-|
You're afraid you're afraid to speak your mind

   G#                  D   E   B         D  E   B         D  E   B         A
e:-------------------------------------|-------------------------------------|
B:-------------------------------------|-------------------------------------|
G:---------------------7---9-----------|-7--9-------------7--9---------------|
D:-6-6-6-6---6-6-6-6---7---9---9---9-9-|-7--9---9---9-9---7--9---9---9-9---7-|
A:-6-6-6-6---6-6-6-6---5---7---9---9-9-|-5--7---9---9-9---5--7---9---9-9---7-|
E:-4-4-4-4---4-4-4-4-----------7---7-7-|--------7---7-7----------7---7-7---5-|
                that's not for me,       not for me,       not for me


Solo (not tabbed) over the following:

   D                   F   E   G    E     D                   F   E   G    E
e:--------------------------------------|--------------------------------------|
B:--------------------------------------|--------------------------------------|
G:-7-7-7-7---7-7-7-7---10--9---12---9-9-|-7-7-7-7---7-7-7-7---10--9---12---9-9-|
D:-7-7-7-7---7-7-7-7---10--9---12---9-9-|-7-7-7-7---7-7-7-7---10--9---12---9-9-|
A:-5-5-5-5---5-5-5-5---8---7---10---7-7-|-5-5-5-5---5-5-5-5---8---7---10---7-7-|
E:--------------------------------------|--------------------------------------|


   D                   F   E   F    E     D                   F   E   F    E
e:--------------------------------------|--------------------------------------|
B:--------------------------------------|--------------------------------------|
G:-7-7-7-7---7-7-7-7---10--9---10---9-9-|-7-7-7-7---7-7-7-7---10--9---10---9-9-|
D:-7-7-7-7---7-7-7-7---10--9---10---9-9-|-7-7-7-7---7-7-7-7---10--9---10---9-9-|
A:-5-5-5-5---5-5-5-5---8---7---8----7-7-|-5-5-5-5---5-5-5-5---8---7---8----7-7-|
E:--------------------------------------|--------------------------------------|

Chorus (solo continues):

   G#                  D   E   B         G#                  D   E   B
e:-------------------------------------|-------------------------------------|
B:-------------------------------------|-------------------------------------|
G:---------------------7---9-----------|---------------------7---9-----------|
D:-6-6-6-6---6-6-6-6---7---9---9---9-9-|-6-6-6-6---6-6-6-6---7---9---9---9-9-|
A:-6-6-6-6---6-6-6-6---5---7---9---9-9-|-6-6-6-6---6-6-6-6---5---7---9---9-9-|
E:-4-4-4-4---4-4-4-4-----------7---7-7-|-4-4-4-4---4-4-4-4-----------7---7-7-|
You're afraid you're afraid,             You're afraid you're afraid

   G#                  D   E   B
e:-------------------------------------|
B:-------------------------------------|
G:---------------------7---9-----------|
D:-6-6-6-6---6-6-6-6---7---9---9---9-9-|
A:-6-6-6-6---6-6-6-6---5---7---9---9-9-|
E:-4-4-4-4---4-4-4-4-----------7---7-7-|
You're afraid you're afraid

   G#                  D   E   B         D  E   B         D  E   B         A
e:-------------------------------------|-------------------------------------|
B:-------------------------------------|-------------------------------------|
G:---------------------7---9-----------|-7--9-------------7--9---------------|
D:-6-6-6-6---6-6-6-6---7---9---9---9-9-|-7--9---9---9-9---7--9---9---9-9---7-|
A:-6-6-6-6---6-6-6-6---5---7---9---9-9-|-5--7---9---9-9---5--7---9---9-9---7-|
E:-4-4-4-4---4-4-4-4-----------7---7-7-|--------7---7-7----------7---7-7---5-|
                that's not for me,       not for me,       not for me

TP.

SUNSHINE SUPERMAN - (Donovan Leitch)

Chords: C#7 X46464    F# 244322    G# 466544    F#7 244320

Intro (Bass):
                                                (hold)
G:-----------------------------|----------------------------|
D:---------------2-------------|-----------------2----------|
A:-4---4---2-4-------4---2-4---|-4---4-4---2-4--------------|
E:-----------------------------|----------------------------|

Guitar:

   C#7
e:-----------------------------|---------------------------|
B:-----------------------------|---------------------------|
G:---------6-6-5-4-------------|---------6-6-5-4-----------|
D:---------------------3---6---|---------------------------|
A:-4---4-------------4---------|-4---4---------------------|
E:-----------------------------|---------------------------|
Sunshine came softly through my          window today

   C#7
e:-----------------------------|---------------------------|
B:-----------------------------|---------------------------|
G:---------6-6-5-4-------------|---------6-6-5-4-----------|
D:---------------------3---6---|---------------------------|
A:-4---4-------------4---------|-4---4---------------------|
E:-----------------------------|---------------------------|
Could've tripped out easy but I've       changed my ways

   F#
e:-------------------------------|-------------------------------------|
B:-------------------------------|-------------------------------------|
G:-----------6-6-4-3---------3---|-----------6-6-4-3---3-3---3-4-3-----|
D:-4---4-4-------------4-4-------|-4---4-4-------------------------4---|
A:-------------------------------|-------------------------------------|
E:-------------------------------|-------------------------------------|
      It'll take time I know it               but in a while

   C#7
e:-----------------------------|---------------------------|
B:-----------------------------|---------------------------|
G:---------6-6-5-4-------------|---------6-6-5-4-----------|
D:---------------------3---6---|---------------------------|
A:-4---4-------------4---------|-4---4---------------------|
E:-----------------------------|---------------------------|
You're gonna be mine I know it,          we'll do it in style

   G#(hold)                        F#7(hold)
e:-4-----------------------------|-0-0---------------------------|
B:-4-----------------------------|-2-2---------------------------|
G:-5-----------------------------|-3-3---------------------------|
D:-6-----------------------------|-4-4---------------------------|
A:-6-----------------------------|-4-4---------------------------|
E:-4-----------------------------|-2-2---------------------------|
'Cause I made my mind up you're    going to be mine

   C#7
e:-----------------------------|---------------------------|
B:-----------------------------|---------------------------|
G:---------6-6-5-4-------------|---------6-6-5-4-----------|
D:---------------------3---6---|---------------------------|
A:-4---4-------------4---------|-4---4---------------------|
E:-----------------------------|---------------------------|
Any trick in the book now baby           that I can find

   C#7
e:-----------------------------|---------------------------|
B:-----------------------------|---------------------------|
G:---------6-6-5-4-------------|---------6-6-5-4-----------|
D:---------------------3---6---|---------------------------|
A:-4---4-------------4---------|-4---4---------------------|
E:-----------------------------|---------------------------|
Everybody's hustlin' just to         have a little scene

   F#
e:-------------------------------|-------------------------------------|
B:-------------------------------|-------------------------------------|
G:-----------6-6-4-3---------3---|-----------6-6-4-3---3-3---3-4-3-----|
D:-4---4-4-------------4-4-------|-4---4-4-------------------------4---|
A:-------------------------------|-------------------------------------|
E:-------------------------------|-------------------------------------|
You stood on the beach at sunset,      do you remember when?

   C#7
e:-----------------------------|---------------------------|
B:-----------------------------|---------------------------|
G:---------6-6-5-4-------------|---------6-6-5-4-----------|
D:---------------------3---6---|---------------------------|
A:-4---4-------------4---------|-4---4---------------------|
E:-----------------------------|---------------------------|
    I know a beach where baby            it never ends

   G#(hold)                        F#7(hold)
e:-4-----------------------------|-0-0---------------------------|
B:-4-----------------------------|-2-2---------------------------|
G:-5-----------------------------|-3-3---------------------------|
D:-6-----------------------------|-4-4---------------------------|
A:-6-----------------------------|-4-4---------------------------|
E:-4-----------------------------|-2-2---------------------------|
'Cause I made my mind up you're    going to be mine

Solo over verse and chorus chords:

C#7       F#       C#7

G# (hold) F#7

   C#7
e:-----------------------------|---------------------------|
B:-----------------------------|---------------------------|
G:---------6-6-5-4-------------|---------6-6-5-4-----------|
D:---------------------3---6---|---------------------------|
A:-4---4-------------4---------|-4---4---------------------|
E:-----------------------------|---------------------------|
Superman or Green Lantern ain't got      nothin' on me

   C#7
e:-----------------------------|---------------------------|
B:-----------------------------|---------------------------|
G:---------6-6-5-4-------------|---------6-6-5-4-----------|
D:---------------------3---6---|---------------------------|
A:-4---4-------------4---------|-4---4---------------------|
E:-----------------------------|---------------------------|
I can make like a turtle and dive for    pearls in the sea

   F#
e:-------------------------------|-------------------------------------|
B:-------------------------------|-------------------------------------|
G:-----------6-6-4-3---------3---|-----------6-6-4-3---3-3---3-4-3-----|
D:-4---4-4-------------4-4-------|-4---4-4-------------------------4---|
A:-------------------------------|-------------------------------------|
E:-------------------------------|-------------------------------------|
Oh you can just sit therethinkin'on your     velvet throne

   C#7
e:-----------------------------|---------------------------|
B:-----------------------------|---------------------------|
G:---------6-6-5-4-------------|---------6-6-5-4-----------|
D:---------------------3---6---|---------------------------|
A:-4---4-------------4---------|-4---4---------------------|
E:-----------------------------|---------------------------|
You've got all the rainbows you can     have for your own

   G#(hold)                        F#7(hold)
e:-4-----------------------------|-0-0---------------------------|
B:-4-----------------------------|-2-2---------------------------|
G:-5-----------------------------|-3-3---------------------------|
D:-6-----------------------------|-4-4---------------------------|
A:-6-----------------------------|-4-4---------------------------|
E:-4-----------------------------|-2-2---------------------------|
When you've made your mind up you're going to be mine


TP

SIGNALS FROM ABOVE - (Bob Mould)

Intro:

Wild solo (not tabbed) that ends on the following chord: F# XX467X

   F#5                 C#5 A5  G#5 C#5  F#5                 C#5 A5  G#5 C#5
e:------------------------------------|------------------------------------|
B:------------------------------------|------------------------------------|
G:---------------------6-----------6--|---------------------6-----------6--|
D:-4-4-4-4---4-4-4-4---6---7---6---6--|-4-4-4-4---4-4-4-4---6---7---6---6--|
A:-4-4-4-4---4-4-4-4---4---7---6---4--|-4-4-4-4---4-4-4-4---4---7---6---4--|
E:-2-2-2-2---2-2-2-2-------5---4------|-2-2-2-2---2-2-2-2-------5---4------|

Verse:

   F#5                 C#5 A5  G#5 C#5  F#5                 C#5 A5  G#5 C#5
e:------------------------------------|------------------------------------|
B:------------------------------------|------------------------------------|
G:---------------------6-----------6--|---------------------6-----------6--|
D:-4-4-4-4---4-4-4-4---6---7---6---6--|-4-4-4-4---4-4-4-4---6---7---6---6--|
A:-4-4-4-4---4-4-4-4---4---7---6---4--|-4-4-4-4---4-4-4-4---4---7---6---4--|
E:-2-2-2-2---2-2-2-2-------5---4------|-2-2-2-2---2-2-2-2-------5---4------|
You're like a relic-you're like a ghost Can't see a thing cause your eyes are
                                                                         closed

   F#5                 C#5 A5  G#5 C#5  F#5                 C#5 A5  G#5 C#5
e:------------------------------------|------------------------------------|
B:------------------------------------|------------------------------------|
G:---------------------6-----------6--|---------------------6-----------6--|
D:-4-4-4-4---4-4-4-4---6---7---6---6--|-4-4-4-4---4-4-4-4---6---7---6---6--|
A:-4-4-4-4---4-4-4-4---4---7---6---4--|-4-4-4-4---4-4-4-4---4---7---6---4--|
E:-2-2-2-2---2-2-2-2-------5---4------|-2-2-2-2---2-2-2-2-------5---4------|
Dirt cheap love is a thing of the past  I feel hate cause I move fast

Chorus:

   G#5       E5      B5        D#5      G#5       E5      B5        D#5
e:------------------------------------|------------------------------------|
B:------------------------------------|------------------------------------|
G:-----------9-9-9-------------8-8-8--|-----------9-9-9-------------8-8-8--|
D:-6-6-6-6---9-9-9---9-9-9-9---8-8-8--|-6-6-6-6---9-9-9---9-9-9-9---8-8-8--|
A:-6-6-6-6---7-7-7---9-9-9-9---6-6-6--|-6-6-6-6---7-7-7---9-9-9-9---6-6-6--|
E:-4-4-4-4-----------7-7-7-7----------|-4-4-4-4-----------7-7-7-7----------|
You think the whole world is incense peace and love
                                        you can't escape the siganls from above.

   G#5       E5      B5        D#5      B5
e:------------------------------------|------------------------------------|
B:------------------------------------|------------------------------------|
G:-----------9-9-9-------------8-8-8--|-4-4-4-4--4-4-4-4--4-4-4-4--4-4-4-4-|
D:-6-6-6-6---9-9-9---9-9-9-9---8-8-8--|-4-4-4-4--4-4-4-4--4-4-4-4--4-4-4-4-|
A:-6-6-6-6---7-7-7---9-9-9-9---6-6-6--|-2-2-2-2--2-2-2-2--2-2-2-2--2-2-2-2-|
E:-4-4-4-4-----------7-7-7-7----------|------------------------------------|
You can't escape the siganls from above.

   F#5                 C#5 A5  G#5 C#5  F#5                 C#5 A5  G#5 C#5
e:------------------------------------|------------------------------------|
B:------------------------------------|------------------------------------|
G:---------------------6-----------6--|---------------------6-----------6--|
D:-4-4-4-4---4-4-4-4---6---7---6---6--|-4-4-4-4---4-4-4-4---6---7---6---6--|
A:-4-4-4-4---4-4-4-4---4---7---6---4--|-4-4-4-4---4-4-4-4---4---7---6---4--|
E:-2-2-2-2---2-2-2-2-------5---4------|-2-2-2-2---2-2-2-2-------5---4------|

Verse:

   F#5                 C#5 A5  G#5 C#5  F#5                 C#5 A5  G#5 C#5
e:------------------------------------|------------------------------------|
B:------------------------------------|------------------------------------|
G:---------------------6-----------6--|---------------------6-----------6--|
D:-4-4-4-4---4-4-4-4---6---7---6---6--|-4-4-4-4---4-4-4-4---6---7---6---6--|
A:-4-4-4-4---4-4-4-4---4---7---6---4--|-4-4-4-4---4-4-4-4---4---7---6---4--|
E:-2-2-2-2---2-2-2-2-------5---4------|-2-2-2-2---2-2-2-2-------5---4------|
You're like a relic-you're like a ghost Can't see a thing cause your eyes are
                                                                         closed

   F#5                 C#5 A5  G#5 C#5  F#5                 C#5 A5  G#5 C#5
e:------------------------------------|------------------------------------|
B:------------------------------------|------------------------------------|
G:---------------------6-----------6--|---------------------6-----------6--|
D:-4-4-4-4---4-4-4-4---6---7---6---6--|-4-4-4-4---4-4-4-4---6---7---6---6--|
A:-4-4-4-4---4-4-4-4---4---7---6---4--|-4-4-4-4---4-4-4-4---4---7---6---4--|
E:-2-2-2-2---2-2-2-2-------5---4------|-2-2-2-2---2-2-2-2-------5---4------|
Dirt cheap love is a thing of the past  I feel hate cause I move fast

Chorus:

   G#5       E5      B5        D#5      G#5       E5      B5        D#5
e:------------------------------------|------------------------------------|
B:------------------------------------|------------------------------------|
G:-----------9-9-9-------------8-8-8--|-----------9-9-9-------------8-8-8--|
D:-6-6-6-6---9-9-9---9-9-9-9---8-8-8--|-6-6-6-6---9-9-9---9-9-9-9---8-8-8--|
A:-6-6-6-6---7-7-7---9-9-9-9---6-6-6--|-6-6-6-6---7-7-7---9-9-9-9---6-6-6--|
E:-4-4-4-4-----------7-7-7-7----------|-4-4-4-4-----------7-7-7-7----------|
You think the whole world is incense peace and love
                                        you can't escape the siganls from above.

   G#5       E5      B5        D#5      B5
e:------------------------------------|------------------------------------|
B:------------------------------------|------------------------------------|
G:-----------9-9-9-------------8-8-8--|-4-4-4-4--4-4-4-4--4-4-4-4--4-4-4-4-|
D:-6-6-6-6---9-9-9---9-9-9-9---8-8-8--|-4-4-4-4--4-4-4-4--4-4-4-4--4-4-4-4-|
A:-6-6-6-6---7-7-7---9-9-9-9---6-6-6--|-2-2-2-2--2-2-2-2--2-2-2-2--2-2-2-2-|
E:-4-4-4-4-----------7-7-7-7----------|------------------------------------|
You can't escape the siganls from above.

   C#5       E5  C#5       E5   C#5       E5  C#5       E5
e:----------------------------|-----------------------------|
B:----------------------------|-----------------------------|
G:-6-6-6-6---9---6-6-6-6---9--|-6-6-6-6---9---6-6-6-6---9---|
D:-6-6-6-6---9---6-6-6-6---9--|-6-6-6-6---9---6-6-6-6---9---|
A:-4-4-4-4---7---4-4-4-4---7--|-4-4-4-4---7---4-4-4-4---7---|
E:----------------------------|-----------------------------|

Solo (not tabbed) over the following:

   F#5                 C#5 A5  G#5 C#5  F#5                 C#5 A5  G#5 C#5
e:------------------------------------|------------------------------------|
B:------------------------------------|------------------------------------|
G:---------------------6-----------6--|---------------------6-----------6--|
D:-4-4-4-4---4-4-4-4---6---7---6---6--|-4-4-4-4---4-4-4-4---6---7---6---6--|
A:-4-4-4-4---4-4-4-4---4---7---6---4--|-4-4-4-4---4-4-4-4---4---7---6---4--|
E:-2-2-2-2---2-2-2-2-------5---4------|-2-2-2-2---2-2-2-2-------5---4------|

   F#5                 C#5 A5  G#5 C#5  F#5                 C#5 A5  G#5 C#5
e:------------------------------------|------------------------------------|
B:------------------------------------|------------------------------------|
G:---------------------6-----------6--|---------------------6-----------6--|
D:-4-4-4-4---4-4-4-4---6---7---6---6--|-4-4-4-4---4-4-4-4---6---7---6---6--|
A:-4-4-4-4---4-4-4-4---4---7---6---4--|-4-4-4-4---4-4-4-4---4---7---6---4--|
E:-2-2-2-2---2-2-2-2-------5---4------|-2-2-2-2---2-2-2-2-------5---4------|

   G#5       E5      B5        D#5      G#5       E5      B5        D#5
e:------------------------------------|------------------------------------|
B:------------------------------------|------------------------------------|
G:-----------9-9-9-------------8-8-8--|-----------9-9-9-------------8-8-8--|
D:-6-6-6-6---9-9-9---9-9-9-9---8-8-8--|-6-6-6-6---9-9-9---9-9-9-9---8-8-8--|
A:-6-6-6-6---7-7-7---9-9-9-9---6-6-6--|-6-6-6-6---7-7-7---9-9-9-9---6-6-6--|
E:-4-4-4-4-----------7-7-7-7----------|-4-4-4-4-----------7-7-7-7----------|

   G#5       E5      B5        D#5      G#5       E5      B5        D#5
e:------------------------------------|------------------------------------|
B:------------------------------------|------------------------------------|
G:-----------9-9-9-------------8-8-8--|-----------9-9-9-------------8\-----|
D:-6-6-6-6---9-9-9---9-9-9-9---8-8-8--|-6-6-6-6---9-9-9---9-9-9-9---8\-----|
A:-6-6-6-6---7-7-7---9-9-9-9---6-6-6--|-6-6-6-6---7-7-7---9-9-9-9---6\-----|
E:-4-4-4-4-----------7-7-7-7----------|-4-4-4-4-----------7-7-7-7----------|

TP.

EVERYTHING FALLS APART - (Bob Mould)

Verse:
A5 X022XX  G5 355XXX  C5 X355XX  D#5 XX13XX  Bb5 X133XX     F5 133XX

Chorus:
G  355033 354033 350033        Asus2 X02200   Am X02210  Asus4 X02230


A5   G5              C5              D#5
If I listened to the things that you said
     Bb5               F5
everything would fall apart
A5   G5          C5              D#5
If I did all the things that you do
     Bb5               F5
everything could fall apart
A5   G5                 C5              D#5
Let's not listen to the things that they say
     Bb5             F5
everything can fall apart
A5    G5              C5                D#5
Let's think about our actions before we do them
     Bb5               F5
everything will fall apart

   G                                   Asus2   Am    Asus4 Am
e:-3---3-3---3---3-3---3---3---3-3---|-0-0-0---0-0-0---0---0-------|
B:-3---3-3---3---3-3---3---3---3-3---|-0-0-0---1-1-1---3---1-------|
G:-0---0-0---0---0-0---0---0---0-0---|-2-2-2---2-2-2---2---2-------|
D:-5---5-5---4---4-4---5---0---0-0---|-2-2-2---2-2-2---2---2-------|
A:-5---5-5---5---5-5---5---5---------|-0-0-0---0-0-0---0---0-------|
E:-3---3-3---3---3-3---3-------3-3---|-----------------------------|
   I got nothing to do                 You got nothing to say

   G                                   Asus2   Am    Asus4 Am
e:-3---3-3---3---3-3---3---3---3-3---|-0-0-0---0-0-0---0---0-------|
B:-3---3-3---3---3-3---3---3---3-3---|-0-0-0---1-1-1---3---1-------|
G:-0---0-0---0---0-0---0---0---0-0---|-2-2-2---2-2-2---2---2-------|
D:-5---5-5---4---4-4---5---0---0-0---|-2-2-2---2-2-2---2---2-------|
A:-5---5-5---5---5-5---5---5---------|-0-0-0---0-0-0---0---0-------|
E:-3---3-3---3---3-3---3-------3-3---|-----------------------------|
   Everything is so fucked up          I guess it's natural that way.

RIFF 1(live)
   C            Am               C          Am
e:-----------------------------|-------------------------|
B:--------------------------1--|----------------------1--|
G:----0-----0---2---2---2---2--|----0-----0--2--2--2--2--|
D:-2--0--3--0---2---2---2---2--|-2--0--2--0--2--2--2--2--|
A:-3-----3------0---0---0------|-3-----3-----0--0--0-----|
E:-----------------------------|-------------------------|
                Every thing falls apart

   C           Am            C           Am
e:-------------------------|------------------------|
B:----------------------1--|----------------------1-|
G:----0-----0--2--2--2--2--|----0-----0--2--2--2--2-|
D:-2--0--2--0--2--2--2--2--|-2--0--2--0--2--2--2--2-|
A:-3-----3-----0--0--0-----|-3-----3-----0--0--0----|
E:-------------------------|------------------------|
               Every thing falls apart

Guitar2 (Played over above)              (+=harmonics)
e:-------------------------|--------------------------|
B:----------------------5--|--------------------5+----|
G:-------------0--0--0--0--|-----------------------5+-|
D:-5--5--5--5--5--5--5-----|--5--5--5--5--5+-5+----5+-|
A:-3--5--3--5--------------|--3--5--3--5--------------|
E:-------------------------|--------------------------|


e:-------------------------|--------------------------|
B:----------------------5--|--------------------5+----|
G:-------------0--0--0--0--|-----------------------5+-|
D:-5--5--5--5--5--5--5-----|--5--5--5--5--5+-5+----5+-|
A:-3--5--3--5--------------|--3--5--3--5--------------|
E:-------------------------|--------------------------|

A5   G5          C5              D#5
If I did all the things that you do
     Bb5               F5
everything could fall apart
A5   G5                  C5              D#5
If I listened to all the things that you told me
     Bb5               F5
everything would fall apart
A5    G5              C5                D#5
Let's think about our actions before we do them
     Bb5               F5
everything will fall apart
A5    G5         C5           D#5
If we do all the things as we say
     Bb5             F5
everything can fall apart.

G
I got nothing to do
Asus2   Am         Asus4 Am
you got nothing to say
G
everything is so fucked up
Asus2        Am           Asus4 Am
I guess it's natural that way

RIFF 1

A5      G5      C5      D#5 Bb5 F5 X 4 (with solo over)

G
I got nothing to do
Asus2   Am         Asus4 Am
you got nothing to say
G
everything is so fucked up
Asus2      Am           Asus4 Am
I guess we like it that way

RIFF 1

A5   G5              C5
If I listened to the things that
    D#5       Bb5(hold)
you said everything


TP

WHEELS - (Grant Hart)

Intro - Bass (*=harmonics played by the Guitar):

G:----------------|----------------|-7*------5*-----|----------------|
D:----------------|----------------|----------------|----------------|
A:-3-----------1--|-3-----------1--|-3-----------1--|-3-----------1--|
E:-----1---1-1----|-----1---1-1----|-----1---1-1----|-----1---1-1----|

   Dsus4           Eb      Fsus2     Dsus4           Eb      Fsus2
e:-5---5-5---5-5---6-6-6---8-8-8---|-5---5-5---5-5---6-6-6---8-8-8---|
B:-3---3-3---3-3---4-4-4---6-6-6---|-3---3-3---3-3---4-4-4---6-6-6---|
G:-0---0-0---0-0---0-0-0---0-0-0---|-0---0-0---0-0---0-0-0---0-0-0---| Played
D:---------------------------------|---------------------------------| twice
A:---------------------------------|---------------------------------|
E:---------------------------------|---------------------------------|

Verse:

   Dsus4           Eb      Fsus2     Dsus4           Eb      Fsus2
e:-5---5-5---5-5---6-6-6---8-8-8---|-5---5-5---5-5---6-6-6---8-8-8---|
B:-3---3-3---3-3---4-4-4---6-6-6---|-3---3-3---3-3---4-4-4---6-6-6---|
G:-0---0-0---0-0---0-0-0---0-0-0---|-0---0-0---0-0---0-0-0---0-0-0---|
D:---------------------------------|---------------------------------|
A:---------------------------------|---------------------------------|
E:---------------------------------|---------------------------------|
   On a date                         with Sharon Tate

   Dsus4           Eb      Fsus2     Dsus4           Eb      Fsus2
e:-5---5-5---5-5---6-6-6---8-8-8---|-5---5-5---5-5---6-6-6---8-8-8---|
B:-3---3-3---3-3---4-4-4---6-6-6---|-3---3-3---3-3---4-4-4---6-6-6---|
G:-0---0-0---0-0---0-0-0---0-0-0---|-0---0-0---0-0---0-0-0---0-0-0---|
D:---------------------------------|---------------------------------|
A:---------------------------------|---------------------------------|
E:---------------------------------|---------------------------------|
   I'm gonna pick her up             in my new crate

   Dsus4           Eb      Fsus2     Dsus4           Eb      Fsus2
e:-5---5-5---5-5---6-6-6---8-8-8---|-5---5-5---5-5---6-6-6---8-8-8---|
B:-3---3-3---3-3---4-4-4---6-6-6---|-3---3-3---3-3---4-4-4---6-6-6---|
G:-0---0-0---0-0---0-0-0---0-0-0---|-0---0-0---0-0---0-0-0---0-0-0---|
D:---------------------------------|---------------------------------|
A:---------------------------------|---------------------------------|
E:---------------------------------|---------------------------------|
   Well we go to the movies          we go to a drag

   Dsus4           Eb      Fsus2     Dsus4           Eb      Fsus2
e:-5---5-5---5-5---6-6-6---8-8-8---|-5---5-5---5-5---6-6-6---8-8-8---|
B:-3---3-3---3-3---4-4-4---6-6-6---|-3---3-3---3-3---4-4-4---6-6-6---|
G:-0---0-0---0-0---0-0-0---0-0-0---|-0---0-0---0-0---0-0-0---0-0-0---|
D:---------------------------------|---------------------------------|
A:---------------------------------|---------------------------------|
E:---------------------------------|---------------------------------|
   The highway patrol                puts us both in a bag

Chorus:

   C#              Eb               Dsus4
e:--------------------------------|-5---5---5---5--|
B:--------------------------------|-3---3---3---3--|
G:-6-6---6-6-6-6---8-8---8-8-8-8--|-0---0---0---0--|
D:-6-6---6-6-6-6---8-8---8-8-8-8--|----------------|
A:-4-4---4-4-4-4---6-6---6-6-6-6--|----------------|
E:--------------------------------|----------------|
   Wheels, wheels

   C#              Eb               Dsus4
e:--------------------------------|-5---5---5---5--|
B:--------------------------------|-3---3---3---3--|
G:-6-6---6-6-6-6---8-8---8-8-8-8--|-0---0---0---0--|
D:-6-6---6-6-6-6---8-8---8-8-8-8--|----------------|
A:-4-4---4-4-4-4---6-6---6-6-6-6--|----------------|
E:--------------------------------|----------------|
   Wheels, wheels

Verse 2:

   Dsus4           Eb      Fsus2     Dsus4           Eb      Fsus2
e:-5---5-5---5-5---6-6-6---8-8-8---|-5---5-5---5-5---6-6-6---8-8-8---|
B:-3---3-3---3-3---4-4-4---6-6-6---|-3---3-3---3-3---4-4-4---6-6-6---|
G:-0---0-0---0-0---0-0-0---0-0-0---|-0---0-0---0-0---0-0-0---0-0-0---|
D:---------------------------------|---------------------------------|
A:---------------------------------|---------------------------------|
E:---------------------------------|---------------------------------|
   Statue of Mary                    sitting on my dash

   Dsus4           Eb      Fsus2     Dsus4           Eb      Fsus2
e:-5---5-5---5-5---6-6-6---8-8-8---|-5---5-5---5-5---6-6-6---8-8-8---|
B:-3---3-3---3-3---4-4-4---6-6-6---|-3---3-3---3-3---4-4-4---6-6-6---|
G:-0---0-0---0-0---0-0-0---0-0-0---|-0---0-0---0-0---0-0-0---0-0-0---|
D:---------------------------------|---------------------------------|
A:---------------------------------|---------------------------------|
E:---------------------------------|---------------------------------|
   Mother please protect me          help me avoid the crash

   Dsus4           Eb      Fsus2     Dsus4           Eb      Fsus2
e:-5---5-5---5-5---6-6-6---8-8-8---|-5---5-5---5-5---6-6-6---8-8-8---|
B:-3---3-3---3-3---4-4-4---6-6-6---|-3---3-3---3-3---4-4-4---6-6-6---|
G:-0---0-0---0-0---0-0-0---0-0-0---|-0---0-0---0-0---0-0-0---0-0-0---|
D:---------------------------------|---------------------------------|
A:---------------------------------|---------------------------------|
E:---------------------------------|---------------------------------|
   I've got a really big engine      and it goes vroom, vroom

   Dsus4           Eb      Fsus2     Dsus4           Eb      Fsus2
e:-5---5-5---5-5---6-6-6---8-8-8---|-5---5-5---5-5---6-6-6---8-8-8---|
B:-3---3-3---3-3---4-4-4---6-6-6---|-3---3-3---3-3---4-4-4---6-6-6---|
G:-0---0-0---0-0---0-0-0---0-0-0---|-0---0-0---0-0---0-0-0---0-0-0---|
D:---------------------------------|---------------------------------|
A:---------------------------------|---------------------------------|
E:---------------------------------|---------------------------------|
   Could be a cradle,                could be a tomb

Chorus:

   C#              Eb               Dsus4
e:--------------------------------|-5---5---5---5--|
B:--------------------------------|-3---3---3---3--|
G:-6-6---6-6-6-6---8-8---8-8-8-8--|-0---0---0---0--|
D:-6-6---6-6-6-6---8-8---8-8-8-8--|----------------|
A:-4-4---4-4-4-4---6-6---6-6-6-6--|----------------|
E:--------------------------------|----------------|
   Wheels, wheels

   C#              Eb               Dsus4
e:--------------------------------|-5---5---5---5--|
B:--------------------------------|-3---3---3---3--|
G:-6-6---6-6-6-6---8-8---8-8-8-8--|-0---0---0---0--|
D:-6-6---6-6-6-6---8-8---8-8-8-8--|----------------|
A:-4-4---4-4-4-4---6-6---6-6-6-6--|----------------|
E:--------------------------------|----------------|
   Wheels..........

   Dsus4           Eb      Fsus2     Dsus4           Eb      Fsus2
e:-5---5-5---5-5---6-6-6---8-8-8---|-5---5-5---5-5---6-6-6---8-8-8---|
B:-3---3-3---3-3---4-4-4---6-6-6---|-3---3-3---3-3---4-4-4---6-6-6---|
G:-0---0-0---0-0---0-0-0---0-0-0---|-0---0-0---0-0---0-0-0---0-0-0---| Played
D:---------------------------------|---------------------------------| twice
A:---------------------------------|---------------------------------|
E:---------------------------------|---------------------------------|

   Dsus4           Eb    Fsus2 G     Dsus4           Eb    Fsus2 G
e:-5---5-5---5-5---6-6-6---8---10--|-5---5-5---5-5---6-6-6---8---10--|
B:-3---3-3---3-3---4-4-4---6---8---|-3---3-3---3-3---4-4-4---6---8---|
G:-0---0-0---0-0---0-0-0---0---0---|-0---0-0---0-0---0-0-0---0---0---|
D:---------------------------------|---------------------------------|
A:---------------------------------|---------------------------------|
E:---------------------------------|---------------------------------|

   Dsus4           Eb    Fsus2 G     Dsus4           Eb      Fsus2
e:-5---5-5---5-5---6-6-6---8---10--|-5---5-5---5-5---6-6-6---8-8-8---|
B:-3---3-3---3-3---4-4-4---6---8---|-3---3-3---3-3---4-4-4---6-6-6---|
G:-0---0-0---0-0---0-0-0---0---0---|-0---0-0---0-0---0-0-0---0-0-0---|
D:---------------------------------|---------------------------------|
A:---------------------------------|---------------------------------|
E:---------------------------------|---------------------------------|

   Dsus4           Eb(hold)
e:-5---5-5---5-5---6---|
B:-3---3-3---3-3---4---|
G:-0---0-0---0-0---0---|
D:---------------------|
A:---------------------|
E:---------------------|

Chorus:

   C#              Eb               Dsus4
e:--------------------------------|-5---5---5---5----| Repeat
B:--------------------------------|-3---3---3---3----| four times.
G:-6-6---6-6-6-6---8-8---8-8-8-8--|-0---0---0---0----| Slowing
D:-6-6---6-6-6-6---8-8---8-8-8-8--|------------------| during final
A:-4-4---4-4-4-4---6-6---6-6-6-6--|------------------| repeat.
E:--------------------------------|------------------| End on a held Dsus4.
   Wheels, wheels

TP.

TARGET - (Bob Mould)

   D5                            D#5      D5                            F#5
e:--------------------------------------|--------------------------------------|
B:--------------------------------------|--------------------------------------|
G:-7---7-7---7-7-7-7---7-7-7-7---8---8--|-7---7-7---7-7-7-7---7-7-7-7---11-----|
D:-7---7-7---7-7-7-7---7-7-7-7---8---8--|-7---7-7---7-7-7-7---7-7-7-7---11-----|
A:-5---5-5---5-5-5-5---5-5-5-5---6---6--|-5---5-5---5-5-5-5---5-5-5-5---9------|
E:--------------------------------------|--------------------------------------|

   D5                            D#5      D5                            F#5
e:--------------------------------------|--------------------------------------|
B:--------------------------------------|--------------------------------------|
G:-7---7-7---7-7-7-7---7-7-7-7---8---8--|-7---7-7---7-7-7-7---7-7-7-7---11-----|
D:-7---7-7---7-7-7-7---7-7-7-7---8---8--|-7---7-7---7-7-7-7---7-7-7-7---11-----|
A:-5---5-5---5-5-5-5---5-5-5-5---6---6--|-5---5-5---5-5-5-5---5-5-5-5---9------|
E:--------------------------------------|--------------------------------------|

   A5                            Bb5      A5                            C#5 E5
e:--------------------------------------|--------------------------------------|
B:--------------------------------------|--------------------------------------|
G:--------------------------------------|-------------------------------6---9--|
D:-7---7-7---7-7-7-7---7-7-7-7---8---8--|-7---7-7---7-7-7-7---7-7-7-7---6---9--|
A:-7---7-7---7-7-7-7---7-7-7-7---8---8--|-7---7-7---7-7-7-7---7-7-7-7---4---7--|
E:-5---5-5---5-5-5-5---5-5-5-5---6---6--|-5---5-5---5-5-5-5---5-5-5-5----------|

   D5                            D#5      D5                            Bb5
e:--------------------------------------|--------------------------------------|
B:--------------------------------------|--------------------------------------|
G:-7---7-7---7-7-7-7---7-7-7-7---8---8--|-7---7-7---7-7-7-7---7-7-7-7----------|
D:-7---7-7---7-7-7-7---7-7-7-7---8---8--|-7---7-7---7-7-7-7---7-7-7-7---8---8--|
A:-5---5-5---5-5-5-5---5-5-5-5---6---6--|-5---5-5---5-5-5-5---5-5-5-5---8---8--|
E:--------------------------------------|-------------------------------6---6--|

Harmonics:
e:-------------------------|-------------------------|
B:-7*----------------------|-7*----------------------|
G:-7*----------------------|-7*----------------------|
D:-------------------------|-------------------------|
A:-------------------------|-------------------------|
E:-------------------------|-------------------------|
   Don't participate,        Be lethargic

e:-------------------------|-------------------------|
B:-7*----------------------|-7*----------------------|
G:-7*----------------------|-7*----------------------|
D:-------------------------|-------------------------|
A:-------------------------|-------------------------|
E:-------------------------|-------------------------|
   You're a hypocrite,       You're the target

   D5                            D#5      D5                            F#5
e:--------------------------------------|--------------------------------------|
B:--------------------------------------|--------------------------------------|
G:-7---7-7---7-7-7-7---7-7-7-7---8---8--|-7---7-7---7-7-7-7---7-7-7-7---11-----|
D:-7---7-7---7-7-7-7---7-7-7-7---8---8--|-7---7-7---7-7-7-7---7-7-7-7---11-----|
A:-5---5-5---5-5-5-5---5-5-5-5---6---6--|-5---5-5---5-5-5-5---5-5-5-5---9------|
E:--------------------------------------|--------------------------------------|

   D5                            D#5      D5                            F#5
e:--------------------------------------|--------------------------------------|
B:--------------------------------------|--------------------------------------|
G:-7---7-7---7-7-7-7---7-7-7-7---8---8--|-7---7-7---7-7-7-7---7-7-7-7---11-----|
D:-7---7-7---7-7-7-7---7-7-7-7---8---8--|-7---7-7---7-7-7-7---7-7-7-7---11-----|
A:-5---5-5---5-5-5-5---5-5-5-5---6---6--|-5---5-5---5-5-5-5---5-5-5-5---9------|
E:--------------------------------------|--------------------------------------|

Verse:

   D5                            D#5      D5                            F#5
e:--------------------------------------|--------------------------------------|
B:--------------------------------------|--------------------------------------|
G:-7---7-7---7-7-7-7---7-7-7-7---8---8--|-7---7-7---7-7-7-7---7-7-7-7---11-----|
D:-7---7-7---7-7-7-7---7-7-7-7---8---8--|-7---7-7---7-7-7-7---7-7-7-7---11-----|
A:-5---5-5---5-5-5-5---5-5-5-5---6---6--|-5---5-5---5-5-5-5---5-5-5-5---9------|
E:--------------------------------------|--------------------------------------|
   You've seen it all before, you think it's passe

   D5                            D#5      D5                            F#5
e:--------------------------------------|--------------------------------------|
B:--------------------------------------|--------------------------------------|
G:-7---7-7---7-7-7-7---7-7-7-7---8---8--|-7---7-7---7-7-7-7---7-7-7-7---11-----|
D:-7---7-7---7-7-7-7---7-7-7-7---8---8--|-7---7-7---7-7-7-7---7-7-7-7---11-----|
A:-5---5-5---5-5-5-5---5-5-5-5---6---6--|-5---5-5---5-5-5-5---5-5-5-5---9------|
E:--------------------------------------|--------------------------------------|
But you listen to the same fucking records every single day

   A5                            Bb5      A5                            C#5 E5
e:--------------------------------------|--------------------------------------|
B:--------------------------------------|--------------------------------------|
G:--------------------------------------|-------------------------------6---9--|
D:-7---7-7---7-7-7-7---7-7-7-7---8---8--|-7---7-7---7-7-7-7---7-7-7-7---6---9--|
A:-7---7-7---7-7-7-7---7-7-7-7---8---8--|-7---7-7---7-7-7-7---7-7-7-7---4---7--|
E:-5---5-5---5-5-5-5---5-5-5-5---6---6--|-5---5-5---5-5-5-5---5-5-5-5----------|
  You don't like the people who caught on late

   D5                            D#5      D5                            Bb5
e:--------------------------------------|--------------------------------------|
B:--------------------------------------|--------------------------------------|
G:-7---7-7---7-7-7-7---7-7-7-7---8---8--|-7---7-7---7-7-7-7---7-7-7-7----------|
D:-7---7-7---7-7-7-7---7-7-7-7---8---8--|-7---7-7---7-7-7-7---7-7-7-7---8---8--|
A:-5---5-5---5-5-5-5---5-5-5-5---6---6--|-5---5-5---5-5-5-5---5-5-5-5---8---8--|
E:--------------------------------------|-------------------------------6---6--|
   If they're having fun

Harmonics:
e:-------------------------|-------------------------|
B:-7*----------------------|-7*----------------------|
G:-7*----------------------|-7*----------------------|
D:-------------------------|-------------------------|
A:-------------------------|-------------------------|
E:-------------------------|-------------------------|
   Don't participate,        Be lethargic

e:-------------------------|-------------------------|
B:-7*----------------------|-7*----------------------|
G:-7*----------------------|-7*----------------------|
D:-------------------------|-------------------------|
A:-------------------------|-------------------------|
E:-------------------------|-------------------------|
   You're a hypocrite,       You're the target

Solo (not tabbed) over the following:

   D5                            D#5      D5                            D#5
e:--------------------------------------|--------------------------------------|
B:--------------------------------------|--------------------------------------|
G:-7---7-7---7-7-7-7---7-7-7-7---8---8--|-7---7-7---7-7-7-7---7-7-7-7---8---8--|
D:-7---7-7---7-7-7-7---7-7-7-7---8---8--|-7---7-7---7-7-7-7---7-7-7-7---8---8--|
A:-5---5-5---5-5-5-5---5-5-5-5---6---6--|-5---5-5---5-5-5-5---5-5-5-5---6---6--|
E:--------------------------------------|--------------------------------------|

   D5                            D#5      D5                            F#5
e:--------------------------------------|--------------------------------------|
B:--------------------------------------|--------------------------------------|
G:-7---7-7---7-7-7-7---7-7-7-7---8---8--|-7---7-7---7-7-7-7---7-7-7-7---11-----|
D:-7---7-7---7-7-7-7---7-7-7-7---8---8--|-7---7-7---7-7-7-7---7-7-7-7---11-----|
A:-5---5-5---5-5-5-5---5-5-5-5---6---6--|-5---5-5---5-5-5-5---5-5-5-5---9------|
E:--------------------------------------|--------------------------------------|

   A5                            Bb5      A5                            C#5 E5
e:--------------------------------------|--------------------------------------|
B:--------------------------------------|--------------------------------------|
G:--------------------------------------|-------------------------------6---9--|
D:-7---7-7---7-7-7-7---7-7-7-7---8---8--|-7---7-7---7-7-7-7---7-7-7-7---6---9--|
A:-7---7-7---7-7-7-7---7-7-7-7---8---8--|-7---7-7---7-7-7-7---7-7-7-7---4---7--|
E:-5---5-5---5-5-5-5---5-5-5-5---6---6--|-5---5-5---5-5-5-5---5-5-5-5----------|

   D5                            D#5      D5                            F#5
e:--------------------------------------|--------------------------------------|
B:--------------------------------------|--------------------------------------|
G:-7---7-7---7-7-7-7---7-7-7-7---8---8--|-7---7-7---7-7-7-7---7-7-7-7---11-----|
D:-7---7-7---7-7-7-7---7-7-7-7---8---8--|-7---7-7---7-7-7-7---7-7-7-7---11-----|
A:-5---5-5---5-5-5-5---5-5-5-5---6---6--|-5---5-5---5-5-5-5---5-5-5-5---9------|
E:--------------------------------------|--------------------------------------|

   (Harmonics)                            D5                            Bb5 D#5
e:--------------------------------------|--------------------------------------|
B:-7*-----------------------------------|--------------------------------------|
G:-7*-----------------------------------|-7---7-7---7-7-7-7---7-7-7-7-------8\-|
D:--------------------------------------|-7---7-7---7-7-7-7---7-7-7-7---8---8\-|
A:--------------------------------------|-5---5-5---5-5-5-5---5-5-5-5---8---6\-|
E:--------------------------------------|-------------------------------6------|

TP.

OBNOXIOUS - (Bob Mould)

   D5  C#5           D5  C#5            D5  C#5           D5  C#5
e:--------------------------------------|--------------------------------------|
B:--------------------------------------|--------------------------------------|
G:-7---6-6---6-6-6---7---6-6---6-6-6----|-7---6-6---6-6-6---7---6-6---6-6-6----|
D:-7---6-6---6-6-6---7---6-6---6-6-6----|-7---6-6---6-6-6---7---6-6---6-6-6----|
A:-5---4-4---4-4-4---5---4-4---4-4-4----|-5---4-4---4-4-4---5---4-4---4-4-4----|
E:--------------------------------------|--------------------------------------|

   F#5 E5 B5   F#5                        F#5 E5 B5   F#5
e:--------------------------------------|--------------------------------------|
B:--------------------------------------|--------------------------------------|
G:-11--9-------11-11-11-11--11-11-11-11-|-11--9-------11-11-11-11--11-11-11-11-|
D:-11--9--9-9--11-11-11-11--11-11-11-11-|-11--9--9-9--11-11-11-11--11-11-11-11-|
A:-9---7--9-9--9--9--9--9---9--9--9--9--|-9---7--9-9--9--9--9--9---9--9--9--9--|
E:--------7-7---------------------------|--------7-7---------------------------|
 Tell us we're obnoxios                   You can't sell our product

   F#5 E5 B5   F#5
e:--------------------------------------|-----------------11--(11)--11--(11)-|
B:--------------------------------------|-4--(4)--4--(4)--14-b-16---14-b-16--|
G:-11--9-------11-11-11-11--11----------|-6-b-8---6-b-8----------------------|
D:-11--9--9-9--11-11-11-11--11----------|------------------------------------|
A:-9---7--9-9--9--9--9--9---9-----------|------------------------------------|
E:--------7-7---------------------------|------------------------------------|
   Who asked you to?

   F#5 E5 B5   F#5                        F#5 E5 B5   F#5
e:--------------------------------------|--------------------------------------|
B:--------------------------------------|--------------------------------------|
G:-11--9-------11-11-11-11--11-11-11-11-|-11--9-------11-11-11-11--11-11-11-11-|
D:-11--9--9-9--11-11-11-11--11-11-11-11-|-11--9--9-9--11-11-11-11--11-11-11-11-|
A:-9---7--9-9--9--9--9--9---9--9--9--9--|-9---7--9-9--9--9--9--9---9--9--9--9--|
E:--------7-7---------------------------|--------7-7---------------------------|
 Say we play too fast                     The music's not gonna last

   F#5 E5 B5   F#5
e:--------------------------------------|-----------------11--(11)--11--(11)-|
B:--------------------------------------|-4--(4)--4--(4)--14-b-16---14-b-16--|
G:-11--9-------11-11-11-11--11----------|-6-b-8---6-b-8----------------------|
D:-11--9--9-9--11-11-11-11--11----------|------------------------------------|
A:-9---7--9-9--9--9--9--9---9-----------|------------------------------------|
E:--------7-7---------------------------|------------------------------------|
   Well I think you're wrong

Chorus:

   A5                E5                   D5  C#5           D5  C#5
e:--------------------------------------|--------------------------------------|
B:--------------------------------------|--------------------------------------|
G:-------------------9---9-9---9-9-9----|-7---6-6---6-6-6---7---6-6---6-6-6----|
D:-7---7---7-7-7-7---9---9-9---9-9-9----|-7---6-6---6-6-6---7---6-6---6-6-6----|
A:-7---7---7-7-7-7---7---7-7---7-7-7----|-5---4-4---4-4-4---5---4-4---4-4-4----|
E:-5---5---5-5-5-5----------------------|--------------------------------------|
   You don't like the way we look         obnoxious

   A5                E5                   D5  C#5           D5  C#5
e:--------------------------------------|--------------------------------------|
B:--------------------------------------|--------------------------------------|
G:-------------------9---9-9---9-9-9----|-7---6-6---6-6-6---7---6-6---6-6-6----|
D:-7---7---7-7-7-7---9---9-9---9-9-9----|-7---6-6---6-6-6---7---6-6---6-6-6----|
A:-7---7---7-7-7-7---7---7-7---7-7-7----|-5---4-4---4-4-4---5---4-4---4-4-4----|
E:-5---5---5-5-5-5----------------------|--------------------------------------|
   You don't like the way we talk         obnoxious

   A5                E5                   D5  C#5           D5  C#5
e:--------------------------------------|--------------------------------------|
B:--------------------------------------|--------------------------------------|
G:-------------------9---9-9---9-9-9----|-7---6-6---6-6-6---7---6-6---6-6-6----|
D:-7---7---7-7-7-7---9---9-9---9-9-9----|-7---6-6---6-6-6---7---6-6---6-6-6----|
A:-7---7---7-7-7-7---7---7-7---7-7-7----|-5---4-4---4-4-4---5---4-4---4-4-4----|
E:-5---5---5-5-5-5----------------------|--------------------------------------|
   You can all go get fucked              obnoxious

Verse:

   F#5 E5 B5   F#5                        F#5 E5 B5   F#5
e:--------------------------------------|--------------------------------------|
B:--------------------------------------|--------------------------------------|
G:-11--9-------11-11-11-11--11-11-11-11-|-11--9-------11-11-11-11--11-11-11-11-|
D:-11--9--9-9--11-11-11-11--11-11-11-11-|-11--9--9-9--11-11-11-11--11-11-11-11-|
A:-9---7--9-9--9--9--9--9---9--9--9--9--|-9---7--9-9--9--9--9--9---9--9--9--9--|
E:--------7-7---------------------------|--------7-7---------------------------|
 Tell us we're obnoxios                   You can't sell our product

   F#5 E5 B5   F#5
e:--------------------------------------|-----------------11--(11)--11--(11)-|
B:--------------------------------------|-4--(4)--4--(4)--14-b-16---14-b-16--|
G:-11--9-------11-11-11-11--11----------|-6-b-8---6-b-8----------------------|
D:-11--9--9-9--11-11-11-11--11----------|------------------------------------|
A:-9---7--9-9--9--9--9--9---9-----------|------------------------------------|
E:--------7-7---------------------------|------------------------------------|
   Who asked you to?

   F#5 E5 B5   F#5                        F#5 E5 B5   F#5
e:--------------------------------------|--------------------------------------|
B:--------------------------------------|--------------------------------------|
G:-11--9-------11-11-11-11--11-11-11-11-|-11--9-------11-11-11-11--11-11-11-11-|
D:-11--9--9-9--11-11-11-11--11-11-11-11-|-11--9--9-9--11-11-11-11--11-11-11-11-|
A:-9---7--9-9--9--9--9--9---9--9--9--9--|-9---7--9-9--9--9--9--9---9--9--9--9--|
E:--------7-7---------------------------|--------7-7---------------------------|
 Say we play too fast                     The music's not gonna last

   F#5 E5 B5   F#5
e:--------------------------------------|-----------------11--(11)--11--(11)-|
B:--------------------------------------|-4--(4)--4--(4)--14-b-16---14-b-16--|
G:-11--9-------11-11-11-11--11----------|-6-b-8---6-b-8----------------------|
D:-11--9--9-9--11-11-11-11--11----------|------------------------------------|
A:-9---7--9-9--9--9--9--9---9-----------|------------------------------------|
E:--------7-7---------------------------|------------------------------------|
   Well I think you're wrong

Chorus:

   A5                E5                   D5  C#5           D5  C#5
e:--------------------------------------|--------------------------------------|
B:--------------------------------------|--------------------------------------|
G:-------------------9---9-9---9-9-9----|-7---6-6---6-6-6---7---6-6---6-6-6----|
D:-7---7---7-7-7-7---9---9-9---9-9-9----|-7---6-6---6-6-6---7---6-6---6-6-6----|
A:-7---7---7-7-7-7---7---7-7---7-7-7----|-5---4-4---4-4-4---5---4-4---4-4-4----|
E:-5---5---5-5-5-5----------------------|--------------------------------------|
   You don't like the way we look         obnoxious

   A5                E5                   D5  C#5           D5  C#5
e:--------------------------------------|--------------------------------------|
B:--------------------------------------|--------------------------------------|
G:-------------------9---9-9---9-9-9----|-7---6-6---6-6-6---7---6-6---6-6-6----|
D:-7---7---7-7-7-7---9---9-9---9-9-9----|-7---6-6---6-6-6---7---6-6---6-6-6----|
A:-7---7---7-7-7-7---7---7-7---7-7-7----|-5---4-4---4-4-4---5---4-4---4-4-4----|
E:-5---5---5-5-5-5----------------------|--------------------------------------|
   You don't like the way we talk         obnoxious

   A5                E5                   D5  C#5           D5  C#5
e:--------------------------------------|--------------------------------------|
B:--------------------------------------|--------------------------------------|
G:-------------------9---9-9---9-9-9----|-7---6-6---6-6-6---7---6-6---6-6-6----|
D:-7---7---7-7-7-7---9---9-9---9-9-9----|-7---6-6---6-6-6---7---6-6---6-6-6----|
A:-7---7---7-7-7-7---7---7-7---7-7-7----|-5---4-4---4-4-4---5---4-4---4-4-4----|
E:-5---5---5-5-5-5----------------------|--------------------------------------|
   You can all go get fucked              obnoxious

   F#5  E5  B5    F#5
e:-----------------------------------|
B:-----------------------------------|
G:-11---9---------11\----------------|
D:-11---9---9-9---11\----------------|
A:-9----7---9-9---9-\----------------|
E:----------7-7----------------------|

TP.

GRAVITY - (Bob Mould)

Intro (approximation of guitar and bass):

   D
e:------------------|------------------|------------------|------------------|
B:------------------|------------------|------------------|------------------|
G:-7-7-7-7---7---7--|-7-7-7-7---7---7--|-7-7-7-7---7---7--|-7-7-7-7---7---7--|
D:-7-7-7-7---7---7--|-7-7-7-7---7---7--|-7-7-7-7---7---7--|-7-7-7-7---7---7--|
A:-5-5-5-5---0---5--|-5-5-5-5---0---5--|-5-5-5-5---0---5--|-5-5-5-5---0---5--|
E:------------------|------------------|------------------|------------------|

Actual Intro (*=harmonics):
   D                                                                  (hold)
e:------------------|------------------|------------------|------------------|
B:-----------7*-----|----------7*------|---------7*7*-----|------------------|
G:-7-7-7-7-------7*-|-7-7-7-7----7*7b8-|-7-7-7-7-----7*7*-|-7-7-7-7---7------|
D:-7-7-7-7----------|-7-7-7-7----------|-7-7-7-7--------7*|-7-7-7-7---0------|
A:-5-5-5-5----------|-5-5-5-5----------|-5-5-5-5----------|-5-5-5-5---5------|
E:------------------|------------------|------------------|------------------|

   D                 (hold)              B  Asus2 B         B      Asus2 B
e:------------------|------------------|-2-------2-2------|-2-2-2------0h2-2-|
B:------------------|-----------7*-----|-0---0---0-0------|-0-0-0---0--0-0-0-|
G:-7-7-7-7---7------|-7-------------7*-|-4---4---4-4------|-4-4-4---4--4-4-4-|
D:-7-7-7-7---7---0--|-7----------------|-4---2---4-4------|-4-4-4---2--4-4-4-|
A:-5-5-5-5-------5--|-5----------------|-2---0---2-2------|------------------|
E:------------------|------------------|------------------|------------------|
It's only getting darker,it may be moving faster

   D                                     B  Asus2 B         B      Asus2 B
e:------------------|------------------|-2-------2-2------|-2-2-2------0h2-2-|
B:----------7*7*7*--|----------7*7*7*7*|-0---0---0-0------|-0-0-0---0--0-0-0-|
G:-7-7-7-7--------7*|-7-7-7-7--7*7*7*7*|-4---4---4-4------|-4-4-4---4--4-4-4-|
D:-7-7-7-7----------|-7-7-7-7----------|-4---2---4-4------|-4-4-4---2--4-4-4-|
A:-5-5-5-5----------|-5-5-5-5----------|-2---0---2-2------|------------------|
E:------------------|------------------|------------------|------------------|
Well, it won't stop spinning, but how long will it remain?

   D             A    C#            F#
e:------------------|--------------------------------------|
B:------------------|---------------7---7-7-7-7---7-7-7-7--|
G:-7---7-7-7---7----|-6---6-6-6---6-6---6-6-6-6---6-6-6-6--|
D:-7---7-7-7---7-7--|-6---6-6-6---6-4---6-6-6-6---6-6-6-6--|
A:-5---5-5-5---5-7--|-4---4-4-4---4-4---4-4-4-4---4-4-4-4--|
E:---------------5--|--------------------------------------|
This repulsive world  the crimes we all commit


N.B. At this point the guitar repeats the first bar below a further two times, over an 
bass line.
The transcription here is a bass/guitar combination.

   Bb            C                  BbaddD        C
e:--------------------------------|------------------------------|
B:--------------------------------|------------------------------|
G:-3---3---3---3-5---5-5---5---5--|-3---3---3---3-0---0-0---0-0--|
D:-3---3---3---3-5---5-5---5---5--|-0---0---0---0-2---2-2---2-2--|
A:-1---1---1---1-3---3-3---3---3--|-1---1---1---1-3---3-3---3-3--|
E:--------------------------------|------------------------------|
   It's not your gravity            It's not your gravity

   Bb            C(hold)
e:---------------------------|
B:-3---3---3---3-------------|
G:-3---3---3---3-5-----------|
D:-3---3---3---3-5-----------|
A:---------------------------|
E:---------------------------|
             .....gravity

   D/A(hold)    D/A(hold)    D/A(hold)    D/A(hold)
e:-0-0--------|-0-0--------|-0-0--------|-0-0--------|
B:-5-5--------|-5-5--------|-5-5--------|-5-5--------|
G:-7-7--------|-7-7--------|-7-7--------|-7-7--------|
D:-7-7--------|-7-7--------|-7-7--------|-7-7--------|
A:-5-5--------|-5-5--------|-5-5--------|-5-5--------|
E:-5-5--------|-5-5--------|-5-5--------|-5-5--------|

   D                                                                  (hold)
e:------------------|------------------|------------------|------------------|
B:-----------7*-----|----------7*------|---------7*7*-----|------------------|
G:-7-7-7-7-------7*-|-7-7-7-7----7*7b8-|-7-7-7-7-----7*7*-|-7-7-7-7---7------|
D:-7-7-7-7----------|-7-7-7-7----------|-7-7-7-7--------7*|-7-7-7-7---0------|
A:-5-5-5-5----------|-5-5-5-5----------|-5-5-5-5----------|-5-5-5-5---5------|
E:------------------|------------------|------------------|------------------|

   D                 (hold)              B  Asus2 B         B      Asus2 B
e:------------------|------------------|-2-------2-2------|-2-2-2------0h2-2-|
B:------------------|-----------7*-----|-0---0---0-0------|-0-0-0---0--0-0-0-|
G:-7-7-7-7---7------|-7-------------7*-|-4---4---4-4------|-4-4-4---4--4-4-4-|
D:-7-7-7-7---7---0--|-7----------------|-4---2---4-4------|-4-4-4---2--4-4-4-|
A:-5-5-5-5-------5--|-5----------------|-2---0---2-2------|------------------|
E:------------------|------------------|------------------|------------------|
The tension keeps building, the changes are rapid

   D                                     B  Asus2 B         B      Asus2 B
e:------------------|------------------|-2-------2-2------|-2-2-2------0h2-2-|
B:----------7*7*7*--|----------7*7*7*7*|-0---0---0-0------|-0-0-0---0--0-0-0-|
G:-7-7-7-7--------7*|-7-7-7-7--7*7*7*7*|-4---4---4-4------|-4-4-4---4--4-4-4-|
D:-7-7-7-7----------|-7-7-7-7----------|-4---2---4-4------|-4-4-4---2--4-4-4-|
A:-5-5-5-5----------|-5-5-5-5----------|-2---0---2-2------|------------------|
E:------------------|------------------|------------------|------------------|
We're through competing, is it better to retreat?

   D             A    C#            F#
e:------------------|--------------------------------------|
B:------------------|---------------7---7-7-7-7---7-7-7-7--|
G:-7---7-7-7---7----|-6---6-6-6---6-6---6-6-6-6---6-6-6-6--|
D:-7---7-7-7---7-7--|-6---6-6-6---6-4---6-6-6-6---6-6-6-6--|
A:-5---5-5-5---5-7--|-4---4-4-4---4-4---4-4-4-4---4-4-4-4--|
E:---------------5--|--------------------------------------|
This repulsive world, the crimes we all commit


   Bb            C                  BbaddD        C
e:--------------------------------|------------------------------|
B:--------------------------------|------------------------------|
G:-3---3---3---3-5---5-5---5---5--|-3---3---3---3-0---0-0---0-0--|
D:-3---3---3---3-5---5-5---5---5--|-0---0---0---0-2---2-2---2-2--|
A:-1---1---1---1-3---3-3---3---3--|-1---1---1---1-3---3-3---3-3--|
E:--------------------------------|------------------------------|
   It's not your gravity            It's not your gravity

   Bb            C(hold)
e:---------------------------|
B:-3---3---3---3-------------|
G:-3---3---3---3-5-----------|
D:-3---3---3---3-5-----------|
A:---------------------------|
E:---------------------------|
             .....gravity

   D/A(hold)    D/A(hold)    D/A(hold)    D/A(hold)
e:-0-0--------|-0-0--------|-0-0--------|-0-0--------|
B:-5-5--------|-5-5--------|-5-5--------|-5-5--------|
G:-7-7--------|-7-7--------|-7-7--------|-7-7--------|
D:-7-7--------|-7-7--------|-7-7--------|-7-7--------|
A:-5-5--------|-5-5--------|-5-5--------|-5-5--------|
E:-5-5--------|-5-5--------|-5-5--------|-5-5--------|

Outro (this is repeated five times to end, which is D[hold]):

   D                 E                    G                   A     B  A
e:--------------------------------------|---------------------------------|
B:--------------------------------------|---------------------------------|
G:-7-7---7-7-7---7---9---9-9-9---9---9--|-7-7---7-7-7-7---7---9---9-11-9--|
D:-7-7---7-7-7---7---9---9-9-9---9---9--|-5-5---5-5-5-5---5---7---7-9--7--|
A:-5-5---5-5-5---5---7---7-7-7---7---7--|---------------------------------|
E:--------------------------------------|---------------------------------|

   D                 E                    G                   A
e:--------------------------------------|---------------------------------|
B:--------------------------------------|---------------------------------|
G:-7-7---7-7-7---7---9---9-9-9---9---9--|-7-7---7-7-7-7---7---4-----------|
D:-7-7---7-7-7---7---9---9-9-9---9---9--|-5-5---5-5-5-5---5---2---0-7--7--|
A:-5-5---5-5-5---5---7---7-7-7---7---7--|-------------------------0-7--7--|
E:--------------------------------------|---------------------------5--5--|

I haven't tabbed out all of the solo (which is played over the progression above), but 
are the last four bars:

e:-17-17-17-17---17-17---17--19--17--15-----|
B:-15-15-15-15---15-15---15--15--15--15--19-|Played
G:------------------------------------------|three
D:------------------------------------------|times
A:------------------------------------------|
E:------------------------------------------|

                            D(hold)
e:-0--0-0-0---------------------------------|
B:-10-8-7-5---0---0-0-0-0---3-3-------------|
G:------------7---6-4-2-0---2-2-------------|
D:--------------------------0-0-------------|
A:------------------------------------------|
E:------------------------------------------|

TP.

IN A FREE LAND (Bob Mould)

Intro(this first bar is actually from the 'Case Closed'
Covers Album - sacrilege!):

   C#5
e:-------------------------------------------------|
B:-------------------------------------------------|
G:---------6-----------0-----------6-----------0---|
D:-----6-----------6-----------6-----------6-------|
A:-4-----------4-----------4-----------4-----------|
E:-------------------------------------------------|

Riff 1 (repeated 3 times getting faster)
   C#5           B5            A5                  B5
e:---------------------------------------------------------|
B:---------------------------------------------------------|
G:-------6-------------4-------------2-------------4-------|
D:---------6-------------4-------------2-------------4-----|
A:-4-4-------4---2-2-------2---0-0-------0---2-2-------2---|
E:---------------------------------------------------------|

Then:
   C#5           B5            A5
e:---------------------------------------------------------|
B:---------------------------------------------------------|
G:-------6-------------4-------------2-------------2-------|
D:---------6-------------4-------------2-------------2-----|
A:-4-4-------4---2-2-------2---0-0-------0---0-0-------0---|
E:---------------------------------------------------------|

Verse:

   E5                              G#5   E5   C#5 B5
e:----------------------------------------------------------------------|
B:----------------------------------------------------------------------|
G:-9---9---9-9-9---9---9---9-9-9---13----9----10--8---8-8---8-8---------|
D:-9---9---9-9-9---9---9---9-9-9---13----9----11--9---9-9---9-9---------|
A:-7---7---7-7-7---7---7---7-7-7---11----7----11--9---9-9---9-9---------|
E:--------------------------------------------9---7---7-7---7-7---------|
   Government authorize education [Don't mean a   thing]

   E5                              G#5   E5   C#5 B5
e:----------------------------------------------------------------------|
B:----------------------------------------------------------------------|
G:-9---9---9-9-9---9---9---9-9-9---13----9----10--8---8-8---8-8---------|
D:-9---9---9-9-9---9---9---9-9-9---13----9----11--9---9-9---9-9---------|
A:-7---7---7-7-7---7---7---7-7-7---11----7----11--9---9-9---9-9---------|
E:--------------------------------------------9---7---7-7---7-7---------|
They'll teach you what they want you to think
                                  [Don't mean a   thing]

   E5                              G#5   E5   C#5 B5
e:----------------------------------------------------------------------|
B:----------------------------------------------------------------------|
G:-9---9---9-9-9---9---9---9-9-9---13----9----10--8---8-8---8-8---------|
D:-9---9---9-9-9---9---9---9-9-9---13----9----11--9---9-9---9-9---------|
A:-7---7---7-7-7---7---7---7-7-7---11----7----11--9---9-9---9-9---------|
E:--------------------------------------------9---7---7-7---7-7---------|
Saturation of stars and stripes   [Don't mean a   thing]


   E5                              G#5   E5   C#5 B5
e:----------------------------------------------------------------------|
B:----------------------------------------------------------------------|
G:-9---9---9-9-9---9---9---9-9-9---13----9----10--8---8-8---8-8---------|
D:-9---9---9-9-9---9---9---9-9-9---13----9----11--9---9-9---9-9---------|
A:-7---7---7-7-7---7---7---7-7-7---11----7----11--9---9-9---9-9---------|
E:--------------------------------------------9---7---7-7---7-7---------|
The only freedom worth fighting for is for what you think
                                  [Don't mean a   thing]

   C#5           A5            B5
e:---------------------------------------------------------|
B:---------------------------------------------------------|
G:-------6-------------2-------------4-------------4-------|
D:---------6-------------2-------------4-------------4-----|
A:-4-4-------4---0-0-------0---2-2-------2---2-2-------2---|
E:---------------------------------------------------------|

   C#5           A5            B5
e:---------------------------------------------|
B:---------------------------------------------|
G:-------6-------------2-------------4---------|
D:---------6-------------2-------------4-------|
A:-4-4-------4---0-0-------0---2-2-------0-----|
E:-----------------------------------------2---|

CHORUS(NB. Live the chord positions were as follows;
F#5 244XXX(throughout)   D5 XX023X    E5 0224XX):

   F#              D5              F#5             D5              F#5
e:---------------------------------------------------------------------------|
B:---------------------------------------------------------------------------|
G:-----------------7---7-7---7-7---11--1111--1111--7---7-7---7-7-------------|
D:-4---4-4---4-4---7---7-7---7-7---11--1111--1111--7---7-7---7-7---4---4-4---|
A:-4---4-4---4-4---5---5-5---5-5---9---9-9---9-9---5---5-5---5-5---4---4-4---|
E:-2---2-2---2-2---------------------------------------------------2---2-2---|
Why bother         spending time   Reading up on   things          Everybody's

  F#5   E5
e:----------------------|
B:----------------------|
G:------9---9-9---9-9---|
D:4-4---9---9-9---9-9---|
A:4-4---7---7-7---7-7---|
E:2-2-------------------|
  an    authority

   C#5             D5              C#5             D5
e:-----------------------------------------------------------------|
B:-----------------------------------------------------------------|
G:-6---6-6---6-6---7---7-7---7-7---6---6-6---6-6---7---7-7---7-7---|
D:-6---6-6---6-6---7---7-7---7-7---6---6-6---6-6---7---7-7---7-7---|
A:-4---4-4---4-4---5---5-5---5-5---4---4-4---4-4---5---5-5---5-5---|
E:-----------------------------------------------------------------|
   In a      free  land            In a      free  land

Riff 1 (repeated 3 times getting faster)

   C#5           B5            A5                  B5
e:---------------------------------------------------------|
B:---------------------------------------------------------|
G:-------6-------------4-------------2-------------4-------|
D:---------6-------------4-------------2-------------4-----|
A:-4-4-------4---2-2-------2---0-0-------0---2-2-------2---|
E:---------------------------------------------------------|

Then:
   C#5           B5            A5
e:---------------------------------------------------------|
B:---------------------------------------------------------|
G:-------6-------------4-------------2-------------2-------|
D:---------6-------------4-------------2-------------2-----|
A:-4-4-------4---2-2-------2---0-0-------0---0-0-------0---|
E:---------------------------------------------------------|

Repeat all of the above from start of verse (same lyrics)

Then: solo over verse and chorus progression until,

   C#5             D5              C#5             D5
e:-----------------------------------------------------------------|
B:-----------------------------------------------------------------|
G:-6---6-6---6-6---7---7-7---7-7---6---6-6---6-6---7---7-7---7-7---|
D:-6---6-6---6-6---7---7-7---7-7---6---6-6---6-6---7---7-7---7-7---|
A:-4---4-4---4-4---5---5-5---5-5---4---4-4---4-4---5---5-5---5-5---|
E:-----------------------------------------------------------------|
   In a      free  land            In a      free  land

Riff 1 (repeated 3 times getting faster)

   C#5           B5            A5                  B5
e:---------------------------------------------------------|
B:---------------------------------------------------------|
G:-------6-------------4-------------2-------------4-------|
D:---------6-------------4-------------2-------------4-----|
A:-4-4-------4---2-2-------2---0-0-------0---2-2-------2---|
E:---------------------------------------------------------|
   In  a  free   land          In  a  free   land

Then:

   C#5           B5            A5 (slowing)                E (hold)
e:---------------------------------------------------------0-|
B:---------------------------------------------------------0-|
G:-------6-------------4-------------2-------------2-------1-|
D:---------6-------------4-------------2-------------2-----2-|
A:-4-4-------4---2-2-------2---0-0-------0---0-0-------0---2-|
E:---------------------------------------------------------0-|


TP


WHAT DO I WANT? - (Grant Hart)

   Asus2     Am  Asus2 Asus2     Am  Asus2 Asus2     Am  Asus2
e:-0-0-0-0---0---0---|-0-0-0-0---0---0---|-0-0-0-0---0---0---|
B:-0-0-0-0---1---0---|-0-0-0-0---1---0---|-0-0-0-0---1---0---|
G:-2-2-2-2---2---2---|-2-2-2-2---2---2---|-2-2-2-2---2---2---|
D:-2-2-2-2---2---2---|-2-2-2-2---2---2---|-2-2-2-2---2---2---|
A:-0-0-0-0---0---0---|-0-0-0-0---0---0---|-0-0-0-0---0---0---|
E:-------------------|-------------------|-------------------|

   Em      Esus4 Em    Em      Esus4 Em    Em      Esus4 Em
e:-0-0-0-0---0---0---|-0-0-0-0---0---0---|-0-0-0-0---0---0---|
B:-0-0-0-0---0---0---|-0-0-0-0---0---0---|-0-0-0-0---0---0---|
G:-0-0-0-0---2---0---|-0-0-0-0---2---0---|-0-0-0-0---2---0---|
D:-2-2-2-2---2---2---|-2-2-2-2---2---2---|-2-2-2-2---2---2---|
A:-2-2-2-2---2---2---|-2-2-2-2---2---2---|-2-2-2-2---2---2---|
E:-0-0-0-0---0---0---|-0-0-0-0---0---0---|-0-0-0-0---0---0---|
                                           What do I want?

   Asus2     Am  Asus2 Asus2     Am  Asus2 Asus2     Am  Asus2
e:-0-0-0-0---0---0---|-0-0-0-0---0---0---|-0-0-0-0---0---0---|
B:-0-0-0-0---1---0---|-0-0-0-0---1---0---|-0-0-0-0---1---0---|
G:-2-2-2-2---2---2---|-2-2-2-2---2---2---|-2-2-2-2---2---2---|
D:-2-2-2-2---2---2---|-2-2-2-2---2---2---|-2-2-2-2---2---2---|
A:-0-0-0-0---0---0---|-0-0-0-0---0---0---|-0-0-0-0---0---0---|
E:-------------------|-------------------|-------------------|

   Em      Esus4 Em    Em      Esus4 Em    Em      Esus4 Em
e:-0-0-0-0---0---0---|-0-0-0-0---0---0---|-0-0-0-0---0---0---|
B:-0-0-0-0---0---0---|-0-0-0-0---0---0---|-0-0-0-0---0---0---|
G:-0-0-0-0---2---0---|-0-0-0-0---2---0---|-0-0-0-0---2---0---|
D:-2-2-2-2---2---2---|-2-2-2-2---2---2---|-2-2-2-2---2---2---|
A:-2-2-2-2---2---2---|-2-2-2-2---2---2---|-2-2-2-2---2---2---|
E:-0-0-0-0---0---0---|-0-0-0-0---0---0---|-0-0-0-0---0---0---|
                                           What will make me happy?

Repeat all of the above, then:

   Em      Esus4 Em    Em      Esus4 Em    Em      Esus4 Em    G5(hold)
e:-0-0-0-0---0---0---|-0-0-0-0---0---0---|-0-0-0-0---0---0---|----------------|
B:-0-0-0-0---0---0---|-0-0-0-0---0---0---|-0-0-0-0---0---0---|----------------|
G:-0-0-0-0---2---0---|-0-0-0-0---2---0---|-0-0-0-0---2---0---|----------------|
D:-2-2-2-2---2---2---|-2-2-2-2---2---2---|-2-2-2-2---2---2---|-5--------------|
A:-2-2-2-2---2---2---|-2-2-2-2---2---2---|-2-2-2-2---2---2---|-5--------------|
E:-0-0-0-0---0---0---|-0-0-0-0---0---0---|-0-0-0-0---0---0---|-3--------------|
   Nothing,            Nothing,            Nothing

Verse 2 - (play the following 12 bars twice):

   Asus2     Am  Asus2 Asus2     Am  Asus2 Asus2     Am  Asus2
e:-0-0-0-0---0---0---|-0-0-0-0---0---0---|-0-0-0-0---0---0---|
B:-0-0-0-0---1---0---|-0-0-0-0---1---0---|-0-0-0-0---1---0---|
G:-2-2-2-2---2---2---|-2-2-2-2---2---2---|-2-2-2-2---2---2---|
D:-2-2-2-2---2---2---|-2-2-2-2---2---2---|-2-2-2-2---2---2---|
A:-0-0-0-0---0---0---|-0-0-0-0---0---0---|-0-0-0-0---0---0---|
E:-------------------|-------------------|-------------------|
                                           What do I want?

   Em      Esus4 Em    Em      Esus4 Em    Em      Esus4 Em
e:-0-0-0-0---0---0---|-0-0-0-0---0---0---|-0-0-0-0---0---0---|
B:-0-0-0-0---0---0---|-0-0-0-0---0---0---|-0-0-0-0---0---0---|
G:-0-0-0-0---2---0---|-0-0-0-0---2---0---|-0-0-0-0---2---0---|
D:-2-2-2-2---2---2---|-2-2-2-2---2---2---|-2-2-2-2---2---2---|
A:-2-2-2-2---2---2---|-2-2-2-2---2---2---|-2-2-2-2---2---2---|
E:-0-0-0-0---0---0---|-0-0-0-0---0---0---|-0-0-0-0---0---0---|

   Asus2     Am  Asus2 Asus2     Am  Asus2 Asus2     Am  Asus2
e:-0-0-0-0---0---0---|-0-0-0-0---0---0---|-0-0-0-0---0---0---|
B:-0-0-0-0---1---0---|-0-0-0-0---1---0---|-0-0-0-0---1---0---|
G:-2-2-2-2---2---2---|-2-2-2-2---2---2---|-2-2-2-2---2---2---|
D:-2-2-2-2---2---2---|-2-2-2-2---2---2---|-2-2-2-2---2---2---|
A:-0-0-0-0---0---0---|-0-0-0-0---0---0---|-0-0-0-0---0---0---|
E:-------------------|-------------------|-------------------|
                                           What will make me happy?

   Em      Esus4 Em    Em      Esus4 Em    Em      Esus4 Em
e:-0-0-0-0---0---0---|-0-0-0-0---0---0---|-0-0-0-0---0---0---|
B:-0-0-0-0---0---0---|-0-0-0-0---0---0---|-0-0-0-0---0---0---|
G:-0-0-0-0---2---0---|-0-0-0-0---2---0---|-0-0-0-0---2---0---|
D:-2-2-2-2---2---2---|-2-2-2-2---2---2---|-2-2-2-2---2---2---|
A:-2-2-2-2---2---2---|-2-2-2-2---2---2---|-2-2-2-2---2---2---|
E:-0-0-0-0---0---0---|-0-0-0-0---0---0---|-0-0-0-0---0---0---|

   Em      Esus4 Em    Em      Esus4 Em    Em      Esus4 Em
e:-0-0-0-0---0---0---|-0-0-0-0---0---0---|-0-0-0-0---0---0---|
B:-0-0-0-0---0---0---|-0-0-0-0---0---0---|-0-0-0-0---0---0---|
G:-0-0-0-0---2---0---|-0-0-0-0---2---0---|-0-0-0-0---2---0---|
D:-2-2-2-2---2---2---|-2-2-2-2---2---2---|-2-2-2-2---2---2---|
A:-2-2-2-2---2---2---|-2-2-2-2---2---2---|-2-2-2-2---2---2---|
E:-0-0-0-0---0---0---|-0-0-0-0---0---0---|-0-0-0-0---0---0---|
   Nothing,            Nothing,            Nothing

   Em      Esus4 Em    Em      Esus4 Em    Em      Esus4 Em
e:-0-0-0-0---0---0---|-0-0-0-0---0---0---|-0-0-0-0---0---0---|
B:-0-0-0-0---0---0---|-0-0-0-0---0---0---|-0-0-0-0---0---0---|
G:-0-0-0-0---2---0---|-0-0-0-0---2---0---|-0-0-0-0---2---0---|
D:-2-2-2-2---2---2---|-2-2-2-2---2---2---|-2-2-2-2---2---2---|
A:-2-2-2-2---2---2---|-2-2-2-2---2---2---|-2-2-2-2---2---2---|
E:-0-0-0-0---0---0---|-0-0-0-0---0---0---|-0-0-0-0---0---0---|
                                           Nothing

   Em      Esus4 Em    Em      Esus4 Em    Em      Esus4 Em
e:-0-0-0-0---0---0---|-0-0-0-0---0---0---|-0-0-0-0---0---0---|
B:-0-0-0-0---0---0---|-0-0-0-0---0---0---|-0-0-0-0---0---0---|
G:-0-0-0-0---2---0---|-0-0-0-0---2---0---|-0-0-0-0---2---0---|
D:-2-2-2-2---2---2---|-2-2-2-2---2---2---|-2-2-2-2---2---2---|
A:-2-2-2-2---2---2---|-2-2-2-2---2---2---|-2-2-2-2---2---2---|
E:-0-0-0-0---0---0---|-0-0-0-0---0---0---|-0-0-0-0---0---0---|

   Em      Esus4 Em    Em      Esus4 Em    Em      Esus4 Em    G5(hold)
e:-0-0-0-0---0---0---|-0-0-0-0---0---0---|-0-0-0-0---0---0---|----------------|
B:-0-0-0-0---0---0---|-0-0-0-0---0---0---|-0-0-0-0---0---0---|----------------|
G:-0-0-0-0---2---0---|-0-0-0-0---2---0---|-0-0-0-0---2---0---|----------------|
D:-2-2-2-2---2---2---|-2-2-2-2---2---2---|-2-2-2-2---2---2---|-5--------------|
A:-2-2-2-2---2---2---|-2-2-2-2---2---2---|-2-2-2-2---2---2---|-5--------------|
E:-0-0-0-0---0---0---|-0-0-0-0---0---0---|-0-0-0-0---0---0---|-3--------------|
                                           What do I want?

TP.

M.I.C. (Bob Mould)

Intro:
     C#5           E5  B5     C#5           E5  B5
e:------------------------|------------------------|
B:------------------------|------------------------|
G:-0h6-6-6---6-6---9------|-0h6-6-6---6-6---9------|
D:-0h6-6-6---6-6---9---9--|-0h6-6-6---6-6---9---9--|
A:-0h4-4-4---4-4---7---9--|-0h4-4-4---4-4---7---9--|
E:---------------------7--|---------------------7--|

     C#5           E5  B5     C#5           E5  B5
e:------------------------|------------------------|
B:------------------------|------------------------|
G:-0h6-6-6---6-6---9------|-0h6-6-6---6-6---9------|
D:-0h6-6-6---6-6---9---9--|-0h6-6-6---6-6---9---9--|
A:-0h4-4-4---4-4---7---9--|-0h4-4-4---4-4---7---9--|
E:---------------------7--|---------------------7--|

Verse:

     C#5               G5  B5           C#5               G5  B5
e:----------------------------------|----------------------------------|
B:---------------------8------------|---------------------8------------|
G:-0h6-6-6---6-6-6-6---7------------|-0h6-6-6---6-6-6-6---7------------|
D:-0h6-6-6---6-6-6-6---5---9-9-9-9--|-0h6-6-6---6-6-6-6---5---9-9-9-9--|
A:-0h4-4-4---4-4-4-4---5---9-9-9-9--|-0h4-4-4---4-4-4-4---5---9-9-9-9--|
E:-------------------------7-7-7-7--|-------------------------7-7-7-7--|
Time for a lottery, they got your number
                                      Blood for fuel, and limbs for lumber

     C#5               G5  B5           C#5               G5  B5
e:----------------------------------|----------------------------------|
B:---------------------8------------|---------------------8------------|
G:-0h6-6-6---6-6-6-6---7------------|-0h6-6-6---6-6-6-6---7------------|
D:-0h6-6-6---6-6-6-6---5---9-9-9-9--|-0h6-6-6---6-6-6-6---5---9-9-9-9--|
A:-0h4-4-4---4-4-4-4---5---9-9-9-9--|-0h4-4-4---4-4-4-4---5---9-9-9-9--|
E:-------------------------7-7-7-7--|-------------------------7-7-7-7--|
They just wanted more machines        For their modern war machine

Chorus:
         (Play this four times - over each F#5 beat)    (hold)
                  e:----------------|                e:----------------|
                  B:-7--------------|                B:-2--------------|
                  G:-9b11-----------|                G:-4b6------------|
                  D:----------------|                D:----------------|
                  A:----------------|                A:----------------|
                  E:----------------|                E:----------------|
  C# Bb5             F#5             C# Bb5             F#5
e:----------------------------------|----------------------------------|
B:----------------------------------|----------------------------------|
G:-6--------------------------------|-6--------------------------------|
D:-6-8-8---8-8-8-8---4---4---4---4--|-6-8-8---8-8-8-8---4---4---4---4--|
A:-4-8-8---8-8-8-8---4---4---4---4--|-4-8-8---8-8-8-8---4---4---4---4--|
E:---6-6---6-6-6-6---2---2---2---2--|---6-6---6-6-6-6---2---2---2---2--|
   M.I.C.  Am I seeing it right?      M.I.C.  Must be time to fight


     (Play this four times - over each F#5 beat)
                  e:----------------|
                  B:-9--------------|
                  G:-11b13----------|
                  D:----------------|
                  A:----------------|
                  E:----------------|
  C# Bb5             F#5             C# Bb5             F#5
e:----------------------------------|----------------------------------|
B:----------------------------------|----------------------------------|
G:-6--------------------------------|-6--------------------------------|
D:-6-8-8---8-8-8-8---4---4---4---4--|-6-8-8---8-8-8-8---4---4---4---4--|
A:-4-8-8---8-8-8-8---4---4---4---4--|-4-8-8---8-8-8-8---4---4---4---4--|
E:---6-6---6-6-6-6---2---2---2---2--|---6-6---6-6-6-6---2---2---2---2--|
 M.I.C.  The war machine is growing   M.I.C.  I'm not fucking going

Intro:
     C#5           E5  B5     C#5           E5  B5
e:------------------------|------------------------|
B:------------------------|------------------------|
G:-0h6-6-6---6-6---9------|-0h6-6-6---6-6---9------|
D:-0h6-6-6---6-6---9---9--|-0h6-6-6---6-6---9---9--|
A:-0h4-4-4---4-4---7---9--|-0h4-4-4---4-4---7---9--|
E:---------------------7--|---------------------7--|

     C#5           E5  B5     C#5           E5  B5
e:------------------------|------------------------|
B:------------------------|------------------------|
G:-0h6-6-6---6-6---9------|-0h6-6-6---6-6---9------|
D:-0h6-6-6---6-6---9---9--|-0h6-6-6---6-6---9---9--|
A:-0h4-4-4---4-4---7---9--|-0h4-4-4---4-4---7---9--|
E:---------------------7--|---------------------7--|

Verse:

     C#5               G5  B5           C#5               G5  B5
e:----------------------------------|----------------------------------|
B:---------------------8------------|---------------------8------------|
G:-0h6-6-6---6-6-6-6---7------------|-0h6-6-6---6-6-6-6---7------------|
D:-0h6-6-6---6-6-6-6---5---9-9-9-9--|-0h6-6-6---6-6-6-6---5---9-9-9-9--|
A:-0h4-4-4---4-4-4-4---5---9-9-9-9--|-0h4-4-4---4-4-4-4---5---9-9-9-9--|
E:-------------------------7-7-7-7--|-------------------------7-7-7-7--|
Time for a lottery, they got your number
                                      Blood for fuel, and limbs for lumber

     C#5               G5  B5           C#5               G5  B5
e:----------------------------------|----------------------------------|
B:---------------------8------------|---------------------8------------|
G:-0h6-6-6---6-6-6-6---7------------|-0h6-6-6---6-6-6-6---7------------|
D:-0h6-6-6---6-6-6-6---5---9-9-9-9--|-0h6-6-6---6-6-6-6---5---9-9-9-9--|
A:-0h4-4-4---4-4-4-4---5---9-9-9-9--|-0h4-4-4---4-4-4-4---5---9-9-9-9--|
E:-------------------------7-7-7-7--|-------------------------7-7-7-7--|
They just wanted more machines        For their modern war machine

Chorus:
         (Play this four times - over each F#5 beat)    (hold)
                  e:----------------|                e:----------------|
                  B:-7--------------|                B:-2--------------|
                  G:-9b11-----------|                G:-4b6------------|
                  D:----------------|                D:----------------|
                  A:----------------|                A:----------------|
                  E:----------------|                E:----------------|
  C# Bb5             F#5             C# Bb5             F#5
e:----------------------------------|----------------------------------|
B:----------------------------------|----------------------------------|
G:-6--------------------------------|-6--------------------------------|
D:-6-8-8---8-8-8-8---4---4---4---4--|-6-8-8---8-8-8-8---4---4---4---4--|
A:-4-8-8---8-8-8-8---4---4---4---4--|-4-8-8---8-8-8-8---4---4---4---4--|
E:---6-6---6-6-6-6---2---2---2---2--|---6-6---6-6-6-6---2---2---2---2--|
   M.I.C.  Am I seeing it right?      M.I.C.  Must be time to fight

     (Play this four times - over each F#5 beat)
                  e:----------------|
                  B:-9--------------|
                  G:-11b13----------|
                  D:----------------|
                  A:----------------|
                  E:----------------|
  C# Bb5             F#5             C# Bb5             F#5
e:----------------------------------|----------------------------------|
B:----------------------------------|----------------------------------|
G:-6--------------------------------|-6--------------------------------|
D:-6-8-8---8-8-8-8---4---4---4---4--|-6-8-8---8-8-8-8---4---4---4---4--|
A:-4-8-8---8-8-8-8---4---4---4---4--|-4-8-8---8-8-8-8---4---4---4---4--|
E:---6-6---6-6-6-6---2---2---2---2--|---6-6---6-6-6-6---2---2---2---2--|
 M.I.C.  The war machine is growing   M.I.C.  I'm not fucking going

Intro:
     C#5           E5  B5     C#5           E5  B5
e:------------------------|------------------------|
B:------------------------|------------------------|
G:-0h6-6-6---6-6---9------|-0h6-6-6---6-6---9------|
D:-0h6-6-6---6-6---9---9--|-0h6-6-6---6-6---9---9--|
A:-0h4-4-4---4-4---7---9--|-0h4-4-4---4-4---7---9--|
E:---------------------7--|---------------------7--|

     C#5           E5  B5     C#5           E5  B5(hold)
e:------------------------|------------------------|
B:------------------------|------------------------|
G:-0h6-6-6---6-6---9------|-0h6-6-6---6-6---9------|
D:-0h6-6-6---6-6---9---9--|-0h6-6-6---6-6---9---9--|
A:-0h4-4-4---4-4---7---9--|-0h4-4-4---4-4---7---9--|
E:---------------------7--|---------------------7--|
                                                  I'm not fucking going...

TP.

STATUES - (Grant Hart)

Chords:

Verse;  E 079900  Cmaj7 X35500  G 355033    Chorus; A XXX9,10,9  G XXX787

Intro (Bass):

G:--------------------------------------|--------------------------------------|
D:---------------------14-14-----12-14--|---------------------14-14-----12-14--|
A:-----------11-14----------------------|-----------11-14----------------------|
E:-12-12--------------------------------|-12-12--------------------------------|


G:--------------------------------------|--------------------------------------|
D:---------------------14-14-----12-14--|---------------------14-14-----12-14--|
A:-----------11-14----------------------|-----------11-14----------------------|
E:-12-12--------------------------------|-12-12--------------------------------|


Guitar (Over the bass riff):

   E                      Cmaj7           E           G
e:-0----0----0-0----0---------0-0---0---|-0--0-0-0-0--10-10-10-10--10-10-10-10-|
B:-5----0----0-0----0---------0-0---0---|-0--0-0-0-0--8--8--8--8---8--8--8--8--|
G:------4----4-4----4--b--5--(5-5---5)--|-4--4-4-4-4--0--0--0--0---0--0--0--0--|
D:--------------------------------------|--------------------------------------|
A:--------------------------------------|--------------------------------------|
E:--------------------------------------|--------------------------------------|

   E                      Cmaj7           E           G
e:--------0----0----0-0----0----0-0---0-|-0--0-0-0-0--10-10-10-10--10-10-10-10-|
B:-0-0----5----0----0-0----0----0-0---0-|-0--0-0-0-0--8--8-b9-(9)--8--8-b9-(9)-|
G:-4-4---------4----4-4----5----5-5---7-|-4--4-4-4-4--0--0--0--0---0--0--0--0--|
D:--------------------------------------|--------------------------------------|
A:--------------------------------------|--------------------------------------|
E:--------------------------------------|--------------------------------------|

   E                      Cmaj7           E           G
e:-0-----0------0-----0-0-0-0-----0-0-0-|-0--0-0-0-0--10-10-10-10--10-10-10-10-|
B:-5-----0------0-----0-0-0-0-----0-0-0-|-0--0-0-0-0--8--8--8--8---8--8--8--8--|
G:-------3--b--(4)----4-4-4-5-----5-5b7-|-4--4-4-4-4--0-----0------0-----0-----|
D:--------------------------------------|--------------------------------------|
A:--------------------------------------|--------------------------------------|
E:--------------------------------------|--------------------------------------|

   E                      Cmaj7           E           G
e:-0---0-0---0-0---0---0---0-0---0-0--0-|-0-0-0--0-0--0-10-10-10-10-10-10-10-10|
B:-5---0-0---5-5---0---5---5-5---5-5--0-|-0-0-0--5-5--0-8--8--8--8--8--8--8--8-|
G:-----4-4---------4---5---5-5---5-5--7-|-4-4-4-------4-0--0--0--0--0--0--0--0-|
D:--------------------------------------|--------------------------------------|
A:--------------------------------------|--------------------------------------|
E:--------------------------------------|--------------------------------------|

Verse (Note; Any of the above lines can be used during the verses):

   E                      Cmaj7           E           G
e:-0----0----0-0----0---------0-0---0---|-0--0-0-0-0--10-10-10-10--10-10-10-10-|
B:-5----0----0-0----0---------0-0---0---|-0--0-0-0-0--8--8--8--8---8--8--8--8--|
G:------4----4-4----4--b--5--(5-5---5)--|-4--4-4-4-4--0--0--0--0---0--0--0--0--|
D:--------------------------------------|--------------------------------------|
A:--------------------------------------|--------------------------------------|
E:--------------------------------------|--------------------------------------|
You search out and follow the latest new trends
Then get all dressed up and hang round with all your 'so called' friends
Go to little parties just to hang out
Make people think you know what it's all about


Chorus (With heavy palm-muting throughout):

   A                                  G   A                                G
e:-9--b(10)-9--9--9---9--b(10)--10-10-7-|-7-7----9--9-----9---b(11)---9--8-7---|
B:-10-b(11)-10-10-10--10-b(11)--11-11-8-|-8-8----10-10----10--b(12)---10-9-8---|
G:--------------------------------------|--------------------------------------|
D:--------------------------------------|--------------------------------------|
A:--------------------------------------|--------------------------------------|
E:--------------------------------------|--------------------------------------|
   Do everything you gotta do             Get me to talk to you

   A                                  G   A                                G
e:-9--9----9--9----9---b-(10)---7-7-7---|-9----10---11---12---13---------------|
B:-10------10------10--b-(11)---8-8-8---|-10---11---12---13---14---------------|
G:--------------------------------------|--------------------------------------|
D:--------------------------------------|--------------------------------------|
A:--------------------------------------|--------------------------------------|
E:--------------------------------------|--------------------------------------|
   Are you different, are you new?        What's up with you?

   A                                  G   A                                G
e:-9--9-----9--9-----9--b(10)--9--9--9--|-9---10---9--9---9-b10r9--7---7---0-0-|
B:-10-10----10-10----10-b(11)--10-10-10-|-10-b11---10-10--10b11r10-8---8---5-0-|
G:--------------------------------------|------------------------------------4-|
D:--------------------------------------|--------------------------------------|
A:--------------------------------------|--------------------------------------|
E:--------------------------------------|--------------------------------------|
   Tell me, tell me, tell me do           Oh baby are you true?

   A                                  G   A                                G
e:-0------(0)------7--7-b9--0-----------|-0----10---10----10---10----10---10---|
B:-4---b--(5)------8--8-b10-5-----------|-5----14-b(15)---14-b(15)---14-b(15)--|
G:--------------------------------------|--------------------------------------|
D:--------------------------------------|--------------------------------------|
A:--------------------------------------|--------------------------------------|
E:--------------------------------------|--------------------------------------|
   Are you different, are you new?         No you're just a statue

   E                      Cmaj7           E           G
e:-0----0----0-0----0---------0-0---0---|-0--0-0-0-0--10-10-10-10--10-10-10-10-|
B:-5----0----0-0----0---------0-0---0---|-0--0-0-0-0--8--8--8--8---8--8--8--8--|
G:------4----4-4----4--b--5--(5-5---5)--|-4--4-4-4-4--0--0--0--0---0--0--0--0--|
D:--------------------------------------|--------------------------------------|
A:--------------------------------------|--------------------------------------|
E:--------------------------------------|--------------------------------------|

   E                      Cmaj7           E           G
e:--------0----0----0-0----0----0-0---0-|-0--0-0-0-0--10-10-10-10--10-10-10-10-|
B:-0-0----5----0----0-0----0----0-0---0-|-0--0-0-0-0--8--8-b9-(9)--8--8-b9-(9)-|
G:-4-4---------4----4-4----5----5-5---7-|-4--4-4-4-4--0--0--0--0---0--0--0--0--|
D:--------------------------------------|--------------------------------------|
A:--------------------------------------|--------------------------------------|
E:--------------------------------------|--------------------------------------|
   A statue...

   E                      Cmaj7           E           G
e:-0-----0------0-----0-0-0-0-----0-0-0-|-0--0-0-0-0--10-10-10-10--10-10-10-10-|
B:-5-----0------0-----0-0-0-0-----0-0-0-|-0--0-0-0-0--8--8--8--8---8--8--8--8--|
G:-------3--b--(4)----4-4-4-5-----5-5b7-|-4--4-4-4-4--0-----0------0-----0-----|
D:--------------------------------------|--------------------------------------|
A:--------------------------------------|--------------------------------------|
E:--------------------------------------|--------------------------------------|

   E                      Cmaj7           E             G
e:-0---0-0---0-0---0---0---0-0---0-0--0-|-0-0-0--0-0--0-10-10-10-10-10-10-10-10|
B:-5---0-0---5-5---0---5---5-5---5-5--0-|-0-0-0--5-5--0-8--8--8--8--8--8--8--8-|
G:-----4-4---------4---5---5-5---5-5--7-|-4-4-4-------4-0--0--0--0--0--0--0--0-|
D:--------------------------------------|--------------------------------------|
A:--------------------------------------|--------------------------------------|
E:--------------------------------------|--------------------------------------|


Verse 2:

   E                      Cmaj7           E             G
e:-0---0-0---0-0---0---0---0-0---0-0--0-|-0-0-0--0-0--0-10-10-10-10-10-10-10-10|
B:-5---0-0---5-5---0---5---5-5---5-5--0-|-0-0-0--5-5--0-8--8--8--8--8--8--8--8-|
G:-----4-4---------4---5---5-5---5-5--7-|-4-4-4-------4-0--0--0--0--0--0--0--0-|
D:--------------------------------------|--------------------------------------|
A:--------------------------------------|--------------------------------------|
E:--------------------------------------|--------------------------------------|
You hang around the right people and places
Surround yourself with such beautiful faces
You can't leave the house unless you're properly dressed
You're the loser if you think everybody's impressed


Chorus (With heavy palm-muting throughout):

   A                                  G   A                                G
e:-9--b(10)-9--9--9---9--b(10)--10-10-7-|-7-7----9--9-----9---b(11)---9--8-7---|
B:-10-b(11)-10-10-10--10-b(11)--11-11-8-|-8-8----10-10----10--b(12)---10-9-8---|
G:--------------------------------------|--------------------------------------|
D:--------------------------------------|--------------------------------------|
A:--------------------------------------|--------------------------------------|
E:--------------------------------------|--------------------------------------|
   Do everything you gotta do             Get me to talk to you

   A                                  G   A                                G
e:-9--9----9--9----9---b-(10)---7-7-7---|-9----10---11---12---13---------------|
B:-10------10------10--b-(11)---8-8-8---|-10---11---12---13---14---------------|
G:--------------------------------------|--------------------------------------|
D:--------------------------------------|--------------------------------------|
A:--------------------------------------|--------------------------------------|
E:--------------------------------------|--------------------------------------|
   Are you different, are you new?        What's up with you?


   A                                  G   A                                G
e:-9--9-----9--9-----9--b(10)--9--9--9--|-9---10---9--9---9-b10r9--7---7---0-0-|
B:-10-10----10-10----10-b(11)--10-10-10-|-10-b11---10-10--10b11r10-8---8---5-0-|
G:--------------------------------------|------------------------------------4-|
D:--------------------------------------|------------------------------------4-|
A:--------------------------------------|------------------------------------4-|
E:--------------------------------------|------------------------------------4-|
   Tell me, tell me, tell me do           Oh baby are you true?

   A                                  G   A                                G
e:-0------(0)------7--7-b9--0-----------|--0----10---10----10---10----10---10--|
B:-4---b--(5)------8--8-b10-5-----------|--5----14-b(15)---14-b(15)---14-b(15)-|
G:--------------------------------------|--------------------------------------|
D:--------------------------------------|--------------------------------------|
A:--------------------------------------|--------------------------------------|
E:--------------------------------------|--------------------------------------|
   Are you different, are you new?         No you're just a statue

   E                      Cmaj7           E           G
e:-0----0----0-0----0---------0-0---0---|-0--0-0-0-0--10-10-10-10--10-10-10-10-|
B:-5----0----0-0----0---------0-0---0---|-0--0-0-0-0--8--8--8--8---8--8--8--8--|
G:------4----4-4----4--b--5--(5-5---5)--|-4--4-4-4-4--0--0--0--0---0--0--0--0--|
D:--------------------------------------|--------------------------------------|
A:--------------------------------------|--------------------------------------|
E:--------------------------------------|--------------------------------------|

   E                      Cmaj7           E           G
e:--------0----0----0-0----0----0-0---0-|-0--0-0-0-0--10-10-10-10--10-10-10-10-|
B:-0-0----5----0----0-0----0----0-0---0-|-0--0-0-0-0--8--8-b9-(9)--8--8-b9-(9)-|
G:-4-4---------4----4-4----5----5-5---7-|-4--4-4-4-4--0--0--0--0---0--0--0--0--|
D:--------------------------------------|--------------------------------------|
A:--------------------------------------|--------------------------------------|
E:--------------------------------------|--------------------------------------|
   You're just a statue...

   E                      Cmaj7           E           G
e:-0-----0------0-----0-0-0-0-----0-0-0-|-0--0-0-0-0--10-10-10-10--10-10-10-10-|
B:-5-----0------0-----0-0-0-0-----0-0-0-|-0--0-0-0-0--8--8--8--8---8--8--8--8--|
G:-------3--b--(4)----4-4-4-5-----5-5b7-|-4--4-4-4-4--0-----0------0-----0-----|
D:--------------------------------------|--------------------------------------|
A:--------------------------------------|--------------------------------------|
E:--------------------------------------|--------------------------------------|

   E                      Cmaj7           E           G
e:-0---0-0---0-0---0---0---0-0---0-0--0-|-0-0-0--0-0--0-10-10-10-10-10-10-10-10|
B:-5---0-0---5-5---0---5---5-5---5-5--0-|-0-0-0--5-5--0-8--8--8--8--8--8--8--8-|
G:-----4-4---------4---5---5-5---5-5--7-|-4-4-4-------4-0--0--0--0--0--0--0--0-|
D:--------------------------------------|--------------------------------------|
A:--------------------------------------|--------------------------------------|
E:--------------------------------------|--------------------------------------|

Verse 3:

   E                      Cmaj7           E           G
e:-0-----0------0-----0-0-0-0-----0-0-0-|-0--0-0-0-0--10-10-10-10--10-10-10-10-|
B:-5-----0------0-----0-0-0-0-----0-0-0-|-0--0-0-0-0--8--8--8--8---8--8--8--8--|
G:-------3--b--(4)----4-4-4-5-----5-5b7-|-4--4-4-4-4--0-----0------0-----0-----|
D:--------------------------------------|--------------------------------------|
A:--------------------------------------|--------------------------------------|
E:--------------------------------------|--------------------------------------|
In your leopard skin trousers you look so nifty
You act like you're nineteen, but you're closer to fifty
You ain't got reason to express rage
Why don't you go and hang around people your own age?


Chorus (With heavy palm-muting throughout):

   A                                  G   A                                G
e:-9--b(10)-9--9--9---9--b(10)--10-10-7-|-7-7----9--9-----9---b(11)---9--8-7---|
B:-10-b(11)-10-10-10--10-b(11)--11-11-8-|-8-8----10-10----10--b(12)---10-9-8---|
G:--------------------------------------|--------------------------------------|
D:--------------------------------------|--------------------------------------|
A:--------------------------------------|--------------------------------------|
E:--------------------------------------|--------------------------------------|
   Do everything you gotta do             Get me to talk to you

   A                                  G   A                                G
e:-9--9----9--9----9---b-(10)---7-7-7---|-9----10---11---12---13---------------|
B:-10------10------10--b-(11)---8-8-8---|-10---11---12---13---14---------------|
G:--------------------------------------|--------------------------------------|
D:--------------------------------------|--------------------------------------|
A:--------------------------------------|--------------------------------------|
E:--------------------------------------|--------------------------------------|
   Are you different, are you new?        What's up with you?

   A                                  G   A                                G
e:-9--9-----9--9-----9--b(10)--9--9--9--|-9---10---9--9---9-b10r9--7---7---0-0-|
B:-10-10----10-10----10-b(11)--10-10-10-|-10-b11---10-10--10b11r10-8---8---5-0-|
G:--------------------------------------|------------------------------------4-|
D:--------------------------------------|------------------------------------4-|
A:--------------------------------------|------------------------------------4-|
E:--------------------------------------|------------------------------------4-|
   Tell me, tell me, tell me do           Oh baby are you true?

   A                                  G   A                                G
e:-0------(0)------7--7-b9--0-----------|--0----10---10----10---10----10---10--|
B:-4---b--(5)------8--8-b10-5-----------|--5----14-b(15)---14-b(15)---14-b(15)-|
G:--------------------------------------|--------------------------------------|
D:--------------------------------------|--------------------------------------|
A:--------------------------------------|--------------------------------------|
E:--------------------------------------|--------------------------------------|
   Are you different, are you new?         No you're just a statue

   E                      Cmaj7           E           G
e:-0----0----0-0----0---------0-0---0---|-0--0-0-0-0--10-10-10-10--10-10-10-10-|
B:-5----0----0-0----0---------0-0---0---|-0--0-0-0-0--8--8--8--8---8--8--8--8--|
G:------4----4-4----4--b--5--(5-5---5)--|-4--4-4-4-4--0--0--0--0---0--0--0--0--|
D:--------------------------------------|--------------------------------------|
A:--------------------------------------|--------------------------------------|
E:--------------------------------------|--------------------------------------|
   Statue,  Statue,  Statue,  Statue      Statue,  Statue,  Statue,  Statue

   E                      Cmaj7           E           G
e:--------0----0----0-0----0----0-0---0-|-0--0-0-0-0--10-10-10-10--10-10-10-10-|
B:-0-0----5----0----0-0----0----0-0---0-|-0--0-0-0-0--8--8-b9-(9)--8--8-b9-(9)-|
G:-4-4---------4----4-4----5----5-5---7-|-4--4-4-4-4--0--0--0--0---0--0--0--0--|
D:--------------------------------------|--------------------------------------|
A:--------------------------------------|--------------------------------------|
E:--------------------------------------|--------------------------------------|
   Statue,  Statue,  Statue,  Statue      Statue,  Statue,  Statue,  Statue

   E                      Cmaj7           E           G
e:-0-----0------0-----0-0-0-0-----0-0-0-|-0--0-0-0-0--10-10-10-10--10-10-10-10-|
B:-5-----0------0-----0-0-0-0-----0-0-0-|-0--0-0-0-0--8--8--8--8---8--8--8--8--|
G:-------3--b--(4)----4-4-4-5-----5-5b7-|-4--4-4-4-4--0-----0------0-----0-----|
D:--------------------------------------|--------------------------------------|
A:--------------------------------------|--------------------------------------|
E:--------------------------------------|--------------------------------------|
   Statue,  Statue,  Statue,  Statue      Statue,  Statue,  Statue,  Statue

   E                      Cmaj7           E           G
e:-0---0-0---0-0---0---0---0-0---0-0--0-|-0-0-0--0-0--0-10-10-10-10-10-10-10-10|
B:-5---0-0---5-5---0---5---5-5---5-5--0-|-0-0-0--5-5--0-8--8--8--8--8--8--8--8-|
G:-----4-4---------4---5---5-5---5-5--7-|-4-4-4-------4-0--0--0--0--0--0--0--0-|
D:--------------------------------------|--------------------------------------|
A:--------------------------------------|--------------------------------------|
E:--------------------------------------|--------------------------------------|
   Statue,          Statue,               Statue,           Statue....

TP.

LET'S GO DIE (Greg Norton)

Intro (Bass):

G:--------------------|
D:--------------------|
A:-2---2-2---2---2----|
E:-----------------0--|

Guitar:
   B5              E5      B5              E5
e:-----------------------|-----------------------|
B:-----------------5-----|-----------------5-----|
G:-4---4-4---4---4-4-----|-4---4-4---4---4-4-----|
D:-4---4-4---4---4-2-----|-4---4-4---4---4-2-----|
A:-2---2-0---2---0-------|-2---2-0---2---0-------|
E:-----------------------|-----------------------|

   E5    F#5 B5            E5    F#5 B5
e:-----------------------|-----------------------|
B:-5-5-/-7---------------|-5-5-/-7---------------|
G:-4-4-/-6---4--4--4-4-4-|-4-4-/-6---4--4--4-4-4-|
D:-2-2-/-4---4--4--4-4-4-|-2-2-/-4---4--4--4-4-4-|
A:-----------2--2--2-2-2-|-----------2--2--2-2-2-|
E:-----------------------|-----------------------|

Chorus:

   B5              E5      B5              E5      B5              E5
e:-----------------------|-----------------------|-----------------------|
B:-----------------5-----|-----------------5-----|-----------------5-----|
G:-4---4-4---4---4-4-----|-4---4-4---4---4-4-----|-4---4-4---4---4-4-----|
D:-4---4-4---4---4-2-----|-4---4-4---4---4-2-----|-4---4-4---4---4-2-----|
A:-2---2-0---2---0-------|-2---2-0---2---0-------|-2---2-0---2---0-------|
E:-----------------------|-----------------------|-----------------------|
   Don't run away          Don't run away          Don't run away

   E5    F#5 B5            E5    F#5 B5
e:-----------------------|-----------------------|
B:-5-5-/-7---------------|-5-5-/-7---------------|
G:-4-4-/-6---4--4--4-4-4-|-4-4-/-6---4--4--4-4-4-|
D:-2-2-/-4---4--4--4-4-4-|-2-2-/-4---4--4--4-4-4-|
A:-----------2--2--2-2-2-|-----------2--2--2-2-2-|
E:-----------------------|-----------------------|
   Why should I stay       and give my life away

Verse One:
   E5              F#5                E5              F#5
e:----------------------------------|----------------------------------|
B:-5---5-5-5---5---7---7---7-7-7-7--|-5---5-5-5---5---7---7---7-7-7-7--|
G:-4---4-4-4---4---6---6---6-6-6-6--|-4---4-4-4---4---6---6---6-6-6-6--|
D:-2---2-2-2---2---4---4---4-4-4-4--|-2---2-2-2---2---4---4---4-4-4-4--|
A:----------------------------------|----------------------------------|
E:----------------------------------|----------------------------------|
You've picked my number, First thing I ever won
                                      But that's just my luck

   D5                         A5    B5  E5  F#5
e:--------------------------|-------------------------|
B:--------------------------|-----------5---7-7-------|
G:-7---7---7-7-7---7---7-7--|-----0-4---4---6-6-------|
D:-7---7---7-7-7---7---7-7--|-7---0-4---2---4-4-------|
A:-5---5---0-5-5---5---5-5--|-7-----2-----------------|
E:--------------------------|-5-----------------------|
Now you've got me, now I'm stuck
                              Stuck in a rut with a knife in my gut

Chorus (Played twice):

   B5              E5      B5              E5      B5              E5
e:-----------------------|-----------------------|-----------------------|
B:-----------------5-----|-----------------5-----|-----------------5-----|
G:-4---4-4---4---4-4-----|-4---4-4---4---4-4-----|-4---4-4---4---4-4-----|
D:-4---4-4---4---4-2-----|-4---4-4---4---4-2-----|-4---4-4---4---4-2-----|
A:-2---2-0---2---0-------|-2---2-0---2---0-------|-2---2-0---2---0-------|
E:-----------------------|-----------------------|-----------------------|
   Don't run away          Don't run away          Don't run away

   E5    F#5 B5            E5    F#5 B5
e:-----------------------|-----------------------|
B:-5-5-/-7---------------|-5-5-/-7---------------|
G:-4-4-/-6---4--4--4-4-4-|-4-4-/-6---4--4--4-4-4-|
D:-2-2-/-4---4--4--4-4-4-|-2-2-/-4---4--4--4-4-4-|
A:-----------2--2--2-2-2-|-----------2--2--2-2-2-|
E:-----------------------|-----------------------|
   Why should I stay       and give my life away

Verse Two:

   E5              F#5                E5              F#5
e:----------------------------------|----------------------------------|
B:-5---5-5-5---5---7---7---7-7-7-7--|-5---5-5-5---5---7---7---7-7-7-7--|
G:-4---4-4-4---4---6---6---6-6-6-6--|-4---4-4-4---4---6---6---6-6-6-6--|
D:-2---2-2-2---2---4---4---4-4-4-4--|-2---2-2-2---2---4---4---4-4-4-4--|
A:----------------------------------|----------------------------------|
E:----------------------------------|----------------------------------|
You've cut the odds, my chances have dwindled
                                      Nobody wants me now

   D5                         A5    B5  E5  F#5
e:--------------------------|-------------------------|
B:--------------------------|-----------5---7-7-------|
G:-7---7---7-7-7---7---7-7--|-----0-4---4---6-6-------|
D:-7---7---7-7-7---7---7-7--|-7---0-4---2---4-4-------|
A:-5---5---0-5-5---5---5-5--|-7-----2-----------------|
E:--------------------------|-5-----------------------|
Gotta get out, gotta get away Escape to die some other day

Chorus (Played twice):

   B5              E5      B5              E5      B5              E5
e:-----------------------|-----------------------|-----------------------|
B:-----------------5-----|-----------------5-----|-----------------5-----|
G:-4---4-4---4---4-4-----|-4---4-4---4---4-4-----|-4---4-4---4---4-4-----|
D:-4---4-4---4---4-2-----|-4---4-4---4---4-2-----|-4---4-4---4---4-2-----|
A:-2---2-0---2---0-------|-2---2-0---2---0-------|-2---2-0---2---0-------|
E:-----------------------|-----------------------|-----------------------|
   Don't run away          Don't run away          Don't run away

   E5    F#5 B5            E5    F#5 B5
e:-----------------------|-----------------------|
B:-5-5-/-7---------------|-5-5-/-7---------------|
G:-4-4-/-6---4--4--4-4-4-|-4-4-/-6---4--4--4-4-4-|
D:-2-2-/-4---4--4--4-4-4-|-2-2-/-4---4--4--4-4-4-|
A:-----------2--2--2-2-2-|-----------2--2--2-2-2-|
E:-----------------------|-----------------------|
   Why should I stay       and give my life away


Verse Three:

   E5              F#5                E5              F#5
e:----------------------------------|----------------------------------|
B:-5---5-5-5---5---7---7---7-7-7-7--|-5---5-5-5---5---7---7---7-7-7-7--|
G:-4---4-4-4---4---6---6---6-6-6-6--|-4---4-4-4---4---6---6---6-6-6-6--|
D:-2---2-2-2---2---4---4---4-4-4-4--|-2---2-2-2---2---4---4---4-4-4-4--|
A:----------------------------------|----------------------------------|
E:----------------------------------|----------------------------------|
Now I'm getting really confused       I wish I were you

   D5                         A5    B5  E5  F#5
e:--------------------------|-------------------------|
B:--------------------------|-----------5---7-7-------|
G:-7---7---7-7-7---7---7-7--|-----0-4---4---6-6-------|
D:-7---7---7-7-7---7---7-7--|-7---0-4---2---4-4-------|
A:-5---5---0-5-5---5---5-5--|-7-----2-----------------|
E:--------------------------|-5-----------------------|
Then I'd sit around and decide
                              Just who wins, just who dies

Chorus (Played twice):

   B5              E5      B5              E5      B5              E5
e:-----------------------|-----------------------|-----------------------|
B:-----------------5-----|-----------------5-----|-----------------5-----|
G:-4---4-4---4---4-4-----|-4---4-4---4---4-4-----|-4---4-4---4---4-4-----|
D:-4---4-4---4---4-2-----|-4---4-4---4---4-2-----|-4---4-4---4---4-2-----|
A:-2---2-0---2---0-------|-2---2-0---2---0-------|-2---2-0---2---0-------|
E:-----------------------|-----------------------|-----------------------|
   Don't run away          Don't run away          Don't run away

   E5    F#5 B5            E5    F#5 B5
e:-----------------------|-----------------------|
B:-5-5-/-7---------------|-5-5-/-7---------------|
G:-4-4-/-6---4--4--4-4-4-|-4-4-/-6---4--4--4-4-4-|
D:-2-2-/-4---4--4--4-4-4-|-2-2-/-4---4--4--4-4-4-|
A:-----------2--2--2-2-2-|-----------2--2--2-2-2-|
E:-----------------------|-----------------------|
   Why should I stay       and give my life away

Repeat the above then:

   E5    F#5 B5            E5    F#5 B5
e:-----------------------|-----------------------|
B:-5-5-/-7---------------|-5-5-/-7---------------|
G:-4-4-/-6---4--4--4-4-4-|-4-4-/-6---4--4--4-4-4-|
D:-2-2-/-4---4--4--4-4-4-|-2-2-/-4---4--4--4-4-4-|
A:-----------2--2--2-2-2-|-----------2--2--2-2-2-|
E:-----------------------|-----------------------|
   Why should I stay       and give my life awaaaaaaaaaaaaaaay.

TP

AMUSEMENT (Bob Mould)

Intro (Bass): Play twice.

G:-------------------------------------------------------------------------|
D:-------------------------------------------------------------------------|
A:-------------------------------------------------------------------------|
E:-5---5-5-5---5-5-5---5-5-5---5-5-5---8---8-8-8---8-8-1---1-1-1---1-1-1---|

Guitar Intro, play four times:

   Asus2               C5        Fsus2
e:-------------------------------1---1-1---|
B:-0---0-0---0---0-0---0---0-0---1---1-1---|
G:-2---2-2---2---2-2---5---5-5---0---0-0---|
D:-2---2-2---2---2-2---5---5-5---3---3-3---|
A:-0---0-0---0---0-0---3---3-3---3---3-3---|
E:-----------------------------------------|

Verse: (*fret full chord for drone effect, brackets = ghost notes)

   Asus2                   C*                   Fsus2*
e:-----------------------------------------------------------------------------|
B:-0---------------------------------------------------------------------------|
G:-2----------------------------0-------0------------0-------0-------0-------0-|
D:-2----------------------(2)--(2)-(2)-(2)-(2)-(3)--(3)-(3)-(3)-(3)-(3)-(3)-(3)|
A:-0-----------------------3--------3-------3---3--------3-------3-------3-----|
E:-----------------------------------------------------------------------------|
1: I'm not easily amused   ^    v   ^   v   ^   ^    v   ^   v   ^   v   ^   v
2: Yeah got your letter

   Asus2                   C*                   Fsus2*
e:-----------------------------------------------------------------------------|
B:-0---------------------------------------------------------------------------|
G:-2----------------------------0-------0------------0-------0-------0-------0-|
D:-2----------------------(2)--(2)-(2)-(2)-(2)-(3)--(3)-(3)-(3)-(3)-(3)-(3)-(3)|
A:-0-----------------------3--------3-------3---3--------3-------3-------3-----|
E:-----------------------------------------------------------------------------|
1: and I'm not easily amazed
2: Was it an invitation?

   Asus2                   C*                   Fsus2*
e:-----------------------------------------------------------------------------|
B:-0---------------------------------------------------------------------------|
G:-2----------------------------0-------0------------0-------0-------0-------0-|
D:-2----------------------(2)--(2)-(2)-(2)-(2)-(3)--(3)-(3)-(3)-(3)-(3)-(3)-(3)|
A:-0-----------------------3--------3-------3---3--------3-------3-------3-----|
E:-----------------------------------------------------------------------------|
1: Don't you do something different
2: This was your big debut

   Asus2                   C*                   Fsus2*
e:-----------------------------------------------------------------------------|
B:-0---------------------------------------------------------------------------|
G:-2----------------------------0-------0------------0-------0-------0-------0-|
D:-2----------------------(2)--(2)-(2)-(2)-(2)-(3)--(3)-(3)-(3)-(3)-(3)-(3)-(3)|
A:-0-----------------------3--------3-------3---3--------3-------3-------3-----|
E:-----------------------------------------------------------------------------|
1: and I won't even be phased
2: you created this situation

Break: played twice then back to verse 2.
   C5         D5         E5         F5
e:------------------------------------------|
B:------------------------------------------|
G:-5---5------7---7------9---9------10--10--|
D:-5---5------7---7------9---9------10--10--|
A:-3---3------5---5------7---7------8---8---|
E:------------------------------------------|

Follows on from the above after verse 2
   C                              G
e:------------------------------------------------|
B:--------------------------------0---0---0---0---|
G:-9---9---9-9-9------------------4---4-----4-4---|
D:-10--10--101010-----------------5---5-------5---|
A:-10--10--101010-----------------5---5-------5---|
E:-8---8---8-8-8------------------3---3-------3---|
   You're in front my good man

   C                              G
e:------------------------------------------------|
B:--------------------------------0---0---0---0---|
G:-9---9---9-9-9------------------4---4-----4-4---|
D:-10--10--101010-----------------5---5-------5---|
A:-10--10--101010-----------------5---5-------5---|
E:-8---8---8-8-8------------------3---3-------3---|
   Him he's got his places within

   C                              G
e:------------------------------------------------|
B:--------------------------------0---0---0---0---|
G:-9---9---9-9-9------------------4---4-----4-4---|
D:-10--10--101010-----------------5---5-------5---|
A:-10--10--101010-----------------5---5-------5---|
E:-8---8---8-8-8------------------3---3-------3---|
   That's your little             project

   F#                                  F
e:-------------------------------------------------------------------------|
B:-------------------------------------------------------------------------|
G:-3---3---3-3-3-3---3---3---3-3-3-3---2---2---2-2-2-2---2---2---2-2-2-2---|
D:-4---4---4-4-4-4---4---4---4-4-4-4---3---3---3-3-3-3---3---3---3-3-3-3---|
A:-4---4---4-4-4-4---4---4---4-4-4-4---3---3---3-3-3-3---3---3---3-3-3-3---|
E:-2---2---2-2-2-2---2---2---2-2-2-2---1---1---1-1-1-1---1---1---1-1-1-1---|
                 You want to do that   project?                  JUST DO IT
                                                                (DON'T DO IT)
Return to guitar intro and repeat verses 1 & 2 as above

Ending:

   Asus2               C5        Fsus2
e:-------------------------------1---1-1---|
B:-0---0-0---0---0-0---0---0-0---1---1-1---| Repeat four times
G:-2---2-2---2---2-2---5---5-5---0---0-0---|
D:-2---2-2---2---2-2---5---5-5---3---3-3---|
A:-0---0-0---0---0-0---3---3-3---3---3-3---|
E:-----------------------------------------|
                                 DON'T DO IT

   Asus2                          C     Fsus2
e:--------------------------------------1---|
B:-0------------------------------1-----1---|  Repeated to fade
G:-2------------------------------0-----0---|
D:-2------------------------------2-----3---|
A:-0------------------------------3-----3---|
E:--------------------------------------1---|

TP

DO YOU REMEMBER? (Bob Mould)


Intro(Played four times):

   D5  A5  E5  B5                   D5  A5  E5  B5
e:--------------------------------|--------------------------------|
B:--------------------------------|--------------------------------|
G:-7-------9----------------------|-7-------9----------------------|
D:-7---7---9---9-9-9-9---9-9-9-9--|-7---7---9---9-9-9-9---9-9-9-9--|
A:-5---7---7---9-9-9-9---9-9-9-9--|-5---7---7---9-9-9-9---9-9-9-9--|
E:-----5-------7-7-7-7---7-7-7-7--|-----5-------7-7-7-7---7-7-7-7--|

Verse:

   B5                      E5       B5                      E5
e:--------------------------------|--------------------------------|
B:--------------------------------|--------------------------------|
G:-------------------------9-9-9--|-------------------------9-9-9--|
D:-9---9-9-9---9-9---9-9---9-9-9--|-9---9-9-9---9-9---9-9---9-9-9--|
A:-9---9-9-9---9-9---9-9---7-7-7--|-9---9-9-9---9-9---9-9---7-7-7--|
E:-7---7-7-7---7-7---7-7----------|-7---7-7-7---7-7---7-7----------|
We do it all for fun you know,      So we started extreme

   B5                      E5       B5                      G5
e:--------------------------------|-------------------------------|
B:--------------------------------|-------------------------------|
G:-------------------------9-9-9--|-------------------------------|
D:-9---9-9-9---9-9---9-9---9-9-9--|-9---9-9-9---9-9---9-9---5-5---|
A:-9---9-9-9---9-9---9-9---7-7-7--|-9---9-9-9---9-9---9-9---5-5---|
E:-7---7-7-7---7-7---7-7----------|-7---7-7-7---7-7---7-7---3-3---|
   We get loaded after the show     It's all part of our scheme

   A5                      D5       A5                      E5
e:--------------------------------|-------------------------------|
B:--------------------------------|-------------------------------|
G:-------------------------7-7----|-------------------------9-9---|
D:-7---7-7-7---7-7---7-7---7-7----|-7---7-7-7---7-7---7-7---9-9---|
A:-7---7-7-7---7-7---7-7---5-5----|-7---7-7-7---7-7---7-7---7-7---|
E:-5---5-5-5---5-5---5-5----------|-5---5-5-5---5-5---5-5---------|
Don't hate us 'cause we're just kids, you know that wouldn't be fair

   B5                      E5       B5      D5      B5
e:--------------------------------|-------------------------------|
B:--------------------------------|-------------------------------|
G:-------------------------9-9-9--|---------7-7-7-----------------|
D:-9---9-9-9---9-9---9-9---9-9-9--|-9-9-9---7-7-7---9-------------|
A:-9---9-9-9---9-9---9-9---7-7-7--|-9-9-9---5-5-5---9-------------|
E:-7---7-7-7---7-7---7-7----------|-7-7-7-----------7-------------|
People say we're behind the times   Go ahead and see if I care

Chorus:

   D5  A5  E5  B5                   D5  A5  E5  B5
e:--------------------------------|--------------------------------|
B:--------------------------------|--------------------------------|
G:-7-------9----------------------|-7-------9----------------------|
D:-7---7---9---9-9-9-9---9-9-9-9--|-7---7---9---9-9-9-9---9-9-9-9--|
A:-5---7---7---9-9-9-9---9-9-9-9--|-5---7---7---9-9-9-9---9-9-9-9--|
E:-----5-------7-7-7-7---7-7-7-7--|-----5-------7-7-7-7---7-7-7-7--|
               Do you remember?                 When you were our age

   D5  A5  E5  B5                   D5  A5  E5  B5
e:--------------------------------|--------------------------------|
B:--------------------------------|--------------------------------|
G:-7-------9----------------------|-7-------9----------------------|
D:-7---7---9---9-9-9-9---9-9-9-9--|-7---7---9---9-9-9-9---9-9-9-9--|
A:-5---7---7---9-9-9-9---9-9-9-9--|-5---7---7---9-9-9-9---9-9-9-9--|
E:-----5-------7-7-7-7---7-7-7-7--|-----5-------7-7-7-7---7-7-7-7--|
               Do you remember?

Solo [not tabbed] (Over verse chords):

   B5                      E5       B5                      E5
e:--------------------------------|--------------------------------|
B:--------------------------------|--------------------------------|
G:-------------------------9-9-9--|-------------------------9-9-9--|
D:-9---9-9-9---9-9---9-9---9-9-9--|-9---9-9-9---9-9---9-9---9-9-9--|
A:-9---9-9-9---9-9---9-9---7-7-7--|-9---9-9-9---9-9---9-9---7-7-7--|
E:-7---7-7-7---7-7---7-7----------|-7---7-7-7---7-7---7-7----------|

   B5                      E5       B5                      G5
e:--------------------------------|-------------------------------|
B:--------------------------------|-------------------------------|
G:-------------------------9-9-9--|-------------------------------|
D:-9---9-9-9---9-9---9-9---9-9-9--|-9---9-9-9---9-9---9-9---5-5---|
A:-9---9-9-9---9-9---9-9---7-7-7--|-9---9-9-9---9-9---9-9---5-5---|
E:-7---7-7-7---7-7---7-7----------|-7---7-7-7---7-7---7-7---3-3---|

   A5                      D5       A5                      E5
e:--------------------------------|-------------------------------|
B:--------------------------------|-------------------------------|
G:-------------------------7-7----|-------------------------9-9---|
D:-7---7-7-7---7-7---7-7---7-7----|-7---7-7-7---7-7---7-7---9-9---|
A:-7---7-7-7---7-7---7-7---5-5----|-7---7-7-7---7-7---7-7---7-7---|
E:-5---5-5-5---5-5---5-5----------|-5---5-5-5---5-5---5-5---------|

   B5                      E5       B5      D5      B5
e:--------------------------------|-------------------------------|
B:--------------------------------|-------------------------------|
G:-------------------------9-9-9--|---------7-7-7-----------------|
D:-9---9-9-9---9-9---9-9---9-9-9--|-9-9-9---7-7-7---9-------------|
A:-9---9-9-9---9-9---9-9---7-7-7--|-9-9-9---5-5-5---9-------------|
E:-7---7-7-7---7-7---7-7----------|-7-7-7-----------7-------------|

Chorus:

   D5  A5  E5  B5                   D5  A5  E5  B5
e:--------------------------------|--------------------------------|
B:--------------------------------|--------------------------------|
G:-7-------9----------------------|-7-------9----------------------|
D:-7---7---9---9-9-9-9---9-9-9-9--|-7---7---9---9-9-9-9---9-9-9-9--|
A:-5---7---7---9-9-9-9---9-9-9-9--|-5---7---7---9-9-9-9---9-9-9-9--|
E:-----5-------7-7-7-7---7-7-7-7--|-----5-------7-7-7-7---7-7-7-7--|
               Do you remember?                 When you were our age

   D5  A5  E5  B5                   D5  A5  E5  B5
e:--------------------------------|--------------------------------|
B:--------------------------------|--------------------------------|
G:-7-------9----------------------|-7-------9----------------------|
D:-7---7---9---9-9-9-9---9-9-9-9--|-7---7---9---9-9-9-9---9-9-9-9--|
A:-5---7---7---9-9-9-9---9-9-9-9--|-5---7---7---9-9-9-9---9-9-9-9--|
E:-----5-------7-7-7-7---7-7-7-7--|-----5-------7-7-7-7---7-7-7-7--|
               Do you remember?
Verse:

   B5                      E5       B5                      E5
e:--------------------------------|--------------------------------|
B:--------------------------------|--------------------------------|
G:-------------------------9-9-9--|-------------------------9-9-9--|
D:-9---9-9-9---9-9---9-9---9-9-9--|-9---9-9-9---9-9---9-9---9-9-9--|
A:-9---9-9-9---9-9---9-9---7-7-7--|-9---9-9-9---9-9---9-9---7-7-7--|
E:-7---7-7-7---7-7---7-7----------|-7---7-7-7---7-7---7-7----------|
We do it all for fun you know,      So we started extreme

   B5                      E5       B5                      G5
e:--------------------------------|-------------------------------|
B:--------------------------------|-------------------------------|
G:-------------------------9-9-9--|-------------------------------|
D:-9---9-9-9---9-9---9-9---9-9-9--|-9---9-9-9---9-9---9-9---5-5---|
A:-9---9-9-9---9-9---9-9---7-7-7--|-9---9-9-9---9-9---9-9---5-5---|
E:-7---7-7-7---7-7---7-7----------|-7---7-7-7---7-7---7-7---3-3---|
   We get loaded after the show     It's all part of our scheme

   A5                      D5       A5                      E5
e:--------------------------------|-------------------------------|
B:--------------------------------|-------------------------------|
G:-------------------------7-7----|-------------------------9-9---|
D:-7---7-7-7---7-7---7-7---7-7----|-7---7-7-7---7-7---7-7---9-9---|
A:-7---7-7-7---7-7---7-7---5-5----|-7---7-7-7---7-7---7-7---7-7---|
E:-5---5-5-5---5-5---5-5----------|-5---5-5-5---5-5---5-5---------|
Don't hate us 'cause we're just kids, you know that wouldn't be fair

   B5                      E5       B5      D5      B5
e:--------------------------------|-------------------------------|
B:--------------------------------|-------------------------------|
G:-------------------------9-9-9--|---------7-7-7-----------------|
D:-9---9-9-9---9-9---9-9---9-9-9--|-9-9-9---7-7-7---9-------------|
A:-9---9-9-9---9-9---9-9---7-7-7--|-9-9-9---5-5-5---9-------------|
E:-7---7-7-7---7-7---7-7----------|-7-7-7-----------7-------------|
People say we're behind the times   Go ahead and see if I care

Chorus:

   D5  A5  E5  B5                   D5  A5  E5  B5
e:--------------------------------|--------------------------------|
B:--------------------------------|--------------------------------|
G:-7-------9----------------------|-7-------9----------------------|
D:-7---7---9---9-9-9-9---9-9-9-9--|-7---7---9---9-9-9-9---9-9-9-9--|
A:-5---7---7---9-9-9-9---9-9-9-9--|-5---7---7---9-9-9-9---9-9-9-9--|
E:-----5-------7-7-7-7---7-7-7-7--|-----5-------7-7-7-7---7-7-7-7--|
               Do you remember?                 When you were our age

   D5  A5  E5  B5                   D5  A5  E5  B5
e:--------------------------------|--------------------------------|
B:--------------------------------|--------------------------------|
G:-7-------9----------------------|-7-------9----------------------|
D:-7---7---9---9-9-9-9---9-9-9-9--|-7---7---9---9-9-9-9---9-9-9-9--|
A:-5---7---7---9-9-9-9---9-9-9-9--|-5---7---7---9-9-9-9---9-9-9-9--|
E:-----5-------7-7-7-7---7-7-7-7--|-----5-------7-7-7-7---7-7-7-7--|
               Do you remember?                 Do you remember?

   D5  A5  E5  B5                   D5  A5  E5  B5
e:--------------------------------|--------------------------------|
B:--------------------------------|--------------------------------|
G:-7-------9----------------------|-7-------9----------------------|
D:-7---7---9---9-9-9-9---9-9-9-9--|-7---7---9---9-9-9-9---9-9-9-9--|
A:-5---7---7---9-9-9-9---9-9-9-9--|-5---7---7---9-9-9-9---9-9-9-9--|
E:-----5-------7-7-7-7---7-7-7-7--|-----5-------7-7-7-7---7-7-7-7--|
               Do you remember?                 Do you remember?

   D5  A5  E5  B5                   D5  A5  E5  B5   (hold)
e:--------------------------------|--------------------------------|
B:--------------------------------|--------------------------------|
G:-7-------9----------------------|-7-------9----------------------|
D:-7---7---9---9-9-9-9---9-9-9-9--|-7---7---9---9-9-9-9------------|
A:-5---7---7---9-9-9-9---9-9-9-9--|-5---7---7---9-9-9-9------------|
E:-----5-------7-7-7-7---7-7-7-7--|-----5-------7-7-7-7------------|
               Do you remember?                 Do you remember?

TP.
comments
We did not receive enough feedback on this tab! Please rate:
print report bad tab
1 2 3 4 5
I want to post or [tab]
guest
You may want to rate the tab now too:
select rating
Please do not post tabs as comments. Select "correction" instead!