Oops, an error
Loading. Please wait.

Land Speed Record Tab

658 views 1 this week
no commentswrite comment
1 2 3 4 5
please rate
add to favorites launch autoscroll
font size
0
reset
Autoscroll
+/-
esc
set tempo
stop
Contributor
Difficulty
intermediate
WARNING: You are trying to view
                                    content from Ultimate-Guitar.com
                                    in an unauthorized application,
                                    which is prohibited.

                                    Please use an official Ultimate
                                    Guitar Tabs application for iPhone,
                                    iPad or Android to access legitimate
                                    chords, guitar, bass, and drum tabs
                                    from Ultimate-Guitar.com database.

                                    Type "ultimate guitar tabs" in Apple
                                    App Store's or Android Market's
                                    search to find the application.
THIS IS NOT MY TAB
THIS BELONGS TO THE EXCELLENT TONY PEART
BUT BEING AS GEOSITES IS CLOSING ITS DOORS, I AM PUTTING THESE TABS UP TO ENSURE THEY ARE NOT LOST


ALL TENSED UP (Mould/Hart/Norton) [Vocal: All]

Intro (played four times):

   C#                      A             F#
e:-----------------------|---------------------------|
B:-----------------------|---------------------------|
G:-6---6---6---6-6---6-6-|-4---6-6---6---6---6-6---4-|
D:-6---6---6---6-6---6-6-|-4---4-4---4---4---4-4---4-|
A:-4---4---4---4-4---4-4-|---------------------------|
E:-----------------------|---------------------------|

Verse:
   C#                      A       F#
e:-----------------------|---------------------------|
B:-----------------------|---------------------------|
G:-6--6--6-6--6-6--6-6-6-|-4---4---6-6-6-6---6-6-6---|
D:-6--6--6-6--6-6--6-6-6-|-4---4---4-4-4-4---4-4-4---|
A:-4--4--4-4--4-4--4-4-4-|---------------------------|
E:-----------------------|---------------------------|
1: Got these little pills  To curb your appetite

   C#                      A       F#
e:-----------------------|---------------------------|
B:-----------------------|---------7-7-7-7---7-7-7---| Play
G:-6--6--6-6--6-6--6-6-6-|-4---4---6-6-6-6---6-6-6---| three
D:-6--6--6-6--6-6--6-6-6-|-4---4---4-4-4-4---4-4-4---| times
A:-4--4--4-4--4-4--4-4-4-|---------------------------|
E:-----------------------|---------------------------|
2: Take a couple of these  You'll be up all night
3: I can scream, I can jump, I can shout
                           I can tear the whole place down
4: When I take a couple of these
                           I don't want you around

Chorus:

   E5          C#5         E5             B5
e:-----------------------|-----------------------|
B:-----------------------|-----------------------|
G:-9--9--9--9------------|-9---9---9---9---------|
D:-9--9--9--9--11--11-11-|-9---9---9---9--9--9-9-|
A:-7--7--7--7--11--11-11-|-7---7---7---7--9--9-9-|
E:-------------9---9--9--|----------------7--7-7-|
All tensed up, did too many pills
                          Wanna get near you but I can't stand still

   A5            F#5           G#5                  A5   F#5
e:---------------------------|---------------------------------|
B:---------------------------|---------------------------------|
G:-14-14-14-14---11-11-11-11-|-13---13---13-13-13---14---11-11-|
D:-14-14-14-14---11-11-11-11-|-13---13---13-13-13---14---11-11-|
A:-12-12-12-12---9--9--9--9--|-11---11---11-11-11---12---9--9--|
E:---------------------------|---------------------------------|

   G#5
e:----------------------------|
B:----------------------------|
G:-13--13--13-13-13--13-13----|
D:-13--13--13-13-13--13-13--6-|
A:-11--11--11-11-11--11-11--6-|
E:--------------------------4-|
Verse 2:

   C#                      A             F#
e:-----------------------|---------------------------|
B:-----------------------|---------------------------|
G:-6---6---6---6-6---6-6-|-4---6-6---6---6---6-6---4-| Play
D:-6---6---6---6-6---6-6-|-4---4-4---4---4---4-4---4-| twice
A:-4---4---4---4-4---4-4-|---------------------------|
E:-----------------------|---------------------------|
   Baby, I love you,
   But I'm too loaded To love you properly

   C#                                      A                F#
e:---------------------------------------|---------------------------------|
B:-9-----9-----9-----9-----9-------------|---------------------------------|
G:-11b13-11b13-11b13-11b13-11b13r11-9----|---------------------------------|
D:------------------------------------11-|-9---11-11---11---11---11-11---9-|
A:---------------------------------------|-9---9--9----9----9----9--9----9-|
E:---------------------------------------|---------------------------------|

   C#                                      A                F#
e:---------------------------------------|---------------------------------|
B:-9-----9-----9-----9-----9-------------|---------------------------------|
G:-11b13-11b13-11b13-11b13-11b13r11-9----|---------------------------------|
D:------------------------------------11-|-9---11-11---11---11---11-11---9-|
A:---------------------------------------|-9---9--9----9----9----9--9----9-|
E:---------------------------------------|---------------------------------|

Verse:
   C#                      A       F#
e:-----------------------|---------------------------|
B:-----------------------|---------------------------|
G:-6--6--6-6--6-6--6-6-6-|-4---4---6-6-6-6---6-6-6---|
D:-6--6--6-6--6-6--6-6-6-|-4---4---4-4-4-4---4-4-4---|
A:-4--4--4-4--4-4--4-4-4-|---------------------------|
E:-----------------------|---------------------------|
1: Got these little pills  To curb your appetite

   C#                      A       F#
e:-----------------------|---------------------------|
B:-----------------------|---------7-7-7-7---7-7-7---| Play
G:-6--6--6-6--6-6--6-6-6-|-4---4---6-6-6-6---6-6-6---| three
D:-6--6--6-6--6-6--6-6-6-|-4---4---4-4-4-4---4-4-4---| times
A:-4--4--4-4--4-4--4-4-4-|---------------------------|
E:-----------------------|---------------------------|
2: Take a couple of these  You'll be up all night
3: I can scream, I can jump, I can shout
                           I can tear the whole place down
4: When I take a couple of these
                           I don't want you around

Chorus:

   E5          C#5         E5             B5
e:-----------------------|-----------------------|
B:-----------------------|-----------------------|
G:-9--9--9--9------------|-9---9---9---9---------|
D:-9--9--9--9--11--11-11-|-9---9---9---9--9--9-9-|
A:-7--7--7--7--11--11-11-|-7---7---7---7--9--9-9-|
E:-------------9---9--9--|----------------7--7-7-|
All tensed up, did too many pills
                          Wanna get near you but I can't stand still

   A5            F#5           G#5                  A5   F#5
e:---------------------------|---------------------------------|
B:---------------------------|---------------------------------|
G:-14-14-14-14---11-11-11-11-|-13---13---13-13-13---14---11-11-|
D:-14-14-14-14---11-11-11-11-|-13---13---13-13-13---14---11-11-|
A:-12-12-12-12---9--9--9--9--|-11---11---11-11-11---12---9--9--|
E:---------------------------|---------------------------------|

   G#5
e:----------------------------|
B:----------------------------|
G:-13--13--13-13-13--13-13----|
D:-13--13--13-13-13--13-13--6-|
A:-11--11--11-11-11--11-11--6-|
E:--------------------------4-|

Verse 2:

   C#                      A             F#
e:-----------------------|---------------------------|
B:-----------------------|---------------------------|
G:-6---6---6---6-6---6-6-|-4---6-6---6---6---6-6---4-| Play
D:-6---6---6---6-6---6-6-|-4---4-4---4---4---4-4---4-| twice
A:-4---4---4---4-4---4-4-|---------------------------|
E:-----------------------|---------------------------|
   Baby, I love you,
   But I'm too loaded To love you properly

   C#                                      A                F#
e:---------------------------------------|---------------------------------|
B:-9-----9-----9-----9-----9-------------|---------------------------------|
G:-11b13-11b13-11b13-11b13-11b13r11-9----|---------------------------------|
D:------------------------------------11-|-9---11-11---11---11---11-11---9-|
A:---------------------------------------|-9---9--9----9----9----9--9----9-|
E:---------------------------------------|---------------------------------|

   C#                                      A                F#
e:---------------------------------------|---------------------------------|
B:-9-----9-----9-----9-----9-------------|---------------------------------|
G:-11b13-11b13-11b13-11b13-11b13r11-9----|---------------------------------|
D:------------------------------------11-|-9---11-11---11---11---11-11---9-|
A:---------------------------------------|-9---9--9----9----9----9--9----9-|
E:---------------------------------------|---------------------------------|

Break (guitar plays chord, bass plays single notes):

   E5(hold)
e:-----------------------------------------------|
B:-----------------------------------------------| Play
G:-9---------------------------------------------| three
D:-9---------------------------------------------| times
A:-7---7---7---7---10---9-10-------------------5-|
E:-----------------------------8-8-8-8---5---7---|

   E5(hold)
e:-----------------------------------------------|
B:-----------------------------------------------|
G:-9---------------------------------------------|
D:-9---------------------------------------------|
A:-7-7---10-9---10-10---15-15---17---19\---------|
E:-----------------------------------------------|

   C#                      A             F#
e:-----------------------|---------------------------|
B:-----------------------|---------------------------| Play
G:-6---6---6---6-6---6-6-|-4---6-6---6---6---6-6---4-| four
D:-6---6---6---6-6---6-6-|-4---4-4---4---4---4-4---4-| times
A:-4---4---4---4-4---4-4-|---------------------------|
E:-----------------------|---------------------------|

Chorus:

   E5          C#5         E5             B5
e:-----------------------|-----------------------|
B:-----------------------|-----------------------| Repeat
G:-9--9--9--9------------|-9---9---9---9---------| three
D:-9--9--9--9--11--11-11-|-9---9---9---9--9--9-9-| times
A:-7--7--7--7--11--11-11-|-7---7---7---7--9--9-9-|
E:-------------9---9--9--|----------------7--7-7-|
All tensed up, did too many pills
                          Wanna get near you but I can't stand still

   E5              C#5            E5              B5      C#5(hold)
e:------------------------------|-----------------------------|
B:------------------------------|-----------------------------|
G:-9---9---9---9----------------|-9---9---9---9---------------|
D:-9---9---9---9---11---11---11-|-9---9---9---9---9---9---11--|
A:-7---7---7---7---11---11---11-|-7---7---7---7---9---9---11--|
E:-----------------9----9----9--|-----------------7---7---9---|

TP.

DON'T TRY TO CALL (Mould/Hart/Norton) [Vocal: Bob]

Intro:

   E   D E   D E   D A    E   D E   D E   D A
e:----------------------|----------------------|
B:----------------------|----------------------|
G:-9---7-9---7-9---7----|-9---7-9---7-9---7----| Play
D:-9---7-9---7-9---7-7--|-9---7-9---7-9---7-7--| twice
A:-7---5-7---5-7---5-7--|-7---5-7---5-7---5-7--|
E:-------------------5--|-------------------5--|

Verse 1 (Lyrics sung very quickly over these two bars):

   D E   D A   D E   D A   B     E   D A   G Bb  E D   A B
e:-----------------------------|-----------------------------|
B:-----------------------------|-----------------------------|
G:-7-9---7-----7-9---7---------|-9---7-----------9-7---------|
D:-7-9---7-7---7-9---7-7---9-9-|-9---7-7---5-8---9-7---7-9---|
A:-5-7---5-7---5-7---5-7---9-9-|-7---5-7---5-8---7-5---7-9---|
E:---------5-----------5---7-7-|-------5---3-6---------5-7---|
Can't explain the way I feel
It's all so clear, it's all so real
                                Some kind of game, they're all the same
                                     Don't need it 'cause I'm always to blame

   C#5       B5              C#5       B5
e:---------------------------------------------------|
B:---------------------------------------------------|
G:-6-6-6-6---4---4---4-4-4---6-6-6-6---4---4---4-4-4-|
D:-6-6-6-6---4---4---4-4-4---6-6-6-6---4---4---4-4-4-|
A:-4-4-4-4---2---2---2-2-2---4-4-4-4---2---2---2-2-2-|
E:---------------------------------------------------|
You're freaking out all the time
                 You've lost touch with reality again

   C#5       B5              A5                  B5
e:-----------------------------------------------------------------|
B:-----------------------------------------------------------------|
G:-6-6-6-6---4---4---4-4-4---2-2-2-2---2-2-2-2---4-4-4-4---4-4-4-4-|
D:-6-6-6-6---4---4---4-4-4---2-2-2-2---2-2-2-2---4-4-4-4---4-4-4-4-|
A:-4-4-4-4---2---2---2-2-2---0-0-0-0---0-0-0-0---2-2-2-2---2-2-2-2-|
E:-----------------------------------------------------------------|
And what you do when you're alone
             Don't try to call me, just leave me alone

Chorus:

   E   D E   D E   D A    E   D E   D E   D E
e:----------------------|----------------------|
B:----------------------|----------------------|
G:-9---7-9---7-9---7----|-9---7-9---7-9---7-9--|
D:-9---7-9---7-9---7-7--|-9---7-9---7-9---7-9--|
A:-7---5-7---5-7---5-7--|-7---5-7---5-7---5-7--|
E:-------------------5--|----------------------|
Don't, don't call, don't call you never get my name
                      Don't, don't try to call I'm never home when you're alone

   E   D E   D E   D A    E   D E   D E   D A
e:----------------------|----------------------|
B:----------------------|----------------------|
G:-9---7-9---7-9---7----|-9---7-9---7-9---7----|
D:-9---7-9---7-9---7-7--|-9---7-9---7-9---7-7--|
A:-7---5-7---5-7---5-7--|-7---5-7---5-7---5-7--|
E:-------------------5--|-------------------5--|
Don't, don't try to call, don't call you get a little kick about it
                          Don't try to call, try at all I'm never home

Verse:

   E   D A   G E   D A   B    E D   A   G   E D   E D   A B
e:--------------------------|--------------------------------|
B:--------------------------|--------------------------------|
G:-9---7-------9---7--------|-9-7-----------9-7---9-7--------|
D:-9---7-7---5-9---7-7---9--|-9-7---7---5---9-7---9-7---7-9--|
A:-7---5-7---5-7---5-7---9--|-7-5---7---5---7-5---7-5---7-9--|
E:-------5---3-------5---7--|-------5---3---------------5-7--|
Well, now you say that you're OK
  I don't buy it when I see you around
                             You fight and suss, what's the fuss
                                 I just told you, forget about us

   C#5       B5              C#5       B5
e:---------------------------------------------------|
B:---------------------------------------------------|
G:-6-6-6-6---4---4---4-4-4---6-6-6-6---4---4---4-4-4-|
D:-6-6-6-6---4---4---4-4-4---6-6-6-6---4---4---4-4-4-|
A:-4-4-4-4---2---2---2-2-2---4-4-4-4---2---2---2-2-2-|
E:---------------------------------------------------|
You're freaking out all the time
                 You've lost touch with reality again

   C#5       B5              A5                  B5
e:-----------------------------------------------------------------|
B:-----------------------------------------------------------------|
G:-6-6-6-6---4---4---4-4-4---2-2-2-2---2-2-2-2---4-4-4-4---4-4-4-4-|
D:-6-6-6-6---4---4---4-4-4---2-2-2-2---2-2-2-2---4-4-4-4---4-4-4-4-|
A:-4-4-4-4---2---2---2-2-2---0-0-0-0---0-0-0-0---2-2-2-2---2-2-2-2-|
E:-----------------------------------------------------------------|
And what you do when you're alone
             Don't try to call me, just leave me alone

   E   D E   D E   D A    E   D E   D E   D E
e:----------------------|----------------------|
B:----------------------|----------------------|
G:-9---7-9---7-9---7----|-9---7-9---7-9---7-9--|
D:-9---7-9---7-9---7-7--|-9---7-9---7-9---7-9--|
A:-7---5-7---5-7---5-7--|-7---5-7---5-7---5-7--|
E:-------------------5--|----------------------|
Don't, don't call, don't call you never get my name
                      Don't, don't try to call I'm never home when you're alone

   E   D E   D E   D A    E   D E   D E   D A
e:----------------------|----------------------|
B:----------------------|----------------------|
G:-9---7-9---7-9---7----|-9---7-9---7-9---7----|
D:-9---7-9---7-9---7-7--|-9---7-9---7-9---7-7--|
A:-7---5-7---5-7---5-7--|-7---5-7---5-7---5-7--|
E:-------------------5--|-------------------5--|
Don't, don't try to call, don't call you get a little kick about it
                          Don't try to call, try at all I'm never home

Solo (not tabbed) over:

   E   D E   D E   D A    E   D E   D E   D A
e:----------------------|----------------------|
B:----------------------|----------------------|
G:-9---7-9---7-9---7----|-9---7-9---7-9---7----| Play
D:-9---7-9---7-9---7-7--|-9---7-9---7-9---7-7--| twice
A:-7---5-7---5-7---5-7--|-7---5-7---5-7---5-7--|
E:-------------------5--|-------------------5--|

   E   D E   D E   D A    E   D E   D E   D E
e:----------------------|----------------------|
B:----------------------|----------------------|
G:-9---7-9---7-9---7----|-9---7-9---7-9---7-9--|
D:-9---7-9---7-9---7-7--|-9---7-9---7-9---7-9--|
A:-7---5-7---5-7---5-7--|-7---5-7---5-7---5-7--|
E:-------------------5--|----------------------|
Don't, don't call, don't call you never get my name
                      Don't, don't try to call I'm never home when you're alone

   E   D E   D E   D A    E   D E   D E   D A(hold)
e:----------------------|----------------------|
B:----------------------|----------------------|
G:-9---7-9---7-9---7----|-9---7-9---7-9---7----|
D:-9---7-9---7-9---7-7--|-9---7-9---7-9---7-7--|
A:-7---5-7---5-7---5-7--|-7---5-7---5-7---5-7--|
E:-------------------5--|-------------------5--|
Don't, don't try to call, don't call you get a little kick about it
                          Don't try to call, try at all I'm never home

TP.

I'M NOT INTERESTED (Hart/Mould/Norton) [Vocal: Grant]

Intro:

   E5                        C5              G5
e:----------------------------------------------------|
B:-5---5---5-5-5---5---5-5-------------------8---8-8--| Play
G:-4---4---4-4-4---4---4-4---5---5---5-5-5---7---7-7--| four
D:-2---2---2-2-2---2---2-2---5---5---5-5-5---5---5-5--| times
A:---------------------------3---3---3-3-3------------|
E:----------------------------------------------------|

Verse 1:

   E5                          C5        G5
e:------------------------------------------------|
B:------------------------------------------------|
G:-9-9-9-9---9---9-9-9-9---9---5-5-5-5---7-7-7-7--| Play
D:-9-9-9-9---9---9-9-9-9---9---5-5-5-5---5-5-5-5--| twice
A:-7-7-7-7---7---7-7-7-7---7---3-3-3-3---5-5-5-5--|
E:------------------------------------------------|
1: Every time I see that girl  My lips   begin to curl
2: She's livin', she's livin' in another world
                               She's just too damn surreal

Chorus:
   D5                 E5                 D5                 E5
e:------------------|------------------|------------------|------------------|
B:------------------|---------0-0------|------------------|------------------|
G:-7-7-7-7--7--7--7-|-9---9---9-7------|-7-7-7-7--7--7--7-|-9-\--------------|
D:-7-7-7-7--7--7--7-|-9---9-------9----|-7-7-7-7--7--7--7-|-9-\--------------|
A:-5-5-5-5--5--5--5-|-7---7------------|-5-5-5-5--5--5--5-|-7-\--------------|
E:------------------|------------------|------------------|------------------|
And I'm not interested In what she's got to say
                                       I'm not interested It's all lies anyways

Break:
   E5                          C5        G5
e:------------------------------------------------|
B:------------------------------------------------|
G:-9-9-9-9---9---9-9-9-9---9---5-5-5-5---7-7-7-7--| Play
D:-9-9-9-9---9---9-9-9-9---9---5-5-5-5---5-5-5-5--| twice
A:-7-7-7-7---7---7-7-7-7---7---3-3-3-3---5-5-5-5--|
E:------------------------------------------------|

Verse 2:

   E5                          C5        G5
e:------------------------------------------------|
B:------------------------------------------------|
G:-9-9-9-9---9---9-9-9-9---9---5-5-5-5---7-7-7-7--| Play
D:-9-9-9-9---9---9-9-9-9---9---5-5-5-5---5-5-5-5--| twice
A:-7-7-7-7---7---7-7-7-7---7---3-3-3-3---5-5-5-5--|
E:------------------------------------------------|
1:You lead your life so pure   You really do not know for sure
2:Which way you're really going And that's what bothers me

Chorus:

   D5                 E5                 D5                 E5
e:------------------|------------------|------------------|------------------|
B:------------------|---------0-0------|------------------|------------------|
G:-7-7-7-7--7--7--7-|-9---9---9-7------|-7-7-7-7--7--7--7-|-9-\--------------|
D:-7-7-7-7--7--7--7-|-9---9-------9----|-7-7-7-7--7--7--7-|-9-\--------------|
A:-5-5-5-5--5--5--5-|-7---7------------|-5-5-5-5--5--5--5-|-7-\--------------|
E:------------------|------------------|------------------|------------------|
And I'm not interested In what she's got to say
                                       I'm not interested It's all lies anyways

Break:
   E5                          C5        G5
e:------------------------------------------------|
B:------------------------------------------------|
G:-9-9-9-9---9---9-9-9-9---9---5-5-5-5---7-7-7-7--| Play
D:-9-9-9-9---9---9-9-9-9---9---5-5-5-5---5-5-5-5--| four
A:-7-7-7-7---7---7-7-7-7---7---3-3-3-3---5-5-5-5--| times
E:------------------------------------------------|

   D5                 E5                 D5                 E5
e:------------------|------------------|------------------|-------5--7-8-10--|
B:------------------|---------0-0------|------------------|-5-7-8------------|
G:-7-7-7-7--7--7--7-|-9---9---9-7------|-7-7-7-7--7--7--7-|------------------|
D:-7-7-7-7--7--7--7-|-9---9-------9----|-7-7-7-7--7--7--7-|------------------|
A:-5-5-5-5--5--5--5-|-7---7------------|-5-5-5-5--5--5--5-|------------------|
E:------------------|------------------|------------------|------------------|

   E5                          C5        G5
e:------------------------------------------------|
B:------------------------------------------------|
G:-9-9-9-9---9---9-9-9-9---9---5-5-5-5---7-7-7-7--| Play
D:-9-9-9-9---9---9-9-9-9---9---5-5-5-5---5-5-5-5--| twice
A:-7-7-7-7---7---7-7-7-7---7---3-3-3-3---5-5-5-5--|
E:------------------------------------------------|

Verse 1:

   E5                          C5        G5
e:------------------------------------------------|
B:------------------------------------------------|
G:-9-9-9-9---9---9-9-9-9---9---5-5-5-5---7-7-7-7--| Play
D:-9-9-9-9---9---9-9-9-9---9---5-5-5-5---5-5-5-5--| twice
A:-7-7-7-7---7---7-7-7-7---7---3-3-3-3---5-5-5-5--|
E:------------------------------------------------|
1: Every time I see that girl  My lips   begin to curl
2: She's livin', she's livin' in another world
                               She's just too damn surreal and

Chorus:

   D5                         E5
e:-10-10-10-10--10-10-10-10-|-12-12-12-12--12-12-12-12-|
B:-13b15-15-15--13b15-15-15-|-15b17-17-17--15b17-17-17-|
G:--------------------------|--------------------------|
D:--------------------------|--------------------------|
A:--------------------------|--------------------------|
E:--------------------------|--------------------------|
   I'm not interested in      what she's got to say

   D5                         E5
e:-10-10-10-10--10-10-10-10-|-15-15-15-15--15-15-15-15-|
B:-13b15-15-15--13b15-15-15-|-12-12-12-12--12-12-12-12-|
G:--------------------------|--------------------------|
D:--------------------------|--------------------------|
A:--------------------------|--------------------------|
E:--------------------------|--------------------------|
   I'm not interested         It's all lies anyway

Outro:

   E5                          C5        G5
e:------------------------------------------------|
B:------------------------------------------------|
G:-9-9-9-9---9---9-9-9-9---9---5-5-5-5---7-7-7-7--| Play
D:-9-9-9-9---9---9-9-9-9---9---5-5-5-5---5-5-5-5--| three
A:-7-7-7-7---7---7-7-7-7---7---3-3-3-3---5-5-5-5--| times
E:------------------------------------------------|

   E5                          C5        G5  (hold)
e:------------------------------------------------|
B:------------------------------------------------|
G:-9-9-9-9---9---9-9-9-9---9---5-5-5-5---7---7----|
D:-9-9-9-9---9---9-9-9-9---9---5-5-5-5---5---5----|
A:-7-7-7-7---7---7-7-7-7---7---3-3-3-3---5---5----|
E:------------------------------------------------|

TP.

GUNS AT MY SCHOOL  (Mould/Hart/Norton)  [Vocal: Bob]

Intro:

   B5(hold)   D#5(hold)   G#(hold)
e:------------------------------|
B:------------------------------|
G:------------8-----------------|
D:-9----------8-----------6-----|
A:-9----------6-----------6-----|
E:-7----------------------4-----|

   B5      D#5 Bb5   G#5 B5      D#5 Bb5   G#5
e:---------------------|---------------------|-2---------------------|
B:---------------------|---------------------|----2-2-2--2--2--0-----|
G:---------8-----------|---------8-----------|-----------------------|
D:-9-9-9---8---8-8---6-|-9-9-9---8---8-8---6-|---------------------4-|
A:-9-9-9---6---8-8---6-|-9-9-9---6---8-8---6-|-----------------------|
E:-7-7-7-------6-6---4-|-7-7-7-------6-6---4-|-----------------------|

Verse:

   B5            D#5 G#5 B5            D#5 G#5
e:---------------------|---------------------|
B:---------------------|---------------------|
G:---------------8-----|---------------8-----|
D:-9-9-9---9-9---8---6-|-9-9-9---9-9---8---6-|
A:-9-9-9---9-9---6---6-|-9-9-9---9-9---6---6-|
E:-7-7-7---7-7-------4-|-7-7-7---7-7-------4-|
We've got guns at my school,
                         You've got guns at your school

   B5            D#5 G#5       F#5 F
e:---------------------|---------------------|
B:---------------------|-----------1---------|
G:---------------8-----|-------3---2---------|
D:-9-9-9---9-9---8---6-|-6-6---4---3---------|
A:-9-9-9---9-9---6---6-|-6-6---4-------------|
E:-7-7-7---7-7-------4-|-4-4---2-------------|
Guns and knives/taking lives
                         Fuck  you!

Chorus:

   Bb5     F5   D#5 C5   Bb5     F5   D#5 C5
e:---------------------|---------------------|
B:---------------------|---------------------|
G:---------10---8------|---------10---8------|
D:-8-8-8---10---8---10-|-8-8-8---10---8---10-|
A:-8-8-8---8----6---10-|-8-8-8---8----6---10-|
E:-6-6-6------------8--|-6-6-6------------8--|
Every time it's a different story
                         When they come to our territory

   Bb5     F5   D#5 C5   Bb5     F5   D#5 C5
e:---------------------|---------------------|
B:---------------------|---------------------|
G:---------10---8------|---------10---8------|
D:-8-8-8---10---8---10-|-8-8-8---10---8---10-|
A:-8-8-8---8----6---10-|-8-8-8---8----6---10-|
E:-6-6-6------------8--|-6-6-6------------8--|
Is it fun or race relations?

   C5        C#5         D#5       F5          F#5
e:---------------------|---------------------|--------------------------|
B:---------------------|---------------------|--------------------------|
G:-5-5-5-5---6-6-6-6---|-8-8-8-8---10-10-10--|-11-11-11-11--11-11-11-11-|
D:-5-5-5-5---6-6-6-6---|-8-8-8-8---10-10-10--|-11-11-11-11--11-11-11-11-|
A:-3-3-3-3---4-4-4-4---|-6-6-6-6---8--8--8---|-9--9--9--9---9--9--9--9--|
E:---------------------|---------------------|--------------------------|
Guns at my school
             Think that's cool?
                         You like violence?
                                   Think it makes sense?    (Fuck, no).

   B5      D#5 Bb5   G#5 B5      D#5 Bb5   G#5
e:---------------------|---------------------|-2---------------------|
B:---------------------|---------------------|----2-2-2--2--2--0-----|
G:---------8-----------|---------8-----------|-----------------------|
D:-9-9-9---8---8-8---6-|-9-9-9---8---8-8---6-|---------------------4-|
A:-9-9-9---6---8-8---6-|-9-9-9---6---8-8---6-|-----------------------|
E:-7-7-7-------6-6---4-|-7-7-7-------6-6---4-|-----------------------|

Verse:

   B5            D#5 G#5 B5            D#5 G#5
e:---------------------|---------------------|
B:---------------------|---------------------|
G:---------------8-----|---------------8-----|
D:-9-9-9---9-9---8---6-|-9-9-9---9-9---8---6-|
A:-9-9-9---9-9---6---6-|-9-9-9---9-9---6---6-|
E:-7-7-7---7-7-------4-|-7-7-7---7-7-------4-|
We've got guns at my school,
                         You've got guns at your school

   B5            D#5 G#5       F#5 F
e:---------------------|---------------------|
B:---------------------|-----------1---------|
G:---------------8-----|-------3---2---------|
D:-9-9-9---9-9---8---6-|-6-6---4---3---------|
A:-9-9-9---9-9---6---6-|-6-6---4-------------|
E:-7-7-7---7-7-------4-|-4-4---2-------------|
Guns and knives/taking lives
                         Fuck  you!

Chorus:

   Bb5     F5   D#5 C5   Bb5     F5   D#5 C5
e:---------------------|---------------------|
B:---------------------|---------------------|
G:---------10---8------|---------10---8------|
D:-8-8-8---10---8---10-|-8-8-8---10---8---10-|
A:-8-8-8---8----6---10-|-8-8-8---8----6---10-|
E:-6-6-6------------8--|-6-6-6------------8--|
Every time it's a different story
                         When they come to our territory

   Bb5     F5   D#5 C5   Bb5     F5   D#5 C5
e:---------------------|---------------------|
B:---------------------|---------------------|
G:---------10---8------|---------10---8------|
D:-8-8-8---10---8---10-|-8-8-8---10---8---10-|
A:-8-8-8---8----6---10-|-8-8-8---8----6---10-|
E:-6-6-6------------8--|-6-6-6------------8--|
Is it fun or race relations?

   C5        C#5         D#5       F5          F#5
e:---------------------|---------------------|--------------------------|
B:---------------------|---------------------|--------------------------|
G:-5-5-5-5---6-6-6-6---|-8-8-8-8---10-10-10--|-11-11-11-11--11-11-11-11-|
D:-5-5-5-5---6-6-6-6---|-8-8-8-8---10-10-10--|-11-11-11-11--11-11-11-11-|
A:-3-3-3-3---4-4-4-4---|-6-6-6-6---8--8--8---|-9--9--9--9---9--9--9--9--|
E:---------------------|---------------------|--------------------------|
Guns at my school
             Think that's cool?
                         You like violence?
                                   Think it makes sense?    (Fuck, no).

Solo:


e:-2--2--2b3r2---------|-2--2--2b3r2---------|
B:--------------4b5--2-|--------------4b5--2-|
G:---------------------|---------------------|
D:---------------------|---------------------|
A:---------------------|---------------------|
E:---------------------|---------------------|

e:-2--2--2b3r2---------|-0----0--0--0--0----17-0--0--|
B:--------------4b5--2-|-12-b-14r12b14r12---17-14-12-|
G:---------------------|-----------------------------|
D:---------------------|-----------------------------|
A:---------------------|-----------------------------|
E:---------------------|-----------------------------|

e:-2--2--2b3r2---------|-2--2--2b3r2---------|
B:--------------4b5--2-|--------------4b5--2-|
G:---------------------|---------------------|
D:---------------------|---------------------|
A:---------------------|---------------------|
E:---------------------|---------------------|

                         B5  F#5(hold)
e:-2--2--2b3r2---------|---------------------|
B:--------------4b5--2-|---------------------|
G:---------------------|-4-------------------|
D:---------------------|-4---4---------------|
A:---------------------|-2---4---------------|
E:---------------------|-----2---------------|

TP.

PUSH THE BUTTON (Hart/Mould/Norton) [Vocal: Grant]

Chords: E5 X799XX    A5 X779XX    C5 8,10,10,XXX    G5 X,10,12,12,XX

        D5 X577XX    B5 799XXX

Intro:

E5    A5    C5    G5

E5    A5    C5    G5

D5(hold)                        E5  /  /  //
Hear the sirens in the afternoon
D5(hold)                        E5  /  /  //
Enemy missile gonna hit us soon
D5(hold)                        E5  /  /  //
Casualties will be gigantic
D5(hold)                        E5  /  /  //
Run down the street and panic

B5       E5 B5
Push the button
D5               E5
Freak out, overreact
B5       E5 D5
Push the button
D5              E5
Attack Attack Attack

D5(hold)                        E5  /  /  //
Living underground is no fun
D5(hold)                        E5  /  /  //
Can't talk to anyone
D5(hold)                        E5  /  /  //
Ain't got no outside influence
D5(hold)                        E5  /  /  //
Staying alive by civil defense

B5       E5 B5
Push the button
D5               E5
Freak out, overreact
B5       E5 D5
Push the button
D5              E5
Attack Attack Attack

Solo(not tabbed) over:

E5    A5    C5    G5           E5    A5    C5    G5

E5    A5    C5    G5           E5    A5    C5    G5

D5(hold)                        E5  /  /  //
Turn your TV to a defense station
D5(hold)                        E5  /  /  //
They'll provide emergency information
D5(hold)                        E5  /  /  //
Hide in a cave if you know what's best
D5(hold)                        E5  /  /  //
Announcer says, "No, this is not a test"

E5   B5 D5 E5 B5 D5    E5   B5 D5 E5 B5 D5
Life is so he-ct-ic,   Life is so he-ct-ic,
E5   B5 D5 E5 B5 D5    E5   B5 D5 E5 B5 D5
Life is so he-ct-ic,   Life is so he-ct-ic,
E5   B5 D5 E5 B5 D5    E5   B5 D5 E5 B5 D5
Life is so he-ct-ic,   Life is so he-ct-ic,
E5   B5 D5 E5 B5 D5    E5   B5 D5 E5 B5 D5
Life is so he-ct-ic,   Life is so he-ct-ic,
E5   B5 D5 E5 B5 D5    E5   B5 D5 E5 B5 D5
Life is so he-ct-ic,   Life is so he-ct-ic,
E5   B5 D5 E5 B5 D5    E5   B5 D5 E5 B5 D5
Life is so he-ct-ic,   Life is so he-ct-ic,

E5(hold)

TP.

GILLIGAN'S ISLAND (Hart/Mould/Norton) [Vocal: Grant]

Intro (Play four times):

   G5      F#5     E5              G5      F#5     E5
e:-------------------------------|-------------------------------|
B:-8---8---7-7-7---5---5---5-5-5-|-8---8---7-7-7---5---5---5-5-5-|
G:-7---7---6-6-6---4---4---4-4-4-|-7---7---6-6-6---4---4---4-4-4-|
D:-5---5---4-4-4---2---2---2-2-2-|-5---5---4-4-4---2---2---2-2-2-|
A:-------------------------------|-------------------------------|
E:-------------------------------|-------------------------------|

Verse:

   G5      F#5     E5              G5      F#5     E5
e:-------------------------------|-------------------------------|
B:-8---8---7-7-7---5---5---5-5-5-|-8---8---7-7-7---5---5---5-5-5-| Play
G:-7---7---6-6-6---4---4---4-4-4-|-7---7---6-6-6---4---4---4-4-4-| four
D:-5---5---4-4-4---2---2---2-2-2-|-5---5---4-4-4---2---2---2-2-2-| times
A:-------------------------------|-------------------------------|
E:-------------------------------|-------------------------------|
    Gilligan's Island              Is where I wanna be
    I wanna fuck Ginger            Underneath a big palm tree
    I wanna make the professor     Make some good drugs for me
    Oh Gilligan's Island           Is where I wanna be

Solo (not tabbed) over:

   E5              D5        E5              D5        E5              D5
e:-------------------------|-------------------------|-------------------------|
B:-------------------------|-------------------------|-------------------------|
G:-9---9---9---9---7---7-7-|-9---9---9---9---7---7-7-|-9---9---9---9---7---7-7-|
D:-9---9---9---9---7---7-7-|-9---9---9---9---7---7-7-|-9---9---9---9---7---7-7-|
A:-7---7---7---7---5---5-5-|-7---7---7---7---5---5-5-|-7---7---7---7---5---5-5-|
E:-------------------------|-------------------------|-------------------------|

   G5   F#5  D#5 E5          G5   F#5  D#5 E5
e:-------------------------|-------------------------|
B:-------------------------|-------------------------|
G:-12---11---8-/-9---9-9---|-12---11---8-/-9---9-9---|
D:-12---11---8-/-9---9-9---|-12---11---8-/-9---9-9---|
A:-10---9----6-/-7---7-7---|-10---9----6-/-7---7-7---|
E:-------------------------|-------------------------|

   G5    F#5    E5           G5    F#5    E5           G5    F#5    E5
e:-------------------------|-------------------------|-------------------------|
B:-8--8--7-7-7--5-5--5-5-5-|-8--8--7-7-7--5-5--5-5-5-|-8--8--7-7-7--5-5--5-5-5-|
G:-7--7--6-6-6--4-4--4-4-4-|-7--7--6-6-6--4-4--4-4-4-|-7--7--6-6-6--4-4--4-4-4-|
D:-5--5--4-4-4--2-2--2-2-2-|-5--5--4-4-4--2-2--2-2-2-|-5--5--4-4-4--2-2--2-2-2-|
A:-------------------------|-------------------------|-------------------------|
E:-------------------------|-------------------------|-------------------------|

   G5   F#5  D#5 E5          G5   F#5  D#5 E5
e:-------------------------|-------------------------|
B:-------------------------|-------------------------|
G:-12---11---8-/-9---9-9---|-12---11---8-/-9---9-9---|
D:-12---11---8-/-9---9-9---|-12---11---8-/-9---9-9---|
A:-10---9----6-/-7---7-7---|-10---9----6-/-7---7-7---|
E:-------------------------|-------------------------|

   G5    F#5    E5           G5    F#5    E5           G5    F#5    E5
e:-------------------------|-------------------------|-------------------------|
B:-8--8--7-7-7--5-5--5-5-5-|-8--8--7-7-7--5-5--5-5-5-|-8--8--7-7-7--5-5--5-5-5-|
G:-7--7--6-6-6--4-4--4-4-4-|-7--7--6-6-6--4-4--4-4-4-|-7--7--6-6-6--4-4--4-4-4-|
D:-5--5--4-4-4--2-2--2-2-2-|-5--5--4-4-4--2-2--2-2-2-|-5--5--4-4-4--2-2--2-2-2-|
A:-------------------------|-------------------------|-------------------------|
E:-------------------------|-------------------------|-------------------------|

   G5   F#5  D#5 E5          G5   F#5  D#5 E5
e:-------------------------|-------------------------|
B:-------------------------|-------------------------|
G:-12---11---8-/-9---9-9---|-12---11---8-/-9---9-9---|
D:-12---11---8-/-9---9-9---|-12---11---8-/-9---9-9---|
A:-10---9----6-/-7---7-7---|-10---9----6-/-7---7-7---|
E:-------------------------|-------------------------|

   E5              D5        E5              D5        E5              D5
e:-------------------------|-------------------------|-------------------------|
B:-------------------------|-------------------------|-------------------------|
G:-9---9---9---9---7---7-7-|-9---9---9---9---7---7-7-|-9---9---9---9---7---7-7-|
D:-9---9---9---9---7---7-7-|-9---9---9---9---7---7-7-|-9---9---9---9---7---7-7-|
A:-7---7---7---7---5---5-5-|-7---7---7---7---5---5-5-|-7---7---7---7---5---5-5-|
E:-------------------------|-------------------------|-------------------------|

   G5   F#5  D#5 E5          G5   F#5  D#5 E5
e:-------------------------|-------------------------|
B:-------------------------|-------------------------|
G:-12---11---8-/-9---9-9---|-12---11---8-/-9---9-9---|
D:-12---11---8-/-9---9-9---|-12---11---8-/-9---9-9---|
A:-10---9----6-/-7---7-7---|-10---9----6-/-7---7-7---|
E:-------------------------|-------------------------|

   E5              D5        E5              D5        E5              D5
e:-------------------------|-------------------------|-------------------------|
B:-------------------------|-------------------------|-------------------------|
G:-9---9---9---9---7---7-7-|-9---9---9---9---7---7-7-|-9---9---9---9---7---7-7-|
D:-9---9---9---9---7---7-7-|-9---9---9---9---7---7-7-|-9---9---9---9---7---7-7-|
A:-7---7---7---7---5---5-5-|-7---7---7---7---5---5-5-|-7---7---7---7---5---5-5-|
E:-------------------------|-------------------------|-------------------------|

   G5   F#5  D#5 E5          G5   F#5  D#5 E5
e:-------------------------|-------------------------|
B:-------------------------|-------------------------|
G:-12---11---8-/-9---9-9---|-12---11---8-/-9---9-9---|
D:-12---11---8-/-9---9-9---|-12---11---8-/-9---9-9---|
A:-10---9----6-/-7---7-7---|-10---9----6-/-7---7-7---|
E:-------------------------|-------------------------|

   G5    F#5    E5           G5    F#5    E5           G5    F#5    E5
e:-------------------------|-------------------------|-------------------------|
B:-8--8--7-7-7--5-5--5-5-5-|-8--8--7-7-7--5-5--5-5-5-|-8--8--7-7-7--5-5--5-5-5-|
G:-7--7--6-6-6--4-4--4-4-4-|-7--7--6-6-6--4-4--4-4-4-|-7--7--6-6-6--4-4--4-4-4-|
D:-5--5--4-4-4--2-2--2-2-2-|-5--5--4-4-4--2-2--2-2-2-|-5--5--4-4-4--2-2--2-2-2-|
A:-------------------------|-------------------------|-------------------------|
E:-------------------------|-------------------------|-------------------------|

   G5   F#5  D#5 E5          G5   F#5  D#5 E5
e:-------------------------|-------------------------|
B:-------------------------|-------------------------|
G:-12---11---8-/-9---9-9---|-12---11---8-/-9---9-9---|
D:-12---11---8-/-9---9-9---|-12---11---8-/-9---9-9---|
A:-10---9----6-/-7---7-7---|-10---9----6-/-7---7-7---|
E:-------------------------|-------------------------|

   G5   F#5  D#5 E5          B5  D#5 E5
e:-------------------------|-------------------------|
B:-------------------------|-------------------------|
G:-12---11---8-/-9---9-9---|-----8---9---------------|
D:-12---11---8-/-9---9-9---|-9---8---9---------------|
A:-10---9----6-/-7---7-7---|-9---6---7---------------|
E:-------------------------|-7-----------------------|

TP.

MTC (Norton/Hart/Mould) [Vocal: Greg]

Chords: B5 799XXX    A5 577XXX    E5 079900    G5 355XXX

Intro:

Finger B5 but don't fret, then strum madly...

B5    A5    E5

B5    A5    E5

B5   ///  /        A5   //
Gotta gotta go now
A5   ///           B5 E5//
Gotta keep a date
B5   ///  /        A5   //
Be at the corner
A5   ///           B5 E5//
Mistake to be late
B5   ///  /        A5   //
Half block away now
A5   ///           B5 E5//
Bus is at the light
B5   ///  /        A5   //
Driver's grinning madly
A5   ///           B5 E5//
It's a run for your life

G5   A5  B5
MTC, MTC You did it again, you did it to me
G5   A5  B5
MTC, MTC You did it again, you did it to me

B5   ///  /        A5   //
Getting on the bus now
A5   ///           B5 E5//
Throw away your change
B5   ///  /        A5   //
Don't forget your transfer
A5   ///           B5 E5//
Driver's acting strange
B5   ///  /        A5   //
Bus is really crowded
A5   ///           B5 E5//
Can't find a seat
B5   ///  /        A5   //
Going real fast
A5   ///           B5 E5//
Gonna crash in the street

G5   A5  B5
MTC, MTC You did it again, you did it to me
G5   A5  B5
MTC, MTC You did it again, you did it to me

Solo (not tabbed) over:

B5  /  /  /  A5 /
A5  /  /     B5 E5 / /
B5  /  /  /  A5 /
A5  /  /     B5 E5 / /

B5   ///  /        A5   //
Picking up the pieces
A5   ///           B5 E5//
In a fight that never ends
B5   ///  /        A5   //
Getting away this time
A5   ///           B5 E5//
I know we'll meet again

G5   A5  B5
MTC, MTC You did it again, you did it to me
G5   A5  B5
MTC, MTC You did it again, you did it to me
G5   A5  B5
MTC, MTC You did it again, you did it to me
G5   A5  B5(hold)
MTC, MTC

TP.

DON'T HAVE A LIFE (Norton/Mould/Hart) [Vocal: Greg]

Intro:

e:-0----0----0----0--0--0--0-0--10--10-|
B:-10---10---10---10-8--10-8-8--8---8--| Play
G:-------------------------------------| four
D:-------------------------------------| times
A:-------------------------------------|
E:-------------------------------------|

Verse 1:

e:-0----0--0-0----11---10-10---0----0--|-0----0--0-0----11---10-10---0----0--|
B:-10---10-8-10---10---10-10---10---10-|-10---10-8-10---10---10-10---10---10-|
G:-------------------------------------|-------------------------------------|
D:-------------------------------------|-------------------------------------|
A:-------------------------------------|-------------------------------------|
E:-------------------------------------|-------------------------------------|
Don't have a life, that I wanna live with you
                                   There's a thousand things that I'd rather do

e:-0----0--0-0----11---10-10---0----0--|-0----0--0--0----0---0-0---10-10-10--|
B:-10---10-8-10---10---10-10---10---10-|-10---10-10-10---8---8-8---10-10-10--|
G:-------------------------------------|-------------------------------------|
D:-------------------------------------|-------------------------------------|
A:-------------------------------------|-------------------------------------|
E:-------------------------------------|-------------------------------------|
It's my life, told you there's none for you
                                        Just let me be       you jam my groove

e:-0----0--0-0----0--0-0----10---10----|-0----0---0---0--0--0--0-0--10---10--|
B:-10---10-8-10---10-8-10---10---10----|-10---10--10--10-8--10-8-8--8----8---|
G:-------------------------------------|-------------------------------------|
D:-------------------------------------|-------------------------------------|
A:-------------------------------------|-------------------------------------|
E:-------------------------------------|-------------------------------------|
   Don't have a life

Verse 2:

e:-0----0--0-0----11---10-10---0----0--|-0----0--0-0----11---10-10---0----0--|
B:-10---10-8-10---10---10-10---10---10-|-10---10-8-10---10---10-10---10---10-|
G:-------------------------------------|-------------------------------------|
D:-------------------------------------|-------------------------------------|
A:-------------------------------------|-------------------------------------|
E:-------------------------------------|-------------------------------------|
Don't have a life, that I wanna live with you
                              Every time I see you, you're always down and blue

e:-0----0--0-0----11---10-10---0----0--|-0----0--0--0----0---0-0---10-10-10--|
B:-10---10-8-10---10---10-10---10---10-|-10---10-10-10---8---8-8---10-10-10--|
G:-------------------------------------|-------------------------------------|
D:-------------------------------------|-------------------------------------|
A:-------------------------------------|-------------------------------------|
E:-------------------------------------|-------------------------------------|
You hide in yourself but that's nothing new
                                         Sorry but I don't have room for you

e:-0----0--0-0----0--0-0----10---10----|-0----0---0---0--0--0--0-0--10---10--|
B:-10---10-8-10---10-8-10---10---10----|-10---10--10--10-8--10-8-8--8----8---|
G:-------------------------------------|-------------------------------------|
D:-------------------------------------|-------------------------------------|
A:-------------------------------------|-------------------------------------|
E:-------------------------------------|-------------------------------------|

Verse 3:

e:-0---0--0-0---11--10-10---11---10-10-|-0---0--0-0---11--10-10---11---10-10-|
B:-10--10-8-10--10--10-10---10---10-10-|-10--10-8-10--10--10-10---10---10-10-|
G:-------------------------------------|-------------------------------------|
D:-------------------------------------|-------------------------------------|
A:-------------------------------------|-------------------------------------|
E:-------------------------------------|-------------------------------------|
Don't have a life that I wanna live with you
                                        It's wild now, with you it'd be a zoo

e:-0---0--0-0---11--10-10---11---10-10-|-0---0--0-0---11--10-10---11---10-10-|
B:-10--10-8-10--10--10-10---10---10-10-|-10--10-8-10--10--10-10---10---10-10-|
G:-------------------------------------|-------------------------------------|
D:-------------------------------------|-------------------------------------|
A:-------------------------------------|-------------------------------------|
E:-------------------------------------|-------------------------------------|
It's my life, told you there's none for you
                                         Just let me be      you jam my groove

Break:

e:-0-----0-----0-----0-0-0-0-----0-----|-0---0---0---0--0---0--0-0---10---10-|
B:-5-----5-----5-----5-6-6/9-----10----|-10--10--10--10-8---10-8-8---8----8--|
G:-------------------------------------|-------------------------------------|
D:-------------------------------------|-------------------------------------|
A:-------------------------------------|-------------------------------------|
E:-------------------------------------|-------------------------------------|

Verse 4:

e:-0---11-11-0---0--0---0--0--0--0--0--|-0---11-11-0---0--0---0--0--0--0--0--|
B:-10--10-10-10--10-10--10-8--10-10-8--|-10--10-10-10--10-10--10-8--10-10-8--|
G:-------------------------------------|-------------------------------------|
D:-------------------------------------|-------------------------------------|
A:-------------------------------------|-------------------------------------|
E:-------------------------------------|-------------------------------------|
Don't have a life that I wanna live with you
                              This is getting strange what're you trying to do?

e:-0----0--0-0----0--0-0----10---10----|-0----0--0-0----0--0-0----10---10----|
B:-10---10-8-10---10-8-10---10---10----|-10---10-8-10---10-8-10---10---10----|
G:-------------------------------------|-------------------------------------|
D:-------------------------------------|-------------------------------------|
A:-------------------------------------|-------------------------------------|
E:-------------------------------------|-------------------------------------|
  Told you there's none for you          Just let me be  you only jam my groove

e:-0----0--0-0----0--0-0----10---10----|-0----0--0-0----0--0-0----10---10----|
B:-10---10-8-10---10-8-10---10---10----|-10---10-8-10---10-8-10---10---10----|
G:-------------------------------------|-------------------------------------|
D:-------------------------------------|-------------------------------------|
A:-------------------------------------|-------------------------------------|
E:-------------------------------------|-------------------------------------|
   Don't have a life                     Don't have a life

Break:

e:-0---0-0-0---0----10-10--|-0---0-0-0---0----10-10--|
B:-5---3-5-3---10---10-10--|-5---3-5-3---10---10-10--|
G:-------------------------|-------------------------|
D:-------------------------|-------------------------|
A:-------------------------|-------------------------|
E:-------------------------|-------------------------|


e:-0----0--0----0--0----0--|-0----0--0----0--0----0--|
B:-10-p-8--10-p-8--10-p-8--|-10-p-8--10-p-8--10-p-8--|
G:-------------------------|-------------------------|
D:-------------------------|-------------------------|
A:-------------------------|-------------------------|
E:-------------------------|-------------------------|

                                           (harmonics)
e:-------------------------|------------0------------|
B:-------------------------|--3---5-----5------------|
G:---------------0---2---4-|--------0-------5*-------|
D:---------2-2-------------|----------------5*-------|
A:-------------------------|-------------------------|
E:-0-0-0-------------------|-------------------------|

Repeat Intro:

e:-0----0----0----0--0--0--0-0--10--10-|
B:-10---10---10---10-8--10-8-8--8---8--| Play
G:-------------------------------------| four
D:-------------------------------------| times
A:-------------------------------------|
E:-------------------------------------|


Repeat Verse 1:

e:-14--14-12-14--12--12-12--12--12-12--|-14--14-12-14--12--12-12--12--12-12--|
B:-12--12-12-12--12--10-10--12--10-10--|-12--12-12-12--12--10-10--12--10-10--|
G:-------------------------------------|-------------------------------------|
D:-------------------------------------|-------------------------------------|
A:-------------------------------------|-------------------------------------|
E:-------------------------------------|-------------------------------------|
E:-------------------------------------|-------------------------------------|
Don't have a life, that I wanna live with you
                                   There's a thousand things that I'd rather do

e:-14--14-12-14--12--12-12--12--12-12--|-14--14-12-14--12--12-12--12--12-12--|
B:-12--12-12-12--12--10-10--12--10-10--|-12--12-12-12--12--10-10--12--10-10--|
G:-------------------------------------|-------------------------------------|
D:-------------------------------------|-------------------------------------|
A:-------------------------------------|-------------------------------------|
E:-------------------------------------|-------------------------------------|
E:-------------------------------------|-------------------------------------|
It's my life, told you there's none for you
                                        Just let me be       you jam my groove

e:-14--14-12-14--12--12-12--12--12-12--|-14--14-12-14--12--12-12--12--12-12--|
B:-12--12-12-12--12--10-10--12--10-10--|-12--12-12-12--12--10-10--12--10-10--|
G:-------------------------------------|-------------------------------------|
D:-------------------------------------|-------------------------------------|
A:-------------------------------------|-------------------------------------|
E:-------------------------------------|-------------------------------------|
E:-------------------------------------|-------------------------------------|
   Don't have a life                     Don't have a life

e:-14--14-12-14--12--12-12--12--12-12--|-14--14-12-14--12--12-12--12--12-12--|
B:-12--12-12-12--12--10-10--12--10-10--|-12--12-12-12--12--10-10--12--10-10--|
G:-------------------------------------|-------------------------------------|
D:-------------------------------------|-------------------------------------|
A:-------------------------------------|-------------------------------------|
E:-------------------------------------|-------------------------------------|
E:-------------------------------------|-------------------------------------|
   Don't have a life                     Don't have a life

e:-0----0--0----0----10-10---0----0----|-0----0--0----0----10-10---0----0----|
B:-17---15-17---10---10-10---15---15---|-17---15-17---10---10-10---15---15---|
G:-------------------------------------|-------------------------------------|
D:-------------------------------------|-------------------------------------|
A:-------------------------------------|-------------------------------------|
E:-------------------------------------|-------------------------------------|

e:-0----0--0----0----0-10---|-0----0--0----0----0-10---|
B:-17---15-17---10-----10---|-17---15-17---10-----10---|
G:--------------------------|--------------------------|
D:--------------------------|--------------------------|
A:--------------------------|--------------------------|
E:--------------------------|--------------------------|

e:-14-14-14-14--14-14-14-14--|-14-14-14-14--14-14-14-14--|
B:-16-16-16-16--16-16-16-16--|-16-16-16-16--16-16-16-16--|
G:---------------------------|---------------------------|
D:---------------------------|---------------------------|
A:---------------------------|---------------------------|
E:---------------------------|---------------------------|
Leave me be please
                Leave me be please
                               Leave me be please
                                            Leave me be please

e:-15-15-15-15--15-15-15-15--|-15-15-15-15--15-15-15-15--|
B:-17-17-17-17--17-17-17-17--|-17-17-17-17--17-17-17-17--|
G:---------------------------|---------------------------|
D:---------------------------|---------------------------|
A:---------------------------|---------------------------|
E:---------------------------|---------------------------|
Leave me be please
                Leave me be please
                               Leave me be please
                                            Leave me be please

e:-16-16-16-16--17-17-17-17--|-18-18-18-18--19-19-19-19--|
B:-18-18-18-18--19-19-19-19--|-20-20-20-20--21-21-21-21--|
G:---------------------------|---------------------------|
D:---------------------------|---------------------------|
A:---------------------------|---------------------------|
E:---------------------------|---------------------------|
   Leave me

e:-20-20-20-20--21-21-21-21--22-22-22-22-\--|
B:-22-22-22-22---------------------------\--|
G:------------------------------------------|
D:------------------------------------------|
A:------------------------------------------|
E:------------------------------------------|
   PLEASE       LEAVE        ME...

TP.

BRICKLAYER (Bob Mould)

Intro:

   E(hold)     Dsus2
e:-----------------0---0-0-0-0---0-0-0-0---0-0-0-0---0-0-0-0---------|
B:-----------------3---3-3-3-3---3-3-3-3---3-3-3-3---3-3-3-3---------|
G:-1-1---------2-2-2---2-2-2-2---2-2-2-2---2-2-2-2---2-2-2-2---------|
D:-0-2---------0-0-0---0-0-0-0---0-0-0-0---0-0-0-0---0-0-0-0---------|
A:-0-2---------0-0-0---0-0-0-0---0-0-0-0---0-0-0-0---0-0-0-0---------|
E:-------------------------------------------------------------------|

   D5    E5  B5    C5   G5    G#5 Bb5   C5      D5    F5   C5
e:-------------------------------------------------------------------|
B:-------------------------------------------------------------------|
G:-7-7---9--------------------------------------7-7---10-------------|
D:-7-7---9---9-9---10---5-5---6---8-8---10-10---7-7---10---10---10---|
A:-5-5---7---9-9---10---5-5---6---8-8---10-10---5-5---8----10---10---|
E:-----------7-7---8----3-3---4---6-6---8--8---------------8----8----|
   Brick on the head from the top of the ceiling urban sniper, urban killer
   won't be finished until you're dead

   C5      E5      Bb5    C5     D5    E5  B5    C5
e:-----------------------------|---------------------------|
B:-----------------------------|---------------------------|
G:-----------------------------|-7-7---9-------------------|
D:-10-10-/-14-14-\-8-8----10---|-7-7---9---9-9---10--------|
A:-10-10-/-14-14-\-8-8----10---|-5-5---7---9-9---10--------|
E:-8--8--/-12-12-\-6-6----8----|-----------7-7---8---------|
   urban sniper, urban killer    brick out the window, top of the head

   C5      D#5     Bb5   A5      C5 D#5       Bb5   C5
e:-----------------------------|---------------------------|
B:-----------------------------|---------------------------|
G:-----------------------------|---------------------------|
D:-10-10---13-13---8-8---7---7-|-10/13---13---8-8---10-----|
A:-10-10---13-13---8-8---7---7-|-10/13---13---8-8---10-----|
E:-8--8----11-11---6-6---5---5-|-8-/11---11---6-6---8------|
brick on the head, cause you're a fuckhead brick at the window, top of my head
you're a fuckhead

   C5      B5 A5 F#(hold)
e:--------------------------------|
B:---------------7----------------|
G:---------------6----------------|
D:-10-10---9--7--4----------------|
A:-10-10---9--7--4----------------|
E:-8--8----7--5-------------------|

Solo (fast):

e:-2---2h3p2---2---3---3h5p3---5-5---6-6---8--10--10p0--6p0--4p0--2p0---0---0-|
B:-2---2-2-2---2---3---3-3-3---5-5---6-6---8--10--10p0--6p0--4p0--2p0---0---0-|
G:----------------------------------------------------------------------------|
D:----------------------------------------------------------------------------|
A:----------------------------------------------------------------------------|
E:----------------------------------------------------------------------------|
   You're a fuckhead

   D5    E5  B5    C5   G5    G#5 Bb5   C5      D5    F5   C5
e:-------------------------------------------------------------------|
B:-------------------------------------------------------------------|
G:-7-7---9--------------------------------------7-7---10-------------|
D:-7-7---9---9-9---10---5-5---6---8-8---10-10---7-7---10---10---10---|
A:-5-5---7---9-9---10---5-5---6---8-8---10-10---5-5---8----10---10---|
E:-----------7-7---8----3-3---4---6-6---8--8---------------8----8----|
   Brick on the head from the top of the ceiling urban sniper, urban killer
   won't be finished until you're dead

   C5      E5      Bb5    C5     D5    E5  B5    C5
e:-----------------------------|---------------------------|
B:-----------------------------|---------------------------|
G:-----------------------------|-7-7---9-------------------|
D:-10-10-/-14-14-\-8-8----10---|-7-7---9---9-9---10--------|
A:-10-10-/-14-14-\-8-8----10---|-5-5---7---9-9---10--------|
E:-8--8--/-12-12-\-6-6----8----|-----------7-7---8---------|
   urban sniper, urban killer    brick out the window, top of the head

   C5      D#5     Bb5   A5      C5 D#5       Bb5   C5
e:-----------------------------|---------------------------|
B:-----------------------------|---------------------------|
G:-----------------------------|---------------------------|
D:-10-10---13-13---8-8---7---7-|-10/13---13---8-8---10-----|
A:-10-10---13-13---8-8---7---7-|-10/13---13---8-8---10-----|
E:-8--8----11-11---6-6---5---5-|-8-/11---11---6-6---8------|
brick on the head, cause you're a fuckhead brick at the window, top of my head
you're a fuckhead

   C5      B5 A5 F#(hold)
e:--------------------------------|
B:---------------7----------------|
G:---------------6----------------|
D:-10-10---9--7--4----------------|
A:-10-10---9--7--4----------------|
E:-8--8----7--5-------------------|

Solo (fast):

e:-2---2h3p2---2---3---3h5p3---5-5---6-6---8--10--10p0--6p0--4p0--2p0---0---0-|
B:-2---2-2-2---2---3---3-3-3---5-5---6-6---8--10--10p0--6p0--4p0--2p0---0---0-|
G:----------------------------------------------------------------------------|
D:----------------------------------------------------------------------------|
A:----------------------------------------------------------------------------|
E:----------------------------------------------------------------------------|
   You're a fuckhead

e:-2p0--4p0--6p0--8p0--8p0--8p0--8p0--10--10p0--6p0--4p0--2p0--0--0--2p0--2p0-|
B:-2p0--4p0--6p0--8p0--8p0--8p0--8p0--10--10p0--6p0--4p0--2p0--0--0--2p0--2p0-|
G:----------------------------------------------------------------------------|
D:----------------------------------------------------------------------------|
A:----------------------------------------------------------------------------|
E:----------------------------------------------------------------------------|

                                                                     (hold)
e:-------------------------------------------2-2-------2-/-14-\-2---3-3-------|
B:-------------------------------------------2-2-------2-/-14-\-2---3-3-------|
G:-8-8---5-5---10--\---8-8---5-5---10--\-----------4--------------------------|
D:-8-8---5-5---10--\---8-8---5-5---10--\--------------------------------------|
A:-6-6---3-3---8---\---6-6---3-3---8---\--------------------------------------|
E:----------------------------------------------------------------------------|


TP.

TIRED OF DOING THINGS (Mould/Hart/Norton) [Vocal: All]

Intro:

   B5          E5              B5          E5
e:---------------------------|---------------------------|
B:-------------4-b-5---4-b-5-|-------------4-b-5---4-b-5-|
G:-4-------4-----------------|-4-------4-----------------|
D:-----2---------------------|-----2---------------------|
A:---------------------------|---------------------------|
E:---------------------------|---------------------------|

   B5          E5(hold)        B5          E5
e:---------------------------|---------------------------|
B:-------------5-------------|---------------------------|
G:-4-------4---4-------------|-4-------4---4-------4-----|
D:-----2---------------------|-----2-----------2---------|
A:---------------------------|---------------------------|
E:---------------------------|---------------------------|

   G5          F#5         E5
e:-----------------------|-----------------------|
B:-8-8-8-8-----7-7-7-7---|-5-5-5-5-----5-5-5-5---| Play
G:-7-7-7-7-----6-6-6-6---|-4-4-4-4-----4-4-4-4---| four
D:-----------------------|-----------------------| times
A:-----------------------|-----------------------|
E:-----------------------|-----------------------|
I'm tired of doing things your way, your way, your way

   B5          E5              B5          E5
e:---------------------------|---------------------------|
B:-------------4-b-5---4-b-5-|-------------4-b-5---4-b-5-|
G:-4-------4-----------------|-4-------4-----------------|
D:-----2---------------------|-----2---------------------|
A:---------------------------|---------------------------|
E:---------------------------|---------------------------|

   B5          E5              E5
e:---------------------------|---------------------------|
B:-----------------5---5-----|-5---5---5-5---5-5-5-------|
G:-4-------4-------4---4-----|-4---4---4-4---4---4-------|
D:-----2-------2-------------|-2---2---2-2---------------|
A:---------------------------|---------------------------|
E:---------------------------|---------------------------|

   G5          F#5         E5
e:-----------------------|-----------------------|
B:-8-8-8-8-----7-7-7-7---|-5-5-5-5-----5-5-5-5---| Play
G:-7-7-7-7-----6-6-6-6---|-4-4-4-4-----4-4-4-4---| four
D:-----------------------|-----------------------| times
A:-----------------------|-----------------------|
E:-----------------------|-----------------------|
I'm tired of doing things your way, your way, your way


e:-7-7-7--------------------|-7-7-7--------------------|
B:-5-5-5--------------------|-5-5-5--------------------|
G:----------7---9---7/9-----|----------7---9---7/9-----|
D:----------7---9---7/9-----|----------7---9---7/9-----|
A:--------------------------|--------------------------|
E:--------------------------|--------------------------|

   E5             G5          E5        G5
e:-0---0-0--------0---0-0---|-0---0-0---3--------------|
B:-5---5-5--------8---8-8---|-5---5-5---3--------------|
G:-4---4-4--------7---7-7---|-4---4-4---0--------------|
D:--------------------------|--------------------------|
A:--------------------------|--------------------------|
E:--------------------------|--------------------------|

   G5          F#5         E5
e:-----------------------|-----------------------|
B:-8-8-8-8-----7-7-7-7---|-5-5-5-5-----5-5-5-5---| Play
G:-7-7-7-7-----6-6-6-6---|-4-4-4-4-----4-4-4-4---| three
D:-----------------------|-----------------------| times
A:-----------------------|-----------------------|
E:-----------------------|-----------------------|
I'm tired of doing things your way, your way, your way

   G5          F#5         E5(hold)
e:-----------------------|-----------------------|
B:-8-8-8-8-----7-7-7-7---|-5---------------------|
G:-7-7-7-7-----6-6-6-6---|-4---------------------|
D:-----------------------|-2---------------------|
A:-----------------------|-2---------------------|
E:-----------------------|-----------------------|
I'm tired of doing things your way, your way, your way

TP.

YOU'RE NAIVE  (Mould/Hart/Norton) [Vocal: Bob]

Intro:

   A5    C5    A5  F5    A5    C5    A5  F5
e:---------------------|---------------------|
B:-----------------6---|-----------------6---|
G:-2-2---5-5---2---5---|-2-2---5-5---2---5---|
D:-2-2---5-5---2---3---|-2-2---5-5---2---3---|
A:-0-0---3-3---0---3---|-0-0---3-3---0---3---|
E:---------------------|---------------------|

   A5    C5    A5  F5    A5(hold)
e:---------------------|---------------------|
B:-----------------6---|---------------------|
G:-2-2---5-5---2---5---|-2-------------------|
D:-2-2---5-5---2---3---|-2-------------------|
A:-0-0---3-3---0---3---|-0-------------------|
E:---------------------|---------------------|

Verse:

   A5    C5    A5  F5    A5    C5    A5  F5
e:---------------------|---------------------|
B:-----------------6---|-----------------6---|
G:-2-2---5-5---2---5---|-2-2---5-5---2---5---|
D:-2-2---5-5---2---3---|-2-2---5-5---2---3---|
A:-0-0---3-3---0---3---|-0-0---3-3---0---3---|
E:---------------------|---------------------|
Here we go with politics
                         It's so fucked, it makes me sick

   A5    C5    A5  F5    A5(hold)
e:---------------------|---------------------|
B:-----------------6---|---------------------|
G:-2-2---5-5---2---5---|-2-------------------|
D:-2-2---5-5---2---3---|-2-------------------|
A:-0-0---3-3---0---3---|-0-------------------|
E:---------------------|---------------------|
He's a socialist, you're just thick

   C5        G5          C5        G5
e:---------------------|---------------------|
B:---------------------|---------------------|
G:-5-5-5-5-------------|-5-5-5-5-------------|
D:-5-5-5-5---5-5-5-5---|-5-5-5-5---5-5-5-5---|
A:-3-3-3-3---5-5-5-5---|-3-3-3-3---5-5-5-5---|
E:-----------3-3-3-3---|-----------3-3-3-3---|
Tell me you're an anarchist
                         What's that swastika in your fist

   D5                             Bb5
e:--------------------|--------------------|
B:--------------------|--------------------|
G:-7-7-7-----7-7-7----|-7-7-7--------------|
D:-7-7-7-----7-7-7----|-7-7-7-----8-8-8----|
A:-5-5-5-----5-5-5----|-5-5-5-----8-8-8----|
E:--------------------|-----------6-6-6----|
You're naive, you're naive
                        You don't know who to believe

   D5                             Bb5
e:--------------------|--------------------|
B:--------------------|--------------------|
G:-7-7-7-----7-7-7----|-7-7-7--------------|
D:-7-7-7-----7-7-7----|-7-7-7-----8-8-8----|
A:-5-5-5-----5-5-5----|-5-5-5-----8-8-8----|
E:--------------------|-----------6-6-6----|

   B5
e:--------------------|--------------------|
B:--------------------|--------------------|
G:-4-4-4-4---4-4-4-4--|-4-\-2--------------|
D:-4-4-4-4---4-4-4-4--|-4-\-2--------------|
A:-2-2-2-2---2-2-2-2--|-2------------------|
E:--------------------|--------------------|

   A5    C5    A5  F5    A5    C5    A5  F5
e:---------------------|---------------------|
B:-----------------6---|-----------------6---|
G:-2-2---5-5---2---5---|-2-2---5-5---2---5---|
D:-2-2---5-5---2---3---|-2-2---5-5---2---3---|
A:-0-0---3-3---0---3---|-0-0---3-3---0---3---|
E:---------------------|---------------------|

   A5    C5    A5  F5    A5(hold)
e:---------------------|---------------------|
B:-----------------6---|---------------------|
G:-2-2---5-5---2---5---|-2-------------------|
D:-2-2---5-5---2---3---|-2-------------------|
A:-0-0---3-3---0---3---|-0-------------------|
E:---------------------|---------------------|

Verse:

   A5    C5    A5  F5    A5    C5    A5  F5
e:---------------------|---------------------|
B:-----------------6---|-----------------6---|
G:-2-2---5-5---2---5---|-2-2---5-5---2---5---|
D:-2-2---5-5---2---3---|-2-2---5-5---2---3---|
A:-0-0---3-3---0---3---|-0-0---3-3---0---3---|
E:---------------------|---------------------|
Here we go with politics
                         It's so fucked, it makes me sick

   A5    C5    A5  F5    A5(hold)
e:---------------------|---------------------|
B:-----------------6---|---------------------|
G:-2-2---5-5---2---5---|-2-------------------|
D:-2-2---5-5---2---3---|-2-------------------|
A:-0-0---3-3---0---3---|-0-------------------|
E:---------------------|---------------------|
He's a socialist, you're just thick

   C5        G5          C5        G5
e:---------------------|---------------------|
B:---------------------|---------------------|
G:-5-5-5-5-------------|-5-5-5-5-------------|
D:-5-5-5-5---5-5-5-5---|-5-5-5-5---5-5-5-5---|
A:-3-3-3-3---5-5-5-5---|-3-3-3-3---5-5-5-5---|
E:-----------3-3-3-3---|-----------3-3-3-3---|
Tell me you're an anarchist
                         What's that swastika in your fist

   D5                             Bb5
e:--------------------|--------------------|
B:--------------------|--------------------|
G:-7-7-7-----7-7-7----|-7-7-7--------------|
D:-7-7-7-----7-7-7----|-7-7-7-----8-8-8----|
A:-5-5-5-----5-5-5----|-5-5-5-----8-8-8----|
E:--------------------|-----------6-6-6----|
You're naive, you're naive
                        You don't know who to believe

   D5                             Bb5
e:--------------------|--------------------|
B:--------------------|--------------------|
G:-7-7-7-----7-7-7----|-7-7-7--------------|
D:-7-7-7-----7-7-7----|-7-7-7-----8-8-8----|
A:-5-5-5-----5-5-5----|-5-5-5-----8-8-8----|
E:--------------------|-----------6-6-6----|

   B5
e:--------------------|--------------------|
B:--------------------|--------------------|
G:-4-4-4-4---4-4-4-4--|-4-\-2--------------|
D:-4-4-4-4---4-4-4-4--|-4-\-2--------------|
A:-2-2-2-2---2-2-2-2--|-2------------------|
E:--------------------|--------------------|

TP.

STRANGE WEEK (Hart/Mould/Norton)  [Vocal: Grant]

Intro:

   F5            B5        G5            C#5
e:------------------------------------------------|
B:------------------------------------------------| Play
G:---------------4---4-4-----------------6---6-6--| three
D:-3---3-3---3---4---4-4---5---5-5---5---6---6-6--| times
A:-3---3-3---3---2---2-2---5---5-5---5---4---4-4--|
E:-1---1-1---1-------------3---3-3---3------------|

   F5            B5        G5            C#5
e:------------------------------------------------|
B:------------------------------------------------|
G:---------------4---4-4-----------------6---6-6--|
D:-3---3-3---3---4---4-4---5---5-5---5---6---6-6--|
A:-3---3-3---3---2---2-2---5---5-5---5---4---4-4--|
E:-1---1-1---1-------------3---3-3---3------------|
   Strange week,           strange week

   G                                           C       C#    C       C#
e:-3-3-3-3---3-3-3-3---|-3-3-3-3---3-3-3-3---|---------------------------|
B:-3-3-3-3---3-3-3-3---|-3-3-3-3---3-3-3-3---|---------------------------|
G:-0-0-0-0---1p0-1p0---|-0-0-0-0---1p0-1p0---|-5-5-5---6-6---5-5-5---6-6-|
D:---------------------|---------------------|-5-5-5---6-6---5-5-5---6-6-|
A:---------------------|---------------------|-3-3-3---4-4---3-3-3---4-4-|
E:---------------------|---------------------|---------------------------|
   Strange week,         strange week,         strange week, strange week

   G
e:-3-3-3-3---3-3-3-3---|--3-3-3-3---3-3-3-3--|
B:-3-3-3-3---3-3-3-3---|--3-3-3-3---3-3-3-3--|
G:-0-0-0-0---0-0-0-0---|--0-0-0-0---0-0-0-0--|
D:-5-5-5-5---5-5-5-5---|--5-5-5-5---5-5-5-5--|
A:-5-5-5-5---5-5-5-5---|--5-5-5-5---5-5-5-5--|
E:-3-3-3-3---3-3-3-3---|--3-3-3-3---3-3-3-3--|
   Strange week,          strange week

   F5            B5        G5            C#5
e:------------------------------------------------|
B:------------------------------------------------|
G:---------------4---4-4-----------------6---6-6--| Play
D:-3---3-3---3---4---4-4---5---5-5---5---6---6-6--| twice
A:-3---3-3---3---2---2-2---5---5-5---5---4---4-4--|
E:-1---1-1---1-------------3---3-3---3------------|

   F5            B5        G5            C#5
e:------------------------------------------------|
B:------------------------------------------------|
G:---------------4---4-4-----------------6---6-6--|
D:-3---3-3---3---4---4-4---5---5-5---5---6---6-6--|
A:-3---3-3---3---2---2-2---5---5-5---5---4---4-4--|
E:-1---1-1---1-------------3---3-3---3------------|
   Monday,       Tuesday,  Wednesday,    Thursday

   F5            B5        G5            C#5
e:------------------------------------------------|
B:------------------------------------------------|
G:---------------4---4-4-----------------6---6-6--|
D:-3---3-3---3---4---4-4---5---5-5---5---6---6-6--|
A:-3---3-3---3---2---2-2---5---5-5---5---4---4-4--|
E:-1---1-1---1-------------3---3-3---3------------|
   Friday,       Saturday, Sunday,       Ahhrrgghhh.

   C5                                   G
e:------------------------------------|-3-------3-3-3---3-------3-3-3---|
B:------------------------------------|-----3---3-3-3-------3---3-3-3---|
G:-5-5-5-5--5-5h6-5--5-5-5-5--5-5h6-5-|---------0-0-0-----------0-0-0---| Play
D:-5-5-5-5--5-5-5-5--5-5-5-5--5-5-5-5-|---------------------------------| twice
A:------------------------------------|---------------------------------|
E:------------------------------------|---------------------------------|

   F5            B5        G5            C#5
e:------------------------------------------------|
B:------------------------------------------------|
G:---------------4---4-4-----------------6---6-6--| Play
D:-3---3-3---3---4---4-4---5---5-5---5---6---6-6--| twice
A:-3---3-3---3---2---2-2---5---5-5---5---4---4-4--|
E:-1---1-1---1-------------3---3-3---3------------|

   F5            B5        G5            C#5
e:------------------------------------------------|
B:------------------------------------------------|
G:---------------4---4-4-----------------6---6-6--|
D:-3---3-3---3---4---4-4---5---5-5---5---6---6-6--|
A:-3---3-3---3---2---2-2---5---5-5---5---4---4-4--|
E:-1---1-1---1-------------3---3-3---3------------|
   Seven days, Seven days, Seven days,   Seven days

   F5            B5        G5            C#5(hold)
e:------------------------------------------------|
B:------------------------------------------------|
G:---------------4---4-4-----------------6--------|
D:-3---3-3---3---4---4-4---5---5-5---5---6--------|
A:-3---3-3---3---2---2-2---5---5-5---5---4--------|
E:-1---1-1---1-------------3---3-3---3------------|
   Seven days, Seven days, Seven days,   Ahhaarrgghhh...

TP.

DO THE BEE  (Hart/Mould/Norton)  [Vocal: Grant]

Intro:
   E5         G5               D5
e:---------------------------|---------------------------|
B:---------------------------|---------------------------|
G:-9-9-9-9----12-12-12-12----|---------------------------| Play
D:-9-9-9-9----12-12-12-12----|-12-12-12-12---12-12-12-12-| twice
A:-7-7-7-7----10-10-10-10----|-12-12-12-12---12-12-12-12-|
E:---------------------------|-10-10-10-10---10-10-10-10-|

Verse 1:

   E5         G5               D5
e:---------------------------|---------------------------|
B:---------------------------|---------------------------|
G:-9-9-9-9----12-12-12-12----|---------------------------| Play
D:-9-9-9-9----12-12-12-12----|-12-12-12-12---12-12-12-12-| four
A:-7-7-7-7----10-10-10-10----|-12-12-12-12---12-12-12-12-| times
E:---------------------------|-10-10-10-10---10-10-10-10-|
If you're tired of all those other dances
If you're tired of all those other moves
You should do this dance that's really wayout
You should do this dance that really grooves

Chorus:

   Am          D
e:----------------------------|
B:----------------------------| Play
G:-------5-5---7-7---7-7---5--| four
D:-7-7------------------------| times
A:----------------------------|
E:----------------------------|
   Buzz like a drone
   To that guitar tone
   Be the cool chick on the scene
   When you fly around like a queen

Play the eight bars below twice:

   G#    A         G#    A         G#    A         G#    A
e:---------------|---------------|---------------|---------------|
B:---------------|---------------|---------------|---------------|
G:---------------|---------------|---------------|---------------|
D:-6-7---7---7---|-6-7---7---7---|-6-7---7---7---|-6-7---7---7---|
A:-0-0---0---0---|-0-0---0---0---|-0-0---0---0---|-0-0---0---0---|
E:---------------|---------------|---------------|---------------|
   Do the bee,     Do the bee,     Do the bee,     Do the bee,

   C#    D         C#    D         C#    D         C#    D
e:---------------|---------------|---------------|---------------|
B:---------------|---------------|---------------|---------------|
G:-6-7---7---7---|-6-7---7---7---|-6-7---7---7---|-6-7---7---7---|
D:-0-0---0---0---|-0-0---0---0---|-0-0---0---0---|-0-0---0---0---|
A:---------------|---------------|---------------|---------------|
E:---------------|---------------|---------------|---------------|
   Do the bee,     Do the bee,     Do the bee,     Do the bee,

Verse 2:

   E5         G5               D5
e:---------------------------|---------------------------|
B:---------------------------|---------------------------|
G:-9-9-9-9----12-12-12-12----|---------------------------| Play
D:-9-9-9-9----12-12-12-12----|-12-12-12-12---12-12-12-12-| four
A:-7-7-7-7----10-10-10-10----|-12-12-12-12---12-12-12-12-| times
E:---------------------------|-10-10-10-10---10-10-10-10-|
Jump around like you're having a real good time
Jump around, then go and pollinate
Do the bee when you are at a party
Being a social insect is so great


Chorus:

   Am          D
e:----------------------------|
B:----------------------------| Play
G:-------5-5---7-7---7-7---5--| four
D:-7-7------------------------| times
A:----------------------------|
E:----------------------------|
   It's even money
   You'll impress your honey
   Build up a sweat
   And look at the attention you get

Play the eight bars below twice:

   G#    A         G#    A         G#    A         G#    A
e:---------------|---------------|---------------|---------------|
B:---------------|---------------|---------------|---------------|
G:---------------|---------------|---------------|---------------|
D:-6-7---7---7---|-6-7---7---7---|-6-7---7---7---|-6-7---7---7---|
A:-0-0---0---0---|-0-0---0---0---|-0-0---0---0---|-0-0---0---0---|
E:---------------|---------------|---------------|---------------|
   Do the bee,     Do the bee,     Do the bee,     Do the bee,

   C#    D         C#    D         C#    D         C#    D
e:---------------|---------------|---------------|---------------|
B:---------------|---------------|---------------|---------------|
G:-6-7---7---7---|-6-7---7---7---|-6-7---7---7---|-6-7---7---7---|
D:-0-0---0---0---|-0-0---0---0---|-0-0---0---0---|-0-0---0---0---|
A:---------------|---------------|---------------|---------------|
E:---------------|---------------|---------------|---------------|
   Do the bee,     Do the bee,     Do the bee,     Do the bee,

Repeat Verse 2:

   E5         G5               D5
e:---------------------------|---------------------------|
B:---------------------------|---------------------------|
G:-9-9-9-9----12-12-12-12----|---------------------------| Play
D:-9-9-9-9----12-12-12-12----|-12-12-12-12---12-12-12-12-| four
A:-7-7-7-7----10-10-10-10----|-12-12-12-12---12-12-12-12-| times
E:---------------------------|-10-10-10-10---10-10-10-10-|
Jump around like you're having a real good time
Jump around, then go and pollinate
Do the bee when you are at a party
Being a social insect is so great

Chorus:

   Am          D
e:----------------------------|
B:----------------------------| Play
G:-------5-5---7-7---7-7---5--| four
D:-7-7------------------------| times
A:----------------------------|
E:----------------------------|
   It's even money
   You'll impress your honey
   Build up a sweat
   And look at the attention you get

Play the eight bars below twice:

   G#    A         G#    A         G#    A         G#    A
e:---------------|---------------|---------------|---------------|
B:---------------|---------------|---------------|---------------|
G:---------------|---------------|---------------|---------------|
D:-6-7---7---7---|-6-7---7---7---|-6-7---7---7---|-6-7---7---7---|
A:-0-0---0---0---|-0-0---0---0---|-0-0---0---0---|-0-0---0---0---|
E:---------------|---------------|---------------|---------------|
   Do the bee,     Do the bee,     Do the bee,     Do the bee,

   C#    D         C#    D         C#    D         C#    D
e:---------------|---------------|---------------|---------------|
B:---------------|---------------|---------------|---------------|
G:-6-7---7---7---|-6-7---7---7---|-6-7---7---7---|-6-7---7---7---|
D:-0-0---0---0---|-0-0---0---0---|-0-0---0---0---|-0-0---0---0---|
A:---------------|---------------|---------------|---------------|
E:---------------|---------------|---------------|---------------|
   Do the bee,     Do the bee,     Do the bee,     Do the bee,

Outro (Repeat the four bars below):

   E5         G5               D5
e:---------------------------|---------------------------|
B:---------------------------|-10-8----------8b10--------|
G:-9-9-9-9----12-12-12-12----|------11---7---------------|
D:-9-9-9-9----12-12-12-12----|---------------------------|
A:-7-7-7-7----10-10-10-10----|---------------------------|
E:---------------------------|---------------------------|

   E5         G5               D5
e:---------------------------|---------------------------|
B:---------------------------|---------------------------|
G:-9-9-9-9----12-12-12-12----|---------------------------|
D:-9-9-9-9----12-12-12-12----|-12-12-12-12---12-12-12-12-|
A:-7-7-7-7----10-10-10-10----|-12-12-12-12---12-12-12-12-|
E:---------------------------|-10-10-10-10---10-10-10-10-|

TP.

BIG SKY (Mould/Hart/Norton)  [Vocal: Bob]

Intro:

   D5  E5          D5  E5          D5  E5          D5  E5
e:---------------|---------------|---------------|---------------|
B:---------------|---------------|---------------|---------------|
G:-7-/-9-9---9---|-7-/-9-9---9---|-7-/-9-9---9---|-7-/-9-9---9---|
D:-7-/-9-9---9---|-7-/-9-9---9---|-7-/-9-9---9---|-7-/-9-9---9---|
A:-5-/-7-7---7---|-5-/-7-7---7---|-5-/-7-7---7---|-5-/-7-7---7---|
E:---------------|---------------|---------------|---------------|

   A5  B5          A5  B5          A5  B5          A5  B5
e:---------------|---------------|---------------|---------------|
B:---------------|---------------|---------------|---------------|
G:---------------|---------------|---------------|---------------|
D:-7-/-9-9---9---|-7-/-9-9---9---|-7-/-9-9---9---|-7-/-9-9---9---|
A:-7-/-9-9---9---|-7-/-9-9---9---|-7-/-9-9---9---|-7-/-9-9---9---|
E:-5-/-7-7---7---|-5-/-7-7---7---|-5-/-7-7---7---|-5-/-7-7---7---|

   D5  E5          D5  E5          D5  E5          D5  E5
e:---------------|---------------|---------------|---------------|
B:---------------|---------------|---------------|---------------|
G:-7-/-9-9---9---|-7-/-9-9---9---|-7-/-9-9---9---|-7-/-9-9---9---|
D:-7-/-9-9---9---|-7-/-9-9---9---|-7-/-9-9---9---|-7-/-9-9---9---|
A:-5-/-7-7---7---|-5-/-7-7---7---|-5-/-7-7---7---|-5-/-7-7---7---|
E:---------------|---------------|---------------|---------------|
   Big sky,        what a place    Big town,       big deal

   A5  B5          A5  B5          A5  B5          A5  B5
e:---------------|---------------|---------------|---------------|
B:---------------|---------------|---------------|---------------|
G:---------------|---------------|---------------|---------------|
D:-7-/-9-9---9---|-7-/-9-9---9---|-7-/-9-9---9---|-7-/-9-9---9---|
A:-7-/-9-9---9---|-7-/-9-9---9---|-7-/-9-9---9---|-7-/-9-9---9---|
E:-5-/-7-7---7---|-5-/-7-7---7---|-5-/-7-7---7---|-5-/-7-7---7---|

  (Drums)          B5             (Drums)
e:---------------|---------------|---------------|---------------|
B:---------------|---------------|---------------|-6b7--6b7--6b7-|
G:---------------|---------------|---------------|---------------|
D:---------------|-9---9---9-----|---------------|---------------|
A:---------------|-9---9---9-----|---------------|---------------|
E:---------------|-7---7---7-----|---------------|---------------|

  (Drums)          B5             (Drums)
e:---------------|---------------|---------------|-0---0---0----0----|
B:---------------|---------------|---------------|-4b5-4b5-9b10-9b10-|
G:---------------|---------------|---------------|-------------------|
D:---------------|-9---9---9-----|---------------|-------------------|
A:---------------|-9---9---9-----|---------------|-------------------|
E:---------------|-7---7---7-----|---------------|-------------------|

   D5  E5          D5  E5          D5  E5          D5  E5
e:---------------|---------------|---------------|---------------|
B:---------------|---------------|---------------|---------------|
G:-7-/-9-9---9---|-7-/-9-9---9---|-7-/-9-9---9---|-7-/-9-9---9---|
D:-7-/-9-9---9---|-7-/-9-9---9---|-7-/-9-9---9---|-7-/-9-9---9---|
A:-5-/-7-7---7---|-5-/-7-7---7---|-5-/-7-7---7---|-5-/-7-7---7---|
E:---------------|---------------|---------------|---------------|

   A5  B5          A5  B5          A5  B5          A5  B5
e:---------------|---------------|---------------|---------------|
B:---------------|---------------|---------------|---------------|
G:---------------|---------------|---------------|---------------|
D:-7-/-9-9---9---|-7-/-9-9---9---|-7-/-9-9---9---|-7-/-9-9---9---|
A:-7-/-9-9---9---|-7-/-9-9---9---|-7-/-9-9---9---|-7-/-9-9---9---|
E:-5-/-7-7---7---|-5-/-7-7---7---|-5-/-7-7---7---|-5-/-7-7---7---|

   D5  E5          D5  E5          D5  E5          D5  E5
e:---------------|---------------|---------------|---------------|
B:---------------|---------------|---------------|---------------|
G:-7-/-9-9---9---|-7-/-9-9---9---|-7-/-9-9---9---|-7-/-9-9---9---|
D:-7-/-9-9---9---|-7-/-9-9---9---|-7-/-9-9---9---|-7-/-9-9---9---|
A:-5-/-7-7---7---|-5-/-7-7---7---|-5-/-7-7---7---|-5-/-7-7---7---|
E:---------------|---------------|---------------|---------------|
   Big sky,     blacks and whites  Shove that tape deck up your ass

   A5  B5          A5  B5          A5  B5          A5  B5
e:---------------|---------------|---------------|---------------|
B:---------------|---------------|---------------|---------------|
G:---------------|---------------|---------------|---------------|
D:-7-/-9-9---9---|-7-/-9-9---9---|-7-/-9-9---9---|-7-/-9-9---9---|
A:-7-/-9-9---9---|-7-/-9-9---9---|-7-/-9-9---9---|-7-/-9-9---9---|
E:-5-/-7-7---7---|-5-/-7-7---7---|-5-/-7-7---7---|-5-/-7-7---7---|


e:--------------------------------------------------------|
B:--------------------------------------------------------|
G:--------------------------------------------------------|
D:-9-/-10-10---10---9---9-9---9-/-10-10---10---12---12-12-|
A:-9-/-10-10---10---9---9-9---9-/-10-10---10---12---12-12-|
E:-7-/-8--8----8----7---0-7---7-/-8--8----8----10---10-10-|


e:--------------------------------------------------------|
B:--------------------------------------------------------|
G:--------------------------------------------------------|
D:-9-/-10-10---10---10---12---12-12---12---12-------------|
A:-9-/-10-10---10---10---12---12-12---12---12-------------|
E:-7-/-8--8----8----8----10---10-10---10---10-------------|

   D5  E5          D5  E5          D5  E5          D5  E5
e:---------------|---------------|---------------|---------------|
B:---------------|---------------|---------------|---------------|
G:-7-/-9-9---9---|-7-/-9-9---9---|-7-/-9-9---9---|-7-/-9-9---9---|
D:-7-/-9-9---9---|-7-/-9-9---9---|-7-/-9-9---9---|-7-/-9-9---9---|
A:-5-/-7-7---7---|-5-/-7-7---7---|-5-/-7-7---7---|-5-/-7-7---7---|
E:---------------|---------------|---------------|---------------|

   A5  B5          A5  B5          A5  B5          A5  B5
e:---------------|---------------|---------------|---------------|
B:---------------|---------------|---------------|---------------|
G:---------------|---------------|---------------|---------------|
D:-7-/-9-9---9---|-7-/-9-9---9---|-7-/-9-9---9---|-7-/-9-9---9---|
A:-7-/-9-9---9---|-7-/-9-9---9---|-7-/-9-9---9---|-7-/-9-9---9---|
E:-5-/-7-7---7---|-5-/-7-7---7---|-5-/-7-7---7---|-5-/-7-7---7---|

   D5  E5          D5  E5          D5  E5          D5  E5
e:---------------|---------------|---------------|---------------|
B:---------------|---------------|---------------|---------------|
G:-7-/-9-9---9---|-7-/-9-9---9---|-7-/-9-9---9---|-7-/-9-9---9---|
D:-7-/-9-9---9---|-7-/-9-9---9---|-7-/-9-9---9---|-7-/-9-9---9---|
A:-5-/-7-7---7---|-5-/-7-7---7---|-5-/-7-7---7---|-5-/-7-7---7---|
E:---------------|---------------|---------------|---------------|
   Big sky,        big town        Big wheel,      big deal

   A5  B5          A5  B5          A5  B5          A5  B5
e:---------------|---------------|---------------|---------------|
B:---------------|---------------|---------------|---------------|
G:---------------|---------------|---------------|---------------|
D:-7-/-9-9---9---|-7-/-9-9---9---|-7-/-9-9---9---|-7-/-9-9---9---|
A:-7-/-9-9---9---|-7-/-9-9---9---|-7-/-9-9---9---|-7-/-9-9---9---|
E:-5-/-7-7---7---|-5-/-7-7---7---|-5-/-7-7---7---|-5-/-7-7---7---|

   D5        B5        D5        B5
e:-----------------------------------------------|
B:-----------------------------------------------|
G:-7---7-7-------------7---7-7---7b9---7b9---7b9-|
D:-7---7-7---9---9-9---7---7-7-------------------|
A:-5---5-5---9---9-9---5---5-5-------------------|
E:-----------7---7-7-----------------------------|

   D5        B5        D5        B5
e:-------------------------------0----0----0-----0----|
B:-------------------------------4b5--4b5--9b10--9b10-|
G:-7---7-7-------------7---7-7------------------------|
D:-7---7-7---9---9-9---7---7-7------------------------|
A:-5---5-5---9---9-9---5---5-5------------------------|
E:-----------7---7-7----------------------------------|

   F5 E5(hold)
e:----------------------------------------------------|
B:----------------------------------------------------|
G:-10-9-----------------------------------------------|
D:-10-9-----------------------------------------------|
A:-8--7-----------------------------------------------|
E:----------------------------------------------------|

TP.

ULTRACORE (Mould/Hart/Norton) [Vocal: Bob]

Intro:

   B C5            F5    D#5  B C5            F5    D#5
e:--------------------------|--------------------------|
B:--------------------------|--------------------------|
G:-4/5---5-5---5---5-5-\-3--|-4/5---5-5---5---5-5-\-3--| Play
D:-4/5---5-5---5---3-3-\-1--|-4/5---5-5---5---3-3-\-1--| twice
A:-2/3---3-3---3------------|-2/3---3-3---3------------|
E:--------------------------|--------------------------|

Verse 1:

   D#5 D5                   D#5 D5
e:------------------------|------------------------|
B:------------------------|------------------------|
G:-8---7-7-7-7---7-7-7-7--|-8---7-7-7-7---7-7-7-7--| Play
D:-8---7-7-7-7---7-7-7-7--|-8---7-7-7-7---7-7-7-7--| twice
A:-6---5-5-5-5---5-5-5-5--|-6---5-5-5-5---5-5-5-5--|
E:------------------------|------------------------|
1: Fight for your country   Fight for your life
2: Days are numbered        Soon dismembered

Chorus:

   B5 C5     F5      D#5   B5 C5     F5      D#5
e:-----------------------|-----------------------|
B:-----------------------|-----------------------|
G:-4/5-5-5---5-5--\--3---|-4/5-5-5---5-5--\--3---| Play
D:-4/5-5-5---3-3--\--1---|-4/5-5-5---3-3--\--1---| twice
A:-2/3-3-3---------------|-2/3-3-3---------------|
E:-----------------------|-----------------------|
1: Ultracore, ultracore   We don't wanna die in your fucking war
2: Ultracore, ultracore   It's either them or us to fight

Verse 2:

   D#5 D5                   D#5 D5
e:------------------------|------------------------|
B:------------------------|------------------------|
G:-8---7-7-7-7---7-7-7-7--|-8---7-7-7-7---7-7-7-7--| Play
D:-8---7-7-7-7---7-7-7-7--|-8---7-7-7-7---7-7-7-7--| twice
A:-6---5-5-5-5---5-5-5-5--|-6---5-5-5-5---5-5-5-5--|
E:------------------------|------------------------|
1: Bite on a live wire      Chew on a live wire
2: Days are numbered        Soon dismembered

Chorus:

   B5 C5     F5      D#5   B5 C5     F5      D#5
e:-----------------------|-----------------------|
B:-----------------------|-----------------------|
G:-4/5-5-5---5-5--\--3---|-4/5-5-5---5-5--\--3---| Play
D:-4/5-5-5---3-3--\--1---|-4/5-5-5---3-3--\--1---| twice
A:-2/3-3-3---------------|-2/3-3-3---------------|
E:-----------------------|-----------------------|
1: Ultracore, ultracore   We don't wanna die in your fucking war
2: Ultracore, ultracore   It's either them or us to fight

Break:

   D#5 D5                   D#5 D5
e:------------------------|------------------------|
B:------------------------|------------------------|
G:-8---7-7-7-7---7-7-7-7--|-8---7-7-7-7---7-7-7-7--| Play
D:-8---7-7-7-7---7-7-7-7--|-8---7-7-7-7---7-7-7-7--| twice
A:-6---5-5-5-5---5-5-5-5--|-6---5-5-5-5---5-5-5-5--|
E:------------------------|------------------------|

   A5    Bb5 D# D5   A5    Bb5 D# D5
e:-----------------|-----------------|
B:-----------------|-----------------|
G:-----------8\7---|-----------8\7---| Play
D:-7-7-7/8---8\7---|-7-7-7/8---8\7---| twice
A:-7-7-7/8---6\5---|-7-7-7/8---6\5---|
E:-5-5-5/6---------|-5-5-5/6---------|

   A5    Bb5 D# D5   A5    Bb5 D# D5   A5    Bb5 D# D5   A5    Bb5 D(hold)
e:-----------------|-----------------|-----------------|-----------------|
B:-----------------|-----------------|-----------------|-----------------|
G:-----------8\7---|-----------8\7---|-----------8\7---|-----------7-----|
D:-7-7-7/8---8\7---|-7-7-7/8---8\7---|-7-7-7/8---8\7---|-7-7-7/8---7-----|
A:-7-7-7/8---6\5---|-7-7-7/8---6\5---|-7-7-7/8---6\5---|-7-7-7/8---5-----|
E:-5-5-5/6---------|-5-5-5/6---------|-5-5-5/6---------|-5-5-5/6---------|
Ultracore, ultracore, ultracore, ultracore, ultracore, ultracore

TP.

LET'S GO DIE (Greg Norton)

Intro (Bass):

G:--------------------|
D:--------------------|
A:-2---2-2---2---2----|
E:-----------------0--|

Guitar:
   B5              E5      B5              E5
e:-----------------------|-----------------------|
B:-----------------5-----|-----------------5-----|
G:-4---4-4---4---4-4-----|-4---4-4---4---4-4-----|
D:-4---4-4---4---4-2-----|-4---4-4---4---4-2-----|
A:-2---2-0---2---0-------|-2---2-0---2---0-------|
E:-----------------------|-----------------------|

   E5    F#5 B5            E5    F#5 B5
e:-----------------------|-----------------------|
B:-5-5-/-7---------------|-5-5-/-7---------------|
G:-4-4-/-6---4--4--4-4-4-|-4-4-/-6---4--4--4-4-4-|
D:-2-2-/-4---4--4--4-4-4-|-2-2-/-4---4--4--4-4-4-|
A:-----------2--2--2-2-2-|-----------2--2--2-2-2-|
E:-----------------------|-----------------------|

Chorus:

   B5              E5      B5              E5      B5              E5
e:-----------------------|-----------------------|-----------------------|
B:-----------------5-----|-----------------5-----|-----------------5-----|
G:-4---4-4---4---4-4-----|-4---4-4---4---4-4-----|-4---4-4---4---4-4-----|
D:-4---4-4---4---4-2-----|-4---4-4---4---4-2-----|-4---4-4---4---4-2-----|
A:-2---2-0---2---0-------|-2---2-0---2---0-------|-2---2-0---2---0-------|
E:-----------------------|-----------------------|-----------------------|
   Don't run away          Don't run away          Don't run away

   E5    F#5 B5            E5    F#5 B5
e:-----------------------|-----------------------|
B:-5-5-/-7---------------|-5-5-/-7---------------|
G:-4-4-/-6---4--4--4-4-4-|-4-4-/-6---4--4--4-4-4-|
D:-2-2-/-4---4--4--4-4-4-|-2-2-/-4---4--4--4-4-4-|
A:-----------2--2--2-2-2-|-----------2--2--2-2-2-|
E:-----------------------|-----------------------|
   Why should I stay       and give my life away

Verse One:
   E5              F#5                E5              F#5
e:----------------------------------|----------------------------------|
B:-5---5-5-5---5---7---7---7-7-7-7--|-5---5-5-5---5---7---7---7-7-7-7--|
G:-4---4-4-4---4---6---6---6-6-6-6--|-4---4-4-4---4---6---6---6-6-6-6--|
D:-2---2-2-2---2---4---4---4-4-4-4--|-2---2-2-2---2---4---4---4-4-4-4--|
A:----------------------------------|----------------------------------|
E:----------------------------------|----------------------------------|
You've picked my number, First thing I ever won
                                      But that's just my luck

   D5                         A5    B5  E5  F#5
e:--------------------------|-------------------------|
B:--------------------------|-----------5---7-7-------|
G:-7---7---7-7-7---7---7-7--|-----0-4---4---6-6-------|
D:-7---7---7-7-7---7---7-7--|-7---0-4---2---4-4-------|
A:-5---5---0-5-5---5---5-5--|-7-----2-----------------|
E:--------------------------|-5-----------------------|
Now you've got me, now I'm stuck
                              Stuck in a rut with a knife in my gut

Chorus (Played twice):

   B5              E5      B5              E5      B5              E5
e:-----------------------|-----------------------|-----------------------|
B:-----------------5-----|-----------------5-----|-----------------5-----|
G:-4---4-4---4---4-4-----|-4---4-4---4---4-4-----|-4---4-4---4---4-4-----|
D:-4---4-4---4---4-2-----|-4---4-4---4---4-2-----|-4---4-4---4---4-2-----|
A:-2---2-0---2---0-------|-2---2-0---2---0-------|-2---2-0---2---0-------|
E:-----------------------|-----------------------|-----------------------|
   Don't run away          Don't run away          Don't run away

   E5    F#5 B5            E5    F#5 B5
e:-----------------------|-----------------------|
B:-5-5-/-7---------------|-5-5-/-7---------------|
G:-4-4-/-6---4--4--4-4-4-|-4-4-/-6---4--4--4-4-4-|
D:-2-2-/-4---4--4--4-4-4-|-2-2-/-4---4--4--4-4-4-|
A:-----------2--2--2-2-2-|-----------2--2--2-2-2-|
E:-----------------------|-----------------------|
   Why should I stay       and give my life away

Verse Two:

   E5              F#5                E5              F#5
e:----------------------------------|----------------------------------|
B:-5---5-5-5---5---7---7---7-7-7-7--|-5---5-5-5---5---7---7---7-7-7-7--|
G:-4---4-4-4---4---6---6---6-6-6-6--|-4---4-4-4---4---6---6---6-6-6-6--|
D:-2---2-2-2---2---4---4---4-4-4-4--|-2---2-2-2---2---4---4---4-4-4-4--|
A:----------------------------------|----------------------------------|
E:----------------------------------|----------------------------------|
You've cut the odds, my chances have dwindled
                                      Nobody wants me now

   D5                         A5    B5  E5  F#5
e:--------------------------|-------------------------|
B:--------------------------|-----------5---7-7-------|
G:-7---7---7-7-7---7---7-7--|-----0-4---4---6-6-------|
D:-7---7---7-7-7---7---7-7--|-7---0-4---2---4-4-------|
A:-5---5---0-5-5---5---5-5--|-7-----2-----------------|
E:--------------------------|-5-----------------------|
Gotta get out, gotta get away Escape to die some other day

Chorus (Played twice):

   B5              E5      B5              E5      B5              E5
e:-----------------------|-----------------------|-----------------------|
B:-----------------5-----|-----------------5-----|-----------------5-----|
G:-4---4-4---4---4-4-----|-4---4-4---4---4-4-----|-4---4-4---4---4-4-----|
D:-4---4-4---4---4-2-----|-4---4-4---4---4-2-----|-4---4-4---4---4-2-----|
A:-2---2-0---2---0-------|-2---2-0---2---0-------|-2---2-0---2---0-------|
E:-----------------------|-----------------------|-----------------------|
   Don't run away          Don't run away          Don't run away

   E5    F#5 B5            E5    F#5 B5
e:-----------------------|-----------------------|
B:-5-5-/-7---------------|-5-5-/-7---------------|
G:-4-4-/-6---4--4--4-4-4-|-4-4-/-6---4--4--4-4-4-|
D:-2-2-/-4---4--4--4-4-4-|-2-2-/-4---4--4--4-4-4-|
A:-----------2--2--2-2-2-|-----------2--2--2-2-2-|
E:-----------------------|-----------------------|
   Why should I stay       and give my life away


Verse Three:

   E5              F#5                E5              F#5
e:----------------------------------|----------------------------------|
B:-5---5-5-5---5---7---7---7-7-7-7--|-5---5-5-5---5---7---7---7-7-7-7--|
G:-4---4-4-4---4---6---6---6-6-6-6--|-4---4-4-4---4---6---6---6-6-6-6--|
D:-2---2-2-2---2---4---4---4-4-4-4--|-2---2-2-2---2---4---4---4-4-4-4--|
A:----------------------------------|----------------------------------|
E:----------------------------------|----------------------------------|
Now I'm getting really confused       I wish I were you

   D5                         A5    B5  E5  F#5
e:--------------------------|-------------------------|
B:--------------------------|-----------5---7-7-------|
G:-7---7---7-7-7---7---7-7--|-----0-4---4---6-6-------|
D:-7---7---7-7-7---7---7-7--|-7---0-4---2---4-4-------|
A:-5---5---0-5-5---5---5-5--|-7-----2-----------------|
E:--------------------------|-5-----------------------|
Then I'd sit around and decide
                              Just who wins, just who dies

Chorus (Played twice):

   B5              E5      B5              E5      B5              E5
e:-----------------------|-----------------------|-----------------------|
B:-----------------5-----|-----------------5-----|-----------------5-----|
G:-4---4-4---4---4-4-----|-4---4-4---4---4-4-----|-4---4-4---4---4-4-----|
D:-4---4-4---4---4-2-----|-4---4-4---4---4-2-----|-4---4-4---4---4-2-----|
A:-2---2-0---2---0-------|-2---2-0---2---0-------|-2---2-0---2---0-------|
E:-----------------------|-----------------------|-----------------------|
   Don't run away          Don't run away          Don't run away

   E5    F#5 B5            E5    F#5 B5
e:-----------------------|-----------------------|
B:-5-5-/-7---------------|-5-5-/-7---------------|
G:-4-4-/-6---4--4--4-4-4-|-4-4-/-6---4--4--4-4-4-|
D:-2-2-/-4---4--4--4-4-4-|-2-2-/-4---4--4--4-4-4-|
A:-----------2--2--2-2-2-|-----------2--2--2-2-2-|
E:-----------------------|-----------------------|
   Why should I stay       and give my life away

Repeat the above then:

   E5    F#5 B5            E5    F#5 B5
e:-----------------------|-----------------------|
B:-5-5-/-7---------------|-5-5-/-7---------------|
G:-4-4-/-6---4--4--4-4-4-|-4-4-/-6---4--4--4-4-4-|
D:-2-2-/-4---4--4--4-4-4-|-2-2-/-4---4--4--4-4-4-|
A:-----------2--2--2-2-2-|-----------2--2--2-2-2-|
E:-----------------------|-----------------------|
   Why should I stay       and give my life awaaaaaaaaaaaaaaay.

TP

DATA CONTROL (Grant Hart)

Verse chords:  E  079900    E5 0799XX    Bb5 699XXX    C5 8,10,10,XXX

               A5 577XXX

Chorus chords: E5 XX245X    F5 XX356X    G5  XX578X    A5 X022XX

Guitar intro:

   E(hold)-----------------------------------------------------|
e:-0-----------------------------------------------------------|
B:-0-----------------------------------------------------------|
G:-9-----------------------------------------------------------|
D:-9-----------------------------------------------------------|
A:-7-----------------------------------------------------------|
E:-0-----------------------------------------------------------|

The following is heavily palm-muting:

   E                   Bb5                 C5
e:-------------------|-------------------|-------------------|
B:-------------------|-------------------|-------------------| Play
G:-9-9-9-9---9-9-9-9-|-------------------|-------------------| three
D:-9-9-9-9---9-9-9-9-|-9-9-9---9---9-----|-10-10-10---10--10-| times
A:-7-7-7-7---7-7-7-7-|-9-9-9---9---9-----|-10-10-10---10--10-|
E:-0-0-0-0---0-0-0-0-|-6-6-6---6---6-----|-8--8--8----8---8--|

   A5
e:-------------------|-------------------|
B:-------------------|-------------------|
G:-------------------|-------------------|
D:-7-7-7-7---7-7-7-7-|-7-7-7-7---7-7-7-7-|
A:-7-7-7-7---7-7-7-7-|-7-7-7-7---7-7-7-7-|
E:-5-5-5-5---5-5-5-5-|-5-5-5-5---5-5-5-5-|


Play this section twice(no palm-muting):

   E5                  F5        G5
e:-------------------|-------------------|
B:-5-5-5-5---5-5-5-5-|-6-6-6-6---8-8-8-8-|
G:-4-4-4-4---4-4-4-4-|-5-5-5-5---7-7-7-7-|
D:-2-2-2-2---2-2-2-2-|-3-3-3-3---5-5-5-5-|
A:-------------------|-------------------|
E:-------------------|-------------------|

   E5                  F5        G5
e:-------------------|-------------------|
B:-5-5-5-5---5-5-5-5-|-6-6-6-6---8-8-8p0-|
G:-4-4-4-4---4-4-4-4-|-5-5-5-5---7-7-7p0-|
D:-2-2-2-2---2-2-2-2-|-3-3-3-3---5-5-5---|
A:-------------------|-------------------|
E:-------------------|-------------------|

   E5                  F5        G5
e:-------------------|-------------------|
B:-5-5-5-5---5-5-5-5-|-6-6-6-6---8-8-8p0-|
G:-4-4-4-4---4-4-4-4-|-5-5-5-5---7-7-7p0-|
D:-2-2-2-2---2-2-2-2-|-3-3-3-3---5-5-5---|
A:-------------------|-------------------|
E:-------------------|-------------------|

   A5
e:-------------------|-------------------|
B:-------------------|-------------------|
G:-2---3-2--3-2--3-2-|-3-2---2---2-------|
D:-2---2-2--2-2--2-2-|-2-2---2---2-------|
A:-0---0-0--0-0--0-0-|-0-0---0---0-------|
E:-------------------|-------------------|

Replace the above bar with this during the repeat:

   A5(hold)
e:-------------------|-------------------|
B:-------------------|-------------------|
G:-2-----------------|-------------------|
D:-2-----------------|-------------------|
A:-0-----------------|-------------------|
E:-------------------|-------------------|


Verse:

   E                   Bb5                 C5
e:-------------------|-------------------|-------------------|
B:-------------------|-------------------|-------------------|
G:-9-9-9-9---9-9-9-9-|-------------------|-------------------|
D:-9-9-9-9---9-9-9-9-|-9-9-9---9---9-----|-10-10-10---10--10-|
A:-7-7-7-7---7-7-7-7-|-9-9-9---9---9-----|-10-10-10---10--10-|
E:-0-0-0-0---0-0-0-0-|-6-6-6---6---6-----|-8--8--8----8---8--|
   A nine digit number

   E                   Bb5                 C5
e:-------------------|-------------------|-------------------|
B:-------------------|-------------------|-------------------|
G:-9-9-9-9---9-9-9-9-|-------------------|-------------------|
D:-9-9-9-9---9-9-9-9-|-9-9-9---9---9-----|-10-10-10---10--10-|
A:-7-7-7-7---7-7-7-7-|-9-9-9---9---9-----|-10-10-10---10--10-|
E:-0-0-0-0---0-0-0-0-|-6-6-6---6---6-----|-8--8--8----8---8--|
 For every living soul

   E                   Bb5                 C5
e:-------------------|-------------------|-------------------|
B:-------------------|-------------------|-------------------|
G:-9-9-9-9---9-9-9-9-|-------------------|-------------------|
D:-9-9-9-9---9-9-9-9-|-9-9-9---9---9-----|-10-10-10---10--10-|
A:-7-7-7-7---7-7-7-7-|-9-9-9---9---9-----|-10-10-10---10--10-|
E:-0-0-0-0---0-0-0-0-|-6-6-6---6---6-----|-8--8--8----8---8--|
That's all they talk about

   A5
e:-------------------|-------------------|
B:-------------------|-------------------|
G:-2---3-2--3-2--3-2-|-3-2---2---2-------|
D:-2---2-2--2-2--2-2-|-2-2---2---2-------|
A:-0---0-0--0-0--0-0-|-0-0---0---0-------|
E:-------------------|-------------------|
   At Data Control

   E                   Bb5                 C5
e:-------------------|-------------------|-------------------|
B:-------------------|-------------------|-------------------|
G:-9-9-9-9---9-9-9-9-|-------------------|-------------------|
D:-9-9-9-9---9-9-9-9-|-9-9-9---9---9-----|-10-10-10---10--10-|
A:-7-7-7-7---7-7-7-7-|-9-9-9---9---9-----|-10-10-10---10--10-|
E:-0-0-0-0---0-0-0-0-|-6-6-6---6---6-----|-8--8--8----8---8--|
They know everything about you

   E                   Bb5                 C5
e:-------------------|-------------------|-------------------|
B:-------------------|-------------------|-------------------|
G:-9-9-9-9---9-9-9-9-|-------------------|-------------------|
D:-9-9-9-9---9-9-9-9-|-9-9-9---9---9-----|-10-10-10---10--10-|
A:-7-7-7-7---7-7-7-7-|-9-9-9---9---9-----|-10-10-10---10--10-|
E:-0-0-0-0---0-0-0-0-|-6-6-6---6---6-----|-8--8--8----8---8--|
Keeping secrets is too hard

   E                   Bb5                 C5
e:-------------------|-------------------|-------------------|
B:-------------------|-------------------|-------------------|
G:-9-9-9-9---9-9-9-9-|-------------------|-------------------|
D:-9-9-9-9---9-9-9-9-|-9-9-9---9---9-----|-10-10-10---10--10-|
A:-7-7-7-7---7-7-7-7-|-9-9-9---9---9-----|-10-10-10---10--10-|
E:-0-0-0-0---0-0-0-0-|-6-6-6---6---6-----|-8--8--8----8---8--|
Your life is all recordrd for you

   A5
e:-------------------|-------------------|
B:-------------------|-------------------|
G:-2---3-2--3-2--3-2-|-3-2---2---2-------|
D:-2---2-2--2-2--2-2-|-2-2---2---2-------|
A:-0---0-0--0-0--0-0-|-0-0---0---0-------|
E:-------------------|-------------------|
In holes punched in computer cards


Chorus:

   E5                  F5        G5
e:-------------------|-------------------|
B:-5-5-5-5---5-5-5-5-|-6-6-6-6---8-8-8-8-|
G:-4-4-4-4---4-4-4-4-|-5-5-5-5---7-7-7-7-|
D:-2-2-2-2---2-2-2-2-|-3-3-3-3---5-5-5-5-|
A:-------------------|-------------------|
E:-------------------|-------------------|
   Data Control       (digital readout)

   E5                  F5        G5
e:-------------------|-------------------|
B:-5-5-5-5---5-5-5-5-|-6-6-6-6---8-8-8p0-|
G:-4-4-4-4---4-4-4-4-|-5-5-5-5---7-7-7p0-|
D:-2-2-2-2---2-2-2-2-|-3-3-3-3---5-5-5---|
A:-------------------|-------------------|
E:-------------------|-------------------|
   Data Control       (perforated feedout)

   E5                  F5        G5
e:-------------------|-------------------|
B:-5-5-5-5---5-5-5-5-|-6-6-6-6---8-8-8p0-|
G:-4-4-4-4---4-4-4-4-|-5-5-5-5---7-7-7p0-|
D:-2-2-2-2---2-2-2-2-|-3-3-3-3---5-5-5---|
A:-------------------|-------------------|
E:-------------------|-------------------|
   Data Control       (microfilm files)

   A5
e:-------------------|-------------------|
B:-------------------|-------------------|
G:-2---3-2--3-2--3-2-|-3-2---2---2-------|
D:-2---2-2--2-2--2-2-|-2-2---2---2-------|
A:-0---0-0--0-0--0-0-|-0-0---0---0-------|
E:-------------------|-------------------|
   Data Control       (1984 style)


Solo (play the following twice):

   E5                  F5        G5
e:-------------------|-------------------|
B:-5-5-5-5---5-5-5-5-|-6-6-6-6---8-8-8-8-|
G:-4-4-4-4---4-4-4-4-|-5-5-5-5---7-7-7-7-|
D:-2-2-2-2---2-2-2-2-|-3-3-3-3---5-5-5-5-|
A:-------------------|-------------------|
E:-------------------|-------------------|

   E5                  F5        G5
e:-------------------|-------------------|
B:-5-5-5-5---5-5-5-5-|-6-6-6-6---8-8-8p0-|
G:-4-4-4-4---4-4-4-4-|-5-5-5-5---7-7-7p0-|
D:-2-2-2-2---2-2-2-2-|-3-3-3-3---5-5-5---|
A:-------------------|-------------------|
E:-------------------|-------------------|

   E5                  F5        G5
e:-------------------|-------------------|
B:-5-5-5-5---5-5-5-5-|-6-6-6-6---8-8-8p0-|
G:-4-4-4-4---4-4-4-4-|-5-5-5-5---7-7-7p0-|
D:-2-2-2-2---2-2-2-2-|-3-3-3-3---5-5-5---|
A:-------------------|-------------------|
E:-------------------|-------------------|

   A5
e:-------------------|-------------------|
B:-------------------|-------------------|
G:-2---3-2--3-2--3-2-|-3-2---2---2-------|
D:-2---2-2--2-2--2-2-|-2-2---2---2-------|
A:-0---0-0--0-0--0-0-|-0-0---0---0-------|
E:-------------------|-------------------|

Verse 2:
   E                   Bb5                 C5
e:-------------------|-------------------|-------------------|
B:-------------------|-------------------|-------------------|
G:-9-9-9-9---9-9-9-9-|-------------------|-------------------|
D:-9-9-9-9---9-9-9-9-|-9-9-9---9---9-----|-10-10-10---10--10-|
A:-7-7-7-7---7-7-7-7-|-9-9-9---9---9-----|-10-10-10---10--10-|
E:-0-0-0-0---0-0-0-0-|-6-6-6---6---6-----|-8--8--8----8---8--|
A multinational corporation

   E                   Bb5                 C5
e:-------------------|-------------------|-------------------|
B:-------------------|-------------------|-------------------|
G:-9-9-9-9---9-9-9-9-|-------------------|-------------------|
D:-9-9-9-9---9-9-9-9-|-9-9-9---9---9-----|-10-10-10---10--10-|
A:-7-7-7-7---7-7-7-7-|-9-9-9---9---9-----|-10-10-10---10--10-|
E:-0-0-0-0---0-0-0-0-|-6-6-6---6---6-----|-8--8--8----8---8--|
A stockholder's dream

   E                   Bb5                 C5
e:-------------------|-------------------|-------------------|
B:-------------------|-------------------|-------------------|
G:-9-9-9-9---9-9-9-9-|-------------------|-------------------|
D:-9-9-9-9---9-9-9-9-|-9-9-9---9---9-----|-10-10-10---10--10-|
A:-7-7-7-7---7-7-7-7-|-9-9-9---9---9-----|-10-10-10---10--10-|
E:-0-0-0-0---0-0-0-0-|-6-6-6---6---6-----|-8--8--8----8---8--|
A nightmare of diversity

   A5
e:-------------------|-------------------|
B:-------------------|-------------------|
G:-2---3-2--3-2--3-2-|-3-2---2---2-------|
D:-2---2-2--2-2--2-2-|-2-2---2---2-------|
A:-0---0-0--0-0--0-0-|-0-0---0---0-------|
E:-------------------|-------------------|
A defence system so supreme

   E                   Bb5                 C5
e:-------------------|-------------------|-------------------|
B:-------------------|-------------------|-------------------|
G:-9-9-9-9---9-9-9-9-|-------------------|-------------------|
D:-9-9-9-9---9-9-9-9-|-9-9-9---9---9-----|-10-10-10---10--10-|
A:-7-7-7-7---7-7-7-7-|-9-9-9---9---9-----|-10-10-10---10--10-|
E:-0-0-0-0---0-0-0-0-|-6-6-6---6---6-----|-8--8--8----8---8--|
Too technical to talk about

   E                   Bb5                 C5
e:-------------------|-------------------|-------------------|
B:-------------------|-------------------|-------------------|
G:-9-9-9-9---9-9-9-9-|-------------------|-------------------|
D:-9-9-9-9---9-9-9-9-|-9-9-9---9---9-----|-10-10-10---10--10-|
A:-7-7-7-7---7-7-7-7-|-9-9-9---9---9-----|-10-10-10---10--10-|
E:-0-0-0-0---0-0-0-0-|-6-6-6---6---6-----|-8--8--8----8---8--|
Too complex for layman's brains

   E                   Bb5                 C5
e:-------------------|-------------------|-------------------|
B:-------------------|-------------------|-------------------|
G:-9-9-9-9---9-9-9-9-|-------------------|-------------------|
D:-9-9-9-9---9-9-9-9-|-9-9-9---9---9-----|-10-10-10---10--10-|
A:-7-7-7-7---7-7-7-7-|-9-9-9---9---9-----|-10-10-10---10--10-|
E:-0-0-0-0---0-0-0-0-|-6-6-6---6---6-----|-8--8--8----8---8--|
It's enough to make you paranoid

   A5
e:-------------------|-------------------|
B:-------------------|-------------------|
G:-2---3-2--3-2--3-2-|-3-2---2---2-------|
D:-2---2-2--2-2--2-2-|-2-2---2---2-------|
A:-0---0-0--0-0--0-0-|-0-0---0---0-------|
E:-------------------|-------------------|
Or drive you crazy losers sane

Chorus:

   E5                  F5        G5
e:-------------------|-------------------|
B:-5-5-5-5---5-5-5-5-|-6-6-6-6---8-8-8-8-|
G:-4-4-4-4---4-4-4-4-|-5-5-5-5---7-7-7-7-|
D:-2-2-2-2---2-2-2-2-|-3-3-3-3---5-5-5-5-|
A:-------------------|-------------------|
E:-------------------|-------------------|
   Data Control       (digital readout)

   E5                  F5        G5
e:-------------------|-------------------|
B:-5-5-5-5---5-5-5-5-|-6-6-6-6---8-8-8p0-|
G:-4-4-4-4---4-4-4-4-|-5-5-5-5---7-7-7p0-|
D:-2-2-2-2---2-2-2-2-|-3-3-3-3---5-5-5---|
A:-------------------|-------------------|
E:-------------------|-------------------|
   Data Control       (perforated feedout)

   E5                  F5        G5
e:-------------------|-------------------|
B:-5-5-5-5---5-5-5-5-|-6-6-6-6---8-8-8p0-|
G:-4-4-4-4---4-4-4-4-|-5-5-5-5---7-7-7p0-|
D:-2-2-2-2---2-2-2-2-|-3-3-3-3---5-5-5---|
A:-------------------|-------------------|
E:-------------------|-------------------|
   Data Control       (microfilm files)

   A5
e:-------------------|-------------------|
B:-------------------|-------------------|
G:-2---3-2--3-2--3-2-|-3-2---2---2-------|
D:-2---2-2--2-2--2-2-|-2-2---2---2-------|
A:-0---0-0--0-0--0-0-|-0-0---0---0-------|
E:-------------------|-------------------|
   Data Control       (1984 style)

Solo (play the following twice):

   E5                  F5        G5
e:-------------------|-------------------|
B:-5-5-5-5---5-5-5-5-|-6-6-6-6---8-8-8-8-|
G:-4-4-4-4---4-4-4-4-|-5-5-5-5---7-7-7-7-|
D:-2-2-2-2---2-2-2-2-|-3-3-3-3---5-5-5-5-|
A:-------------------|-------------------|
E:-------------------|-------------------|

   E5                  F5        G5
e:-------------------|-------------------|
B:-5-5-5-5---5-5-5-5-|-6-6-6-6---8-8-8p0-|
G:-4-4-4-4---4-4-4-4-|-5-5-5-5---7-7-7p0-|
D:-2-2-2-2---2-2-2-2-|-3-3-3-3---5-5-5---|
A:-------------------|-------------------|
E:-------------------|-------------------|

   E5                  F5        G5
e:-------------------|-------------------|
B:-5-5-5-5---5-5-5-5-|-6-6-6-6---8-8-8p0-|
G:-4-4-4-4---4-4-4-4-|-5-5-5-5---7-7-7p0-|
D:-2-2-2-2---2-2-2-2-|-3-3-3-3---5-5-5---|
A:-------------------|-------------------|
E:-------------------|-------------------|

   A5
e:-------------------|-------------------|
B:-------------------|-------------------|
G:-2---3-2--3-2--3-2-|-3-2---2---2-------|
D:-2---2-2--2-2--2-2-|-2-2---2---2-------|
A:-0---0-0--0-0--0-0-|-0-0---0---0-------|
E:-------------------|-------------------|

Repeat intro riff (palm-muted):

   E                   Bb5                 C5
e:-------------------|-------------------|-------------------|
B:-------------------|-------------------|-------------------| Play
G:-9-9-9-9---9-9-9-9-|-------------------|-------------------| three
D:-9-9-9-9---9-9-9-9-|-9-9-9---9---9-----|-10-10-10---10--10-| times
A:-7-7-7-7---7-7-7-7-|-9-9-9---9---9-----|-10-10-10---10--10-|
E:-0-0-0-0---0-0-0-0-|-6-6-6---6---6-----|-8--8--8----8---8--|

   A5
e:-------------------|-------------------|
B:-------------------|-------------------|
G:-------------------|-------------------|
D:-7-7-7-7---7-7-7-7-|-7-7-7-7---7-7-7-7-|
A:-7-7-7-7---7-7-7-7-|-7-7-7-7---7-7-7-7-|
E:-5-5-5-5---5-5-5-5-|-5-5-5-5---5-5-5-5-|


   E                   Bb5                 C5
e:-------------------|-------------------|-------------------|
B:-------------------|-------------------|-------------------| Play
G:-9-9-9-9---9-9-9-9-|-------------------|-------------------| three
D:-9-9-9-9---9-9-9-9-|-9-9-9---9---9-----|-10-10-10---10--10-| times
A:-7-7-7-7---7-7-7-7-|-9-9-9---9---9-----|-10-10-10---10--10-|
E:-0-0-0-0---0-0-0-0-|-6-6-6---6---6-----|-8--8--8----8---8--|

   A5
e:-------------------|-------------------|
B:-------------------|-------------------|
G:-------------------|-------------------|
D:-7-7-7-7---7-7-7-7-|-7-7-7-7---7-7-7-7-|
A:-7-7-7-7---7-7-7-7-|-7-7-7-7---7-7-7-7-|
E:-5-5-5-5---5-5-5-5-|-5-5-5-5---5-5-5-5-|

Verse:

   E                   Bb5                 C5
e:-------------------|-------------------|-------------------|
B:-------------------|-------------------|-------------------|
G:-9-9-9-9---9-9-9-9-|-------------------|-------------------|
D:-9-9-9-9---9-9-9-9-|-9-9-9---9---9-----|-10-10-10---10--10-|
A:-7-7-7-7---7-7-7-7-|-9-9-9---9---9-----|-10-10-10---10--10-|
E:-0-0-0-0---0-0-0-0-|-6-6-6---6---6-----|-8--8--8----8---8--|
   A nine digit number

   E                   Bb5                 C5
e:-------------------|-------------------|-------------------|
B:-------------------|-------------------|-------------------|
G:-9-9-9-9---9-9-9-9-|-------------------|-------------------|
D:-9-9-9-9---9-9-9-9-|-9-9-9---9---9-----|-10-10-10---10--10-|
A:-7-7-7-7---7-7-7-7-|-9-9-9---9---9-----|-10-10-10---10--10-|
E:-0-0-0-0---0-0-0-0-|-6-6-6---6---6-----|-8--8--8----8---8--|
 For every living soul

   E                   Bb5                 C5
e:-------------------|-------------------|-------------------|
B:-------------------|-------------------|-------------------|
G:-9-9-9-9---9-9-9-9-|-------------------|-------------------|
D:-9-9-9-9---9-9-9-9-|-9-9-9---9---9-----|-10-10-10---10--10-|
A:-7-7-7-7---7-7-7-7-|-9-9-9---9---9-----|-10-10-10---10--10-|
E:-0-0-0-0---0-0-0-0-|-6-6-6---6---6-----|-8--8--8----8---8--|
That's all they talk about

   A5
e:-------------------|-------------------|
B:-------------------|-------------------|
G:-2---3-2--3-2--3-2-|-3-2---2---2-------|
D:-2---2-2--2-2--2-2-|-2-2---2---2-------|
A:-0---0-0--0-0--0-0-|-0-0---0---0-------|
E:-------------------|-------------------|
   At Data Control

   E                   Bb5                 C5
e:-------------------|-------------------|-------------------|
B:-------------------|-------------------|-------------------|
G:-9-9-9-9---9-9-9-9-|-------------------|-------------------|
D:-9-9-9-9---9-9-9-9-|-9-9-9---9---9-----|-10-10-10---10--10-|
A:-7-7-7-7---7-7-7-7-|-9-9-9---9---9-----|-10-10-10---10--10-|
E:-0-0-0-0---0-0-0-0-|-6-6-6---6---6-----|-8--8--8----8---8--|
They know everything about you

   E                   Bb5                 C5
e:-------------------|-------------------|-------------------|
B:-------------------|-------------------|-------------------|
G:-9-9-9-9---9-9-9-9-|-------------------|-------------------|
D:-9-9-9-9---9-9-9-9-|-9-9-9---9---9-----|-10-10-10---10--10-|
A:-7-7-7-7---7-7-7-7-|-9-9-9---9---9-----|-10-10-10---10--10-|
E:-0-0-0-0---0-0-0-0-|-6-6-6---6---6-----|-8--8--8----8---8--|
Keeping secrets is too fucking hard

   E                   Bb5                 C5
e:-------------------|-------------------|-------------------|
B:-------------------|-------------------|-------------------|
G:-9-9-9-9---9-9-9-9-|-------------------|-------------------|
D:-9-9-9-9---9-9-9-9-|-9-9-9---9---9-----|-10-10-10---10--10-|
A:-7-7-7-7---7-7-7-7-|-9-9-9---9---9-----|-10-10-10---10--10-|
E:-0-0-0-0---0-0-0-0-|-6-6-6---6---6-----|-8--8--8----8---8--|
Your life is all recordrd for you

   A5
e:-------------------|-------------------|
B:-------------------|-------------------|
G:-2---3-2--3-2--3-2-|-3-2---2---2-------|
D:-2---2-2--2-2--2-2-|-2-2---2---2-------|
A:-0---0-0--0-0--0-0-|-0-0---0---0-------|
E:-------------------|-------------------|
In holes punched in computer cards

Chorus:

   E5                  F5        G5
e:-------------------|-------------------|
B:-5-5-5-5---5-5-5-5-|-6-6-6-6---8-8-8-8-|
G:-4-4-4-4---4-4-4-4-|-5-5-5-5---7-7-7-7-|
D:-2-2-2-2---2-2-2-2-|-3-3-3-3---5-5-5-5-|
A:-------------------|-------------------|
E:-------------------|-------------------|
   Data Control       (digital readout)

   E5                  F5        G5
e:-------------------|-------------------|
B:-5-5-5-5---5-5-5-5-|-6-6-6-6---8-8-8p0-|
G:-4-4-4-4---4-4-4-4-|-5-5-5-5---7-7-7p0-|
D:-2-2-2-2---2-2-2-2-|-3-3-3-3---5-5-5---|
A:-------------------|-------------------|
E:-------------------|-------------------|
   Data Control       (perforated feedout)

   E5                  F5        G5
e:-------------------|-------------------|
B:-5-5-5-5---5-5-5-5-|-6-6-6-6---8-8-8p0-|
G:-4-4-4-4---4-4-4-4-|-5-5-5-5---7-7-7p0-|
D:-2-2-2-2---2-2-2-2-|-3-3-3-3---5-5-5---|
A:-------------------|-------------------|
E:-------------------|-------------------|
   Data Control       (microfilm files)

   A5
e:-------------------|-------------------|
B:-------------------|-------------------|
G:-2---3-2--3-2--3-2-|-3-2---2---2-------|
D:-2---2-2--2-2--2-2-|-2-2---2---2-------|
A:-0---0-0--0-0--0-0-|-0-0---0---0-------|
E:-------------------|-------------------|
   Data Control       (1984 style)

   E5                  F5        G5
e:-------------------|-------------------|
B:-5-5-5-5---5-5-5-5-|-6-6-6-6---8-8-8-8-|
G:-4-4-4-4---4-4-4-4-|-5-5-5-5---7-7-7-7-|
D:-2-2-2-2---2-2-2-2-|-3-3-3-3---5-5-5-5-|
A:-------------------|-------------------|
E:-------------------|-------------------|
   Data

   E5                  F5        G5
e:-------------------|-------------------|
B:-5-5-5-5---5-5-5-5-|-6-6-6-6---8-8-8p0-|
G:-4-4-4-4---4-4-4-4-|-5-5-5-5---7-7-7p0-|
D:-2-2-2-2---2-2-2-2-|-3-3-3-3---5-5-5---|
A:-------------------|-------------------|
E:-------------------|-------------------|
   Data

   E5                  F5        G5
e:-------------------|-------------------|
B:-5-5-5-5---5-5-5-5-|-6-6-6-6---8-8-8p0-|
G:-4-4-4-4---4-4-4-4-|-5-5-5-5---7-7-7p0-|
D:-2-2-2-2---2-2-2-2-|-3-3-3-3---5-5-5---|
A:-------------------|-------------------|
E:-------------------|-------------------|
   Data

   A5
e:-------------------|-------------------|
B:-------------------|-------------------|
G:-2---3-2--3-2--3-2-|-3-2---2---2-------|
D:-2---2-2--2-2--2-2-|-2-2---2---2-------|
A:-0---0-0--0-0--0-0-|-0-0---0---0-------|
E:-------------------|-------------------|
   Data, Data, Data, Data, Data, Data, Data Control

Outro: long guitar improvisation over A5 577XXX and finally
ending with E 079900.

TP.
comments
We did not receive enough feedback on this tab! Please rate:
print report bad tab
1 2 3 4 5
I want to post or [tab]
guest
You may want to rate the tab now too:
select rating
Please do not post tabs as comments. Select "correction" instead!