Oops, an error
Loading. Please wait.

New Day Rising Tab

ver1
ver1

Album

Whole song

More versions @911Tabs.com
7,312 views 30 this week
no commentswrite comment
1 2 3 4 5
excellent!
x 2
add to favorites launch autoscroll
font size
0
reset
Autoscroll
+/-
esc
set tempo
stop
Contributor
WARNING: You are trying to view
                                    content from Ultimate-Guitar.com
                                    in an unauthorized application,
                                    which is prohibited.

                                    Please use an official Ultimate
                                    Guitar Tabs application for iPhone,
                                    iPad or Android to access legitimate
                                    chords, guitar, bass, and drum tabs
                                    from Ultimate-Guitar.com database.

                                    Type "ultimate guitar tabs" in Apple
                                    App Store's or Android Market's
                                    search to find the application.
NEW DAY RISING (Bob Mould/Husker Du)


   Riff 1 Bm                       Riff 2 G
e:-2--2--2--0--2--2--2--2--0--2--|-3--3--3--3--3--3--3--3--3--3--3--3--|
B:-0--0--0--0--0--2--2--2--0--2--|-3--3--3--3--3--3--3--3--3--3--3--3--|
G:-4--4--4--4--4--4--4--4--4--4--|-0--0--0--0--0--0--0--0--0--0--0--0--|
D:-4--4--4--4--4--4--4--4--4--4--|-0--0--0--0--0--0--0--0--0--0--0--0--|
A:-2--2--2--2--2--2--2--2--2--2--|-2--2--2--2--2--2--2--2--2--2--2--2--|
E:-------------------------------|-3--3--3--3--3--3--3--3--3--3--3--3--|

   Riff 3 Asus2
e:-0--0--0--0--0--0--0--0--0--0--0--0--|
B:-0--0--0--0--0--0--0--0--0--0--0--0--|
G:-2--2--2--2--2--2--2--2--2--2--2--2--|
D:-2--2--2--2--2--2--2--2--2--2--2--2--|
A:-0--0--0--0--0--0--0--0--0--0--0--0--|
E:-------------------------------------|

BASIC PATTERN;

Bm (Riff 1) repeated 8 times - G (Riff 2) repeated 2 times - Bm repeated 2 times

G played once and Asus2 (Riff 3) played once.

Repeat ad infinitum with 'New day rising' sung over.

TP
GIRL WHO LIVES ON HEAVEN HILL (Grant Hart)

Chords:

Em 022000    C X32010    G 320033    D XX0232    Em5 X799XX    C5 X355XX


Em Riff (Used during verses):

   Em                              C
e:-------------------------0-------0-------|
B:-------------------------0-------1-------|
G:---------4---2-p-0-0-0---0-------0-------|
D:-2---2---------------2---2-2-2---2-------|
A:-2---2-------------------2-2-2---3-------|
E:-0---0-------------------0-0-0-----------|

INTRO (Live version - same riff used throughout verses):

   Em                                C
e:-----------------------------------0----0--0--|
B:-----------------------------------1----1--1--|
G:-----------------------------------0----0--0--|
D:--2----2--0--2----2--0--2----2-----2----2--2--|
A:--2----2--0--2----2--0--2----2-----3----3--3--|
E:--0----0--0--0----0--0--0----0----------------|

   Em                              C
e:---------------------------------0---0---(0)--|
B:---------------------------------15--15-b(17)-|
G:----------------------------------------------|
D:-2----2--2--2----2--2--2----2-----------------|
A:-2----2--2--2----2--2--2----2-----------------|
E:-0----0--0--0----0--0--0----0-----------------|

   Em                                C
e:-----------------------------------0----0--0--|
B:-----------------------------------1----1--1--| Played
G:-----------------------------------0----0--0--| twice
D:--2----2--0--2----2--0--2----2-----2----2--2--|
A:--2----2--0--2----2--0--2----2-----3----3--3--|
E:--0----0--0--0----0--0--0----0----------------|

Em                                 C           Em           C
There's a girl who lives on Heaven Hill.
Em                    C                        Em           C
I go up to her cabin still.
Em5                         C5                 Em Riff
She keeps a lantern lit for me.
Em                           C                 Em
And a bottle up on her mantlepiece


G                           D                  Em           C
She's the girl who lives on Heaven Hill
G                           D
She's the girl who lives on Heaven Hill

   Em                             C           Em               C
e:-0--------------------0-------------------|-0---------0------0---(0)--|
B:-0-----------------8----------------------|-0-----------8----15-b(17)-|
G:-0-----------------0----------------------|-0-----------0-------------|
D:-2-----------------10-----------10-10-10--|-2----------(10)-----------|
A:-2------------------------------10-10-10--|-2-------------------------|
E:---------------------------0----8--8--8---|-0-------------------------|

Em                                     C        Em Riff
She's got a big room and it's always a mess
Em                            C                 Em             C
Worn out shoes and a worn out dress
Em5                                    C5       Em Riff
A worn out smile that she'll wear some more
Em                                C             Em
And a worn out welcome mat by the door


G                           D                  Em           C
She's the girl who lives on Heaven Hill
G                           D
She's the girl who lives on Heaven Hill


   Em                            C     Em
e:---------------------7-----7-----7-----7-----7-----7-----7-----7---|
B:-------------------8-----8-----8-----8-----8-----8-----8-----8-----|
G:-------------------------------------------------------------------|
D:-2-----------------------------------------------------------------|
A:-2-----------------------------------------------------------------|
E:-0-----------------------------------------------------------------|

Solo:

   Em                         C          Em                       C
e:------------------------------------|-----------------------------------|
B:------------------------------------|-----------------------------------|
G:----------------------4-4---5---7---|-----------------------------------|
D:-----2-----2----------4-4-----------|------2-----2---2-2-2-5----7---9---|
A:-2-2-2---3-2----2-2---2-2---3---5---|--2-2-2---3-2---2-2-2-3----5---7---|
E:-0-0------------0-0-----------------|--0-0-----------0-0-0--------------|


   Em                                C   Em                                C
e:-------------------------------------|-------------------------------------|
B:-------------------------------------|-------------------------------------|
G:-9-9-11---12-11-9------11-12-12----5-|-9-9-11---12-11-9------11-12-12----5-|
D:-------------------------------------|-------------------------------------|
A:-7-7-9----10-9--7------9--10-10----3-|-7-7-9----10-9--7------9--10-10----3-|
E:-0-0------------0--------------------|-0-0------------0--------------------|


   Em                                   C
e:-----------0---(0)------------------------|
B:-----------15-b(17)--0--0--0--0--0---(0)--|
G:-9-9-9---------------14-12-14-12-14-b(16)-|
D:------------------------------------------|
A:-7-7-7------------------------------------|
E:-0-0-0------------------------------------|


   Em                                        C
e:---------------------------------------------------|
B:---------------------------------------------------|
G:-15-16-14-p-12---------12--------------------------|
D:---------------14-p-12----14-12-14-12---------10-9-|
A:--------------------------------------12-p-10------|
E:---------------------------------------------------|


   Em                                                             C
e:------------------------------------------------------------------------|
B:----------------------------------------------------------------5-3-b-4-|
G:------------------------------------------------------------------------|
D:-7---10p9p7-10p9p7-10p9p7-10p9p7-10p9p7-10p9p7-10p9p7-------------------|
A:------------------------------------------------------------------------|
E:------------------------------------------------------------------------|


   Em
e:------------------------0--0-0--0---(0)--0---0---0---0---0---0---0---0---0--|
B:-0--3--5-3-5-3-5-3-5-3--10-8-10-15-b(17)(17)(17)(17)(17)(17)(17)(17)(17)(17)|
G:----------------------------------------------------------------------------|
D:----------------------------------------------------------------------------|
A:----------------------------------------------------------------------------|
E:----------------------------------------------------------------------------|


G                           D                  Em           C
She's the girl who lives on Heaven Hill
G                           D
She's the girl who lives on Heaven Hill

   Em                            C     Em
e:---------------------7-----7-----7-----7-----7-----7-----7-----7---|
B:-------------------8-----8-----8-----8-----8-----8-----8-----8-----|
G:-------------------------------------------------------------------|
D:-2-----------------------------------------------------------------|
A:-2-----------------------------------------------------------------|
E:-0-----------------------------------------------------------------|


Em                                        C           Em              C
I'd trade big mountains and rooms full of gold
Em                                              C     Em              C
For just one look at the beauty of this woman's soul
Em                                   C                Em              C
Up on Heaven Hill is where I want to be
Em                                       C            Em
That girl, that bottle, that matress and me


G                           D                         Em              C
She's the girl who lives on Heaven Hill
G                           D                         Em              C
She's the girl who lives on Heaven Hill
G                           D                         Em              C
She's the girl who lives on Heaven Hill
G                           D
She's the girl who lives on Heaven Hill

End Riff:

   Em                      Em(hold).
e:-------------------------0---------------|
B:-------------------------0---------------|
G:---------0---------------0---------------|
D:-2---2---0---2-2---2-----2---------------|
A:-2---3-------2-3---2-2---2---------------|
E:-0-------------------3---0---------------|


TP.


I APOLOGIZE (Bob Mould)

Note: Keep your little finger on the B and E strings (third fret) throughout.

Intro Riff (also used for verses):

   G         D         Csus2     D
e:-----3-3-------------3---3---------------|
B:-----3-3---3---3-3---3---3-3---3---3-3---| Played
G:-0---0-0---2---2-2---0---0-0---2---2-2---| four
D:-0---0-0---0---0-0---2-----0---0---0-0---| times
A:-2---------0---------3---2-0-------------|
E:-3---------------------------------------|

Verse (with the above riff):

G         D     Csus2    D
All these crazy mixed up lies
G        D    Csus2 D
Floating all arou - nd
G      D      Csus2      D         G      D     Csus2   D
Making these assumptions brings me down

   Csus2                 D                         G
e:-3---3-3---3-3---3-3-----------------------------3---3---3-3---3---|
B:-3---3-3---3-3---3-3---3---3-3---3-3---3-3-------3---3---3-3---3---|
G:-0---0-0---0-0---0-0---2---2-2---2-2---2-2---0-0-0---0---0-0---0---|
D:-2---2-2---2-2---2-2---0---0-0---0-0---0-0-------0---0---0-0---0---|
A:-3---3-3---3-3---3-3-------------------------3-2-2---2---2-2---2---|
E:-------------------------------------------------3---3---3-3---3---|
   And       you   get   tight lipped how do   I know what   you

    Fsus2
e:--------3---------3---------3---------3--|
B:--------3---------3---------3---------3--|
G:--------0---------0---------0---------0--|
D:-----------------------------------------|
A:--3-3-------3-3-------3-3-------3-3------|
E:--1-1-------1-1-------1-1-------1-1------|
    think.

      Csus2       G           D
Is it something I said when I lost my mind?
Csus2      G      D                Csus2    G       D
Temper too quick, makes me blind                       I apolo.......

    G                                       D
e:------3-3-------3-3-------3-3---3---3-3------------------------------------|
B:------3-3-------3-3-------3-3---3---3-3---3-3---3---3-3---3---3-3---3---3-3|
G:------0-0-------0-0---0---0-0---0---0-0---2-2---2---2-2---2---2-2---2---0-0|
D:--0---0-0---0---0-0-----------------------0-0---0---0-0---0---0-0---0------|
A:--2---------0---------2---------3---------------------------------------3-2|
E:--3------------------------------------------------------------------------|
    I         a    -    pol  -    o    -    gize

    G                                       D
e:------3-3-------3-3-------3-3---3---3-3------------------------------------|
B:------3-3-------3-3-------3-3---3---3-3---3-3---3---3-3---3---3-3---3---3-3|
G:------0-0-------0-0---0---0-0---0---0-0---2-2---2---2-2---2---2-2---2---0-0|
D:--0---0-0---0---0-0-----------------------0-0---0---0-0---0---0-0---0------|
A:--2---------0---------2---------3---------------------------------------3-2|
E:--3------------------------------------------------------------------------|
    I         a    -    pol  -    o    -    gize

    G                                       D
e:------3-3-------3-3-------3-3---3---3-3------------------------------------|
B:------3-3-------3-3-------3-3---3---3-3---3-3---3---3-3---3---3-3---3---3-3|
G:------0-0-------0-0---0---0-0---0---0-0---2-2---2---2-2---2---2-2---2---0-0|
D:--0---0-0---0---0-0-----------------------0-0---0---0-0---0---0-0---0------|
A:--2---------0---------2---------3---------------------------------------3-2|
E:--3------------------------------------------------------------------------|
    I         a    -    pol  -    o    -    gize

    G                       Csus2
e:------3-3-------3-3-------3---3---3---|
B:------3-3-------3-3-------3---3---3---| Played
G:------0-0-------0-0-------0---0---0---| three
D:--0---0-0---0---0-0---0---2---2---2---| times
A:--2---------2---------0---3---3---3---|
E:--3-----------------------------------|
    Said      I'm       so-rry
    Said      I'm       so-rry
    Said      I'm       so-rry     now

    D
e:----------------------------------------------------------------------|
B:--3---3-3-------3---3---3-3---3-3-3---3---3-3-------3---3-3---3---3---|
G:--2---2-2-------2---2---2-2---2-2-2---2---2-2-------2---2-2---2---2---|
D:--0---0-0-------0---0---0-0---0-0-0---0---0-0-------0---0-0---0---0---|
A:------------3-2-0-------------------------------3-2-0-----------------|
E:----------------------------------------------------------------------|
    I'ts your turn    can you look me in the eyes         and a-pol-o-

   Csus2                           D
e:-3-3---3---3-3---3---3-3-3-3---3-----|
B:-3-3---3---3-3---3---3-3-3-3---3-3---|
G:-0-0---0---0-0---0---0-0-0-0---0-2---|
D:-2-2---2---2-2---2---2-2-2-2---2-0---|
A:-3-3---3---3-3---3---3-3-3-3---3-----|
E:-------------------------------------|
   gize

   G         D         Csus2     D
e:-----3-3-------------3---3---------------|
B:-----3-3---3---3-3---3---3-3---3---3-3---| Played
G:-0---0-0---2---2-2---0---0-0---2---2-2---| four
D:-0---0-0---0---0-0---2-----0---0---0-0---| times
A:-2---------0---------3---2-0-------------|
E:-3---------------------------------------|

   G      D   Csus2 D        G       D       Csus2  D
So now we sit arou- nd we're staring at the walls
G  D        Csus2 D        G	     D     Csus2    D
We don't do any - thing at all

   Csus2                 D                         G
e:-3---3-3---3-3---3-3-----------------------------3---3---3-3---3---|
B:-3---3-3---3-3---3-3---3---3-3---3-3---3-3-------3---3---3-3---3---|
G:-0---0-0---0-0---0-0---2---2-2---2-2---2-2---0-0-0---0---0-0---0---|
D:-2---2-2---2-2---2-2---0---0-0---0-0---0-0-------0---0---0-0---0---|
A:-3---3-3---3-3---3-3-------------------------3-2-2---2---2-2---2---|
E:-------------------------------------------------3---3---3-3---3---|
   Take   out   the      garbage,  maybe,      but the dishes don't get

    Fsus2
e:--------3---------3---------3---------3--|
B:--------3---------3---------3---------3--|
G:--------0---------0---------0---------0--|
D:-----------------------------------------|
A:--3-3-------3-3-------3-3-------3-3------|
E:--1-1-------1-1-------1-1-------1-1------|
    done.

      Csus2       G           D
Is it something I said when I lost my mind?
Csus2      G      D                Csus2    G       D
Temper too quick, makes me blind                       I apolo.......

    G                                       D
e:------3-3-------3-3-------3-3---3---3-3------------------------------------|
B:------3-3-------3-3-------3-3---3---3-3---3-3---3---3-3---3---3-3---3---3-3|
G:------0-0-------0-0---0---0-0---0---0-0---2-2---2---2-2---2---2-2---2---0-0|
D:--0---0-0---0---0-0-----------------------0-0---0---0-0---0---0-0---0------|
A:--2---------0---------2---------3---------------------------------------3-2|
E:--3------------------------------------------------------------------------|
    I         a    -    pol  -    o    -    gize

    G                                       D
e:------3-3-------3-3-------3-3---3---3-3------------------------------------|
B:------3-3-------3-3-------3-3---3---3-3---3-3---3---3-3---3---3-3---3---3-3|
G:------0-0-------0-0---0---0-0---0---0-0---2-2---2---2-2---2---2-2---2---0-0|
D:--0---0-0---0---0-0-----------------------0-0---0---0-0---0---0-0---0------|
A:--2---------0---------2---------3---------------------------------------3-2|
E:--3------------------------------------------------------------------------|
    I         a    -    pol  -    o    -    gize

    G                                       D
e:------3-3-------3-3-------3-3---3---3-3------------------------------------|
B:------3-3-------3-3-------3-3---3---3-3---3-3---3---3-3---3---3-3---3---3-3|
G:------0-0-------0-0---0---0-0---0---0-0---2-2---2---2-2---2---2-2---2---0-0|
D:--0---0-0---0---0-0-----------------------0-0---0---0-0---0---0-0---0------|
A:--2---------0---------2---------3---------------------------------------3-2|
E:--3------------------------------------------------------------------------|
    I         a    -    pol  -    o    -    gize

    G                       Csus2
e:------3-3-------3-3-------3---3---3---|
B:------3-3-------3-3-------3---3---3---| Played
G:------0-0-------0-0-------0---0---0---| three
D:--0---0-0---0---0-0---0---2---2---2---| times
A:--2---------2---------0---3---3---3---|
E:--3-----------------------------------|
    Said      I'm       so-rry
    Said      I'm       so-rry
    Said      I'm       so-rry     now

    D
e:----------------------------------------------------------------------|
B:--3---3-3-------3---3---3-3---3-3-3---3---3-3-------3---3-3---3---3---|
G:--2---2-2-------2---2---2-2---2-2-2---2---2-2-------2---2-2---2---2---|
D:--0---0-0-------0---0---0-0---0-0-0---0---0-0-------0---0-0---0---0---|
A:------------3-2-0-------------------------------3-2-0-----------------|
E:----------------------------------------------------------------------|
    I'ts your turn    can you look me in the eyes         and a-pol-o-


   Csus2                           D
e:-3-3---3---3-3---3---3-3-3-3---3-----|
B:-3-3---3---3-3---3---3-3-3-3---3-3---|
G:-0-0---0---0-0---0---0-0-0-0---0-2---|
D:-2-2---2---2-2---2---2-2-2-2---2-0---|
A:-3-3---3---3-3---3---3-3-3-3---3-----|
E:-------------------------------------|
   gize

   G         D         Csus2     D
e:-----3-3-------------3---3---------------|
B:-----3-3---3---3-3---3---3-3---3---3-3---| Played
G:-0---0-0---2---2-2---0---0-0---2---2-2---| four
D:-0---0-0---0---0-0---2-----0---0---0-0---| times
A:-2---------0---------3---2-0-------------|
E:-3---------------------------------------|


G         D     Csus2    D
All these crazy mixed up lies
G        D   Csus2 D
Floating all a-r-ound
G      D      Csus2      D         G     D   Csus2   D
Making these assumptions brings me down

   Csus2                 D                         G
e:-3---3-3---3-3---3-3-----------------------------3---3---3-3---3---|
B:-3---3-3---3-3---3-3---3---3-3---3-3---3-3-------3---3---3-3---3---|
G:-0---0-0---0-0---0-0---2---2-2---2-2---2-2---0-0-0---0---0-0---0---|
D:-2---2-2---2-2---2-2---0---0-0---0-0---0-0-------0---0---0-0---0---|
A:-3---3-3---3-3---3-3-------------------------3-2-2---2---2-2---2---|
E:-------------------------------------------------3---3---3-3---3---|
       And   you   get   tight-lipped, how do  I know  what you

    Fsus2
e:--------3---------3---------3---------3--|
B:--------3---------3---------3---------3--|
G:--------0---------0---------0---------0--|
D:-----------------------------------------|
A:--3-3-------3-3-------3-3-------3-3------|
E:--1-1-------1-1-------1-1-------1-1------|
    think.

      Csus2       G           D
Is it something I said when I lost my mind?
Csus2      G      D                Csus2    G       D
Temper too quick, makes me blind                       I apolo.......

    G                                       D
e:------3-3-------3-3-------3-3---3---3-3------------------------------------|
B:------3-3-------3-3-------3-3---3---3-3---3-3---3---3-3---3---3-3---3---3-3|
G:------0-0-------0-0---0---0-0---0---0-0---2-2---2---2-2---2---2-2---2---0-0|
D:--0---0-0---0---0-0-----------------------0-0---0---0-0---0---0-0---0------|
A:--2---------0---------2---------3---------------------------------------3-2|
E:--3------------------------------------------------------------------------|
    I         a    -    pol  -    o    -    gize

    G                                       D
e:------3-3-------3-3-------3-3---3---3-3------------------------------------|
B:------3-3-------3-3-------3-3---3---3-3---3-3---3---3-3---3---3-3---3---3-3|
G:------0-0-------0-0---0---0-0---0---0-0---2-2---2---2-2---2---2-2---2---0-0|
D:--0---0-0---0---0-0-----------------------0-0---0---0-0---0---0-0---0------|
A:--2---------0---------2---------3---------------------------------------3-2|
E:--3------------------------------------------------------------------------|
    I         a    -    pol  -    o    -    gize

    G                                       D
e:------3-3-------3-3-------3-3---3---3-3------------------------------------|
B:------3-3-------3-3-------3-3---3---3-3---3-3---3---3-3---3---3-3---3---3-3|
G:------0-0-------0-0---0---0-0---0---0-0---2-2---2---2-2---2---2-2---2---0-0|
D:--0---0-0---0---0-0-----------------------0-0---0---0-0---0---0-0---0------|
A:--2---------0---------2---------3---------------------------------------3-2|
E:--3------------------------------------------------------------------------|
    I         a    -    pol  -    o    -    gize

    G                       Csus2
e:------3-3-------3-3-------3---3---3---|
B:------3-3-------3-3-------3---3---3---| Played
G:------0-0-------0-0-------0---0---0---| three
D:--0---0-0---0---0-0---0---2---2---2---| times
A:--2---------2---------0---3---3---3---|
E:--3-----------------------------------|
    Said      I'm       so-rry
    Said      I'm       so-rry
    Said      I'm       so-rry     now

    D
e:----------------------------------------------------------------------|
B:--3---3-3-------3---3---3-3---3-3-3---3---3-3-------3---3-3---3---3---|
G:--2---2-2-------2---2---2-2---2-2-2---2---2-2-------2---2-2---2---2---|
D:--0---0-0-------0---0---0-0---0-0-0---0---0-0-------0---0-0---0---0---|
A:------------3-2-0-------------------------------3-2-0-----------------|
E:----------------------------------------------------------------------|
    I'ts your turn    can you look me in the eyes         and a-pol-o-


   Csus2                           D
e:-3-3---3---3-3---3---3-3-3-3---3-----|
B:-3-3---3---3-3---3---3-3-3-3---3-3---|
G:-0-0---0---0-0---0---0-0-0-0---0-2---|
D:-2-2---2---2-2---2---2-2-2-2---2-0---|
A:-3-3---3---3-3---3---3-3-3-3---3-----|
E:-------------------------------------|
   gize

   G         D         Csus2     D
e:-----3-3-------------3---3---------------|
B:-----3-3---3---3-3---3---3-3---3---3-3---| Played
G:-0---0-0---2---2-2---0---0-0---2---2-2---| four
D:-0---0-0---0---0-0---2-----0---0---0-0---| times
A:-2---------0---------3---2-0-------------|
E:-3---------------------------------------|

   G         D         Csus2     D
e:-----3-3-------------3---3---------------|
B:-----3-3---3---3-3---3---3-3---3---3-3---| Played
G:-0---0-0---2---2-2---0---0-0---2---2-2---| three
D:-0---0-0---0---0-0---2-----0---0---0-0---| times
A:-2---------0---------3---2-0-------------|
E:-3---------------------------------------|
                       I   a  -  pol - o -
   gize

G    Csus2 G     Csus2 G   D    G(hold).

TP.

FOLKLORE (Bob Mould)

Chords:

Verse:  G 320033    A7sus4 X02233    Em7 022033    A5 00XXXX    G5 32XXXX

        Em5 022XXX  A5 X022XX


Chorus: Csus2 X32033    A7sus4 X02233    D XX023X


Break:  Asus2 X02200    D XX023X


Ending: Csus2 X32033    Csus2* X30033    D XX023X  Bb X13X3X    Fsus2 13X03X

        Am7   X02010


G               A7sus4
Women sewed the Stars and Stripes
        Em7                    A5 G5   A5 G5
And the men, they fought the wars
G                    A7sus4
The children learned arithmetic
    Em7          A5 G5   A5 G5
And everyone was poor

Em5   A5          Em5         A5
Young man was the hero of the day
Em5       A5     Em5         A5
Long long hours, short short pay


Csus2
Lesson I learned in history book, now

Lesson I learned in history book, now

It's not what they told me

Csus2 A7sus4 Csus2 A7sus4 Csus2 A7sus4
Folk  lore,  folk  lore,  folk  lore
D
Your momma never told you
Csus2 A7sus4 Csus2 A7sus4 Csus2 A7sus4
Folk  lore,  folk  lore,  folk  lore
D
Your momma never told you


G                        A7sus4
Now the women scream for equal rights
      Em7                    A5 G5   A5 G5
Their man wants to have an affair
G                 A7sus4
Children learn to hate the world
    Em7             A5 G5   A5 G5
And no one seems to care

Em5     A5        Em5     A5
Now the kids play vids instead
Em5              A5        Em5    A5
Their heroes are living on Wonder Bread

Csus2
Lesson I learned in history book, now

Lesson I learned in history book, now

It's not what they told me

Csus2 A7sus4 Csus2 A7sus4 Csus2 A7sus4
Folk  lore,  folk  lore,  folk  lore
D
Your momma never told you
Csus2 A7sus4 Csus2 A7sus4 Csus2 A7sus4
Folk  lore,  folk  lore,  folk  lore
D
Your momma never told you that


Break:

Asus2    D (played four times)


Ending:

Csus2       Csus2* D
Some things never  change
Csus2            Csus2* D
Some things stay the    same
Csus2       Csus2* D
Some things rea  - rranged
Bb  Fsus2   Csus2                             Am7 (hold)
One thing I know for sure, your heroes always die

TP.

IF I TOLD YOU (Grant Hart)

Chords:    G5(D bass) XX003X    Csus2 X32033   Bb X13X3X    Fsus2(add D) 13X03X

           G 320033

Intro:

   G5(D bass)     Csus2       G5(D bass) Csus2       Bb            Fsus2(add D)
e:--------------------3-----|----------------3-----|-------------------3-----|
B:(3)(3)-----(3)--3-----3---|(3)(3)------------3---|--------------(3)----3---|
G:-0--0-------0---0-------0-|-0--0---------------0-|---------------0-------0-|
D:-0--0---2p0-0---2---------|-0--0---2p0-2---------|-3-3---------------------|
A:----------------3---------|------------3---------|-1-1---3p1-----3---------|
E:--------------------------|----------------------|-----------3---1---------|


G                              Bb    Fsus2(add D)
If I told you it wasn't easy
G                                      Bb    Fsus2(add D)
If I told you now would you believe me
G                                  Bb    Fsus2(add D)
I couldn't convince you if I tried
G                                         Bb    Fsus2(add D)
You weren't around the times that I cried

Riff:
e:----------------------------------------|
B:-1-1-1-1---0-0-0-0---3-3-3-3---1-1-1----| Played
G:-2-2-2-2---0-0-0-0---3-3-3-3---2-2-2----| four
D:-----------------------------------3----| times.
A:----------------------------------------|
E:----------------------------------------|


G                                       Bb    Fsus2(add D)
If I told you it wasn't easy
G                                       Bb    Fsus2(add D)
If I told you now would you believe me
G                                       Bb    Fsus2(add D)
I couldn't convince you if I tried
G                                       Bb    Fsus2(add D)
You weren't around the times that I cried

And I was crying

e:----------------------------------------|
B:-1-1-1-1---0-0-0-0---3-3-3-3---1-1-1----| Played
G:-2-2-2-2---0-0-0-0---3-3-3-3---2-2-2----| four
D:-----------------------------------3----| times.
A:----------------------------------------|
E:----------------------------------------|

   G                                                         Fsus2
e:-------------------------------------|---------------------1---|
B:-3---3---5---3---3---5---3---5---3---|-3---3---5-p-3-p-0---1---| Played
G:-0---0---0---0---0---0---0---0---0---|-0---0---0---0---0---0---| four
D:-5---5-----------5-------------------|-5---5---------------3---| times
A:-------------------------------------|-------------------------|
E:-------------------------------------|-------------------------|
           If  I       told    you

Lead line played over last four bars of the above Riff:

e:---------------------10--7---|-10--10--12----------------------|
B:-8---8---10--8---10----------|-------------13--12--10--10--12--|
G:-----------------------------|---------------------------------|
D:-----------------------------|---------------------------------|
A:-----------------------------|---------------------------------|
E:-----------------------------|---------------------------------|

Riff:
e:----------------------------------------|
B:-1-1-1-1---0-0-0-0---3-3-3-3---1-1-1----| Played
G:-2-2-2-2---0-0-0-0---3-3-3-3---2-2-2----| eight
D:-----------------------------------3----| times.
A:----------------------------------------|
E:----------------------------------------|


   G               Csus2               G               Csus2
e:-3---3-----------3---3---3---3---3-|-3---3-----------3---3---3---3---3-|
B:-3---3---3--(3)--3---3---3---3---3-|-3---3---3--(3)--3---3---3---3---3-|Played
G:-0---0---0--(0)--0---0---0---0---0-|-0---0---0--(0)--0---0---0---0---0-|three
D:-0---0---2-p-0---------------------|-0---0---2-p-0---2---2---2---2---2-|times
A:-----------------3-----------------|-----------------3-----------3-----|
E:-----------------------------------|-----------------------------------|
               If  I   to- ld  you                 If  I   to- ld  you

   Bb                  Fsus2          G(hold)
e:----------------------------------|-3--------------------------------|
B:---------------------3------------|-3--------------------------------|
G:---------------------0------------|-0--------------------------------|
D:-3---3----------------------------|-0--------------------------------|
A:-1---1---3-p-1-------3------------|-2--------------------------------|
E:-----------------3---1------------|-3--------------------------------|

TP.

CELEBRATED SUMMER (Bob Mould)

This is an extended and slightly edited version of the excellent Tab
originally posted by Gary Von Colln - (gary@maple.mc.com)

Corrections to opening riff kindly supplied by Philip Yam.


Intro:

  Guitar:
e:--------------------|--------------|-----------|
B:--3-3-3-3---3-3-3---|--3--3--3--3--|-----------|
G:--4-4-4-4---4-2-0---|--0--0--2--0--|-----0--2--|
D:--------------------|--4--------0--|-----0--2--|
A:--------------------|--------------|--4-----0--|
E:--------------------|--------------|-----------|

 Bass arranged for guitar:
e:--------------------|--------------|-----------|
B:--------------------|--------------|-----------|
G:--------------------|--------------|-----------|
D:--------------------|--------------|-----------|
A:--------------------|-----0--5-----|-----5--0--|
E:--3--3--3--3--3--3--|--3-----------|--3--------|

 Guitar:
e:--------------------|--------------|-----------|
B:--3-3-3-3---3-3-3---|--3--3--3--3--|-----------|
G:--4-4-4-4---4-2-0---|--0--0--2--0--|-----0--2--|
D:--------------------|--4--------0--|-----0--2--|
A:--------------------|--------------|--4-----0--|
E:--------------------|--------------|-----------|

 Guitar:                                    Asus4 A    Asus4     A
e:--------------------|--------------|---------------|--------------|
B:--3-3-3-3---3-3-3---|--3--3--3--3--|------3---3-2--|-3--3-3--3-2--|
G:--4-4-4-4---4-2-0---|--0--0--2--0--|------2---2-2--|-2--2-2--2-2--|
D:--------------------|--4--------0--|---2--2---2-2--|-2--2-2--2-2--|
A:--------------------|--------------|-4-0-----------|--------------|
E:--------------------|--------------|---------------|--------------|


Verse(Same chords for each verse):


   D                       Csus2
e:-----------------------|-----------------------|
B:-3---3---3-3---3---3---|-3---3---3-3---3---3---|
G:-2---2---2-2---2---2---|-0---0---0-0---0---0---|
D:-0---0---0-0---0---0---|-2---2---2-2---2---2---|
A:-----------------------|-3---3---3-3---3---3---|
E:-----------------------|-----------------------|
   Love and hate were      in the air like

   G                       Asus4
e:-----------------------|-----------------------|
B:-3---3---3-3---3---3---|-3---3---3-3---3---3---|
G:-0---0---0-0---0---0---|-2---2---2-2---2---2---|
D:-0---0---0-0---0---0---|-2---2---2-2---2---2---|
A:-2---2---2-2---2---2---|-0---0---0-0---0---0---|
E:-3---3---3-3---3---3---|-----------------------|
   pollen  from  a         flower

   G/B                   Csus2
e:-3---3-3---3-3---3-----|-3---3-3---3-3---3-----|
B:-3---3-3---3-3---3-----|-3---3-3---3-3---3-----|
G:-0---0-0---0-0---0-----|-0---0-0---0-0---0-----|
D:-----------------------|-2---2-2---2-2---2-----|
A:-2---2-2---2-2---2-----|-3---3-3---3-3---3-----|
E:-----------------------|-----------------------|

   Em7(Riff)               Asus4
e:-----------------------|-----------------------|
B:-----3-----------------|-----------------------|
G:-----0-----------------|-2---------------------|
D:-----2-----------------|-2---------------------|
A:-----2-----------------|-0---------------------|
E:-0-------0---2---3-----|-----------------------|

   D                       Csus2
e:-----------------------|-----------------------|
B:-3---3---3-3---3---3---|-3---3---3-3---3---3---|
G:-2---2---2-2---2---2---|-0---0---0-0---0---0---|
D:-0---0---0-0---0---0---|-2---2---2-2---2---2---|
A:-----------------------|-3---3---3-3---3---3---|
E:-----------------------|-----------------------|
   Sometime in             April time we

   G                       Asus4
e:-----------------------|-----------------------|
B:-3---3---3-3---3---3---|-3---3---3-3---3---3---|
G:-0---0---0-0---0---0---|-2---2---2-2---2---2---|
D:-0---0---0-0---0---0---|-2---2---2-2---2---2---|
A:-2---2---2-2---2---2---|-0---0---0-0---0---0---|
E:-3---3---3-3---3---3---|-----------------------|
   add another             hour

   G/B                     Csus2
e:-3---3-3---3-3---3-----|-3---3-3---3-3---3-----|
B:-3---3-3---3-3---3-----|-3---3-3---3-3---3-----|
G:-0---0-0---0-0---0-----|-0---0-0---0-0---0-----|
D:-----------------------|-2---2-2---2-2---2-----|
A:-2---2-2---2-2---2-----|-3---3-3---3-3---3-----|
E:-----------------------|-----------------------|

   Em7(Riff)               Asus4
e:-----------------------|-----------------------|
B:-----3-----------------|-----------------------|
G:-----0-----------------|-2---------------------|
D:-----2-----------------|-2---------------------|
A:-----2-----------------|-0---------------------|
E:-0-------0---2---3-----|-----------------------|


e:--------------------|--------------|-----------|
B:--3-3-3-3---3-3-3---|--3--3--3--3--|-----------|
G:--4-4-4-4---4-2-0---|--0--0--2--0--|-----0--2--|
D:--------------------|--4--------0--|-----0--2--|
A:--------------------|--------------|--4-----0--|
E:--------------------|--------------|-----------|
I guess I better think up a way to spend the time


e:--------------------|--------------|-----------|
B:--3-3-3-3---3-3-3---|--3--3--3--3--|-----------|
G:--4-4-4-4---4-2-0---|--0--0--2--0--|-----0--2--|
D:--------------------|--4--------0--|-----0--2--|
A:--------------------|--------------|--4-----0--|
E:--------------------|--------------|-----------|
Just when I'm ready to sit inside it's summertime


e:--------------------|--------------|-----------|
B:--3-3-3-3---3-3-3---|--3--3--3--3--|-----------|
G:--4-4-4-4---4-2-0---|--0--0--2--0--|-----0--2--|
D:--------------------|--4--------0--|-----0--2--|
A:--------------------|--------------|--4-----0--|
E:--------------------|--------------|-----------|
Should I go fishing or get a friend to hang around

                                            Asus4 A    Asus4     A
e:--------------------|--------------|---------------|--------------|
B:--3-3-3-3---3-3-3---|--3--3--3--3--|------3---3-2--|-3--3-3--3-2--|
G:--4-4-4-4---4-2-0---|--0--0--2--0--|------2---2-2--|-2--2-2--2-2--|
D:--------------------|--4--------0--|---2--2---2-2--|-2--2-2--2-2--|
A:--------------------|--------------|-4-0-----------|--------------|
E:--------------------|--------------|---------------|--------------|
  It's back to summer, back to basics, hang around


Verse 2:


D                  Csus2           G             Asus4
Getting drunk out  on the beach or playing in a  band

B/G                Csus2           Em7(Riff)     Asus4

D             Csus2               G              Asus4
And getting   out of school meant getting out of hand

B/G                Csus2           Em7(Riff)     Asus4


Chorus (Same chords for each verse):


   G                 D                 Asus4             D/F#
e:-----------------|-----------------|-----------------|-------------------|
B:-3---3-3---3-3---|-3---3-3---3-3---|-3---3-3---3-3---|-3---3-3---3-3-----|
G:-0---0-0---0-0---|-2---2-2---2-2---|-2---2-2---2-2---|-2---2-2---2-2-----|
D:-0---0-0---0-0---|-0---0-0---0-0---|-2---2-2---2-2---|-0---0-0---0-0-----|
A:-2---2-2---2-2---|-----------------|-0---0-0---0-0---|-------------------|
E:-3---3-3---3-3---|-----------------|-----------------|-2-----------------|
   Was this your    celebrated         sum---------------------------------|mer

   G                 D                 Em7(Riff)         Asus4
e:-----------------|-----------------|-----------------|-------------------|
B:-3---3-3---3-3---|-3---3-3---3-3---|-----3-----------|-3---3---3---3-----|
G:-0---0-0---0-0---|-2---2-2---2-2---|-----0-----------|-2---2---2---2-----|
D:-0---0-0---0-0---|-0---0-0---0-0---|-----2-----------|-2---2---2---2-----|
A:-2---2-2---2-2---|-----------------|-----2-----------|-0---0---0---0-----|
E:-3---3-3---3-3---|-----------------|-0-------0--2--3-|-------------------|
   Was this your    celebrated         sum---------------------------------|mer

   G                 D                 Asus4             D/F#
e:-----------------|-----------------|-----------------|-------------------|
B:-3---3-3---3-3---|-3---3-3---3-3---|-3---3-3---3-3---|-3---3-3---3-3-----|
G:-0---0-0---0-0---|-2---2-2---2-2---|-2---2-2---2-2---|-2---2-2---2-2-----|
D:-0---0-0---0-0---|-0---0-0---0-0---|-2---2-2---2-2---|-0---0-0---0-0-----|
A:-2---2-2---2-2---|-----------------|-0---0-0---0-0---|-------------------|
E:-3---3-3---3-3---|-----------------|-----------------|-2-----------------|
   Was this your    celebrated         sum---------------------------------|mer

   G                 D                 Em7(Riff)         Asus4
e:-----------------|-----------------|-----------------|-----------------|
B:-3---3-3---3-3---|-3---3-3---3-3---|-----3-----------|-3---3---3---3---|
G:-0---0-0---0-0---|-2---2-2---2-2---|-----0-----------|-2---2---2---2---|
D:-0---0-0---0-0---|-0---0-0---0-0---|-----2-----------|-2---2---2---2---|
A:-2---2-2---2-2---|-----------------|-----2-----------|-0---0---0---0---|
E:-3---3-3---3-3---|-----------------|-0-------0--2--3-|-----------------|


    D                 F   G   A         D                 F
e:-----------------|-----------------|-----------------|----------------|
B:--3--------------|--6---8---10-----|--3--------------|--6-------------|
G:--2--------------|--5---7---9------|--2--------------|--5-------------|
D:--0--------------|--0---0---0------|--0--------------|--0-------------|
A:-----------------|-----------------|-----------------|----------------|
E:-----------------|-----------------|-----------------|----------------|

    D                 F   G   A         D                 Csus2       D(hold)
e:-----------------|-----------------|-----------------|-----------|-----------|
B:--3--------------|--6---8---10-----|--3--------------|--3--------|--3--------|
G:--2--------------|--5---7---9------|--2--------------|--0--------|--2--------|
D:--0--------------|--0---0---0------|--0--------------|--2--------|--0--------|
A:-----------------|-----------------|-----------------|--3--------|-----------|
E:-----------------|-----------------|-----------------|-----------|-----------|

    D
e:--------------------------|--------------------------|
B:--3--------3--------3-----|--3--------3--------3-----|
G:-----2--------2--------2--|-----2--------2--------2--| Play
D:--------0--------0--------|--------0--------0--------| twice
A:--------------------------|--------------------------|
E:--------------------------|--------------------------|

     D                          Csus2
e:--------------------------|--------------------------|
B:--3--------3--------3-----|--------3-----------3-----|
G:-----2--------2--------2--|-----------0-----------0--|
D:--------0--------0--------|-----2-----------2--------|
A:--------------------------|--3-----------3-----------|
E:--------------------------|--------------------------|
          When the sun dis -   integrates           be-

     G/B                        Asus4
e:--------------------------|--------------------------|
B:--------3-----------3-----|--------3-----------3-----|
G:-----------0-----------0--|-----------2-----------2--|
D:-----0-----------0--------|-----2-----------2--------|
A:--2-----------2-----------|--0-----------0-----------|
E:--------------------------|--------------------------|
    tween   a   wall    of     clouds

    Bm                          Csus2
e:--------------------------|--------------------------|
B:--------3-----------3-----|--------3-----------3-----|
G:-----------4-----------4--|-----------0-----------0--|
D:-----0-----------0--------|-----2-----------2--------|
A:--2-----------2-----------|--3-----------3-----------|
E:--------------------------|--------------------------|

     Em7                        Asus4
e:--------------------------|--------------------------|
B:--------3-----------------|--------3-----------3-----|
G:--------0-----------------|-----------2-----------2--|
D:--------2--2--------------|-----2-----------2--------|
A:-----2-----2--------------|--0-----------0-----------|
E:--0-----------0--2--3-----|--------------------------|

     D                          Csus2
e:--------------------------|--------------------------|
B:--3--------3--------3-----|--------3-----------3-----|
G:-----2--------2--------2--|-----------0-----------0--|
D:--------0--------0--------|-----2-----------2--------|
A:--------------------------|--3-----------3-----------|
E:--------------------------|--------------------------|
          A summer where I     winter at            and

    G/B                        Asus4
e:--------------------------|--------------------------|
B:--------3-----------3-----|--------3-----------3-----|
G:-----------0-----------0--|-----------2-----------2--|
D:-----0-----------0--------|-----2-----------2--------|
A:--2-----------2-----------|--0-----------0-----------|
E:--------------------------|--------------------------|
    no     one   is     al  -  lowed there

   B5                  C5
e:-------------------|-------------------|
B:-------------------|-------------------|
G:-4-4-4-4-4-4-4-4---|-5-5-5-5-5-5-5-5---|
D:-4-4-4-4-4-4-4-4---|-5-5-5-5-5-5-5-5---|
A:-2-2-2-2-2-2-2-2---|-3-3-3-3-3-3-3-3---|
E:-------------------|-------------------|

   Em7(Riff)           A       Asus4
e:-------------------|-------------------|
B:-------------------|-2-2-2---3---3-----|
G:-------------------|-2-2-2---2---2-----|
D:-2---2-------------|-2-2-2---2---2-----|
A:-2---2-------------|-------------------|
E:-0---0---0-2-3-----|-------------------|


Verse 3:


D        Csus2           G              Asus4
Do you remember when the first showfall fell

G/B                Csus2            Em7(Riff)  Asus4

D           Csus2        G                    Asus4
When summer barely had a snowballs chance in hell

G/B                Csus2            Em7(Riff)  Asus4

Chorus:

G             D          Asus4   D/F#
Was this your celebrated sum-----mer
G             D          Em7(Riff)  Asus4
Was this your celebrated sum-----mmer
G             D          Asus4   D/F#
Was this your celebrated sum-----mer

G             D          Em7(Riff)  Asus4

Solo:

   G                 D                 Asus4             D/F#
e:-----------------|-----------------|-----------------|-----------------|
B:-8---8---8-7-----|-7-8---8---7-----|-5---5---5-5-5---|-7---------------|
G:-7---7---7-7---7-|-7-7---7---7-----|-7---7---7-7-7---|-7---------------|
D:---------------7-|-----------------|-0---0---0-0-0---|-0---------------|
A:-----------------|-----------------|-----------------|-----------------|
E:-----------------|-----------------|-----------------|-----------------|

   G                 D                 Em7               Asus4
e:-----------------|-----------------|-----------------|-----------------|
B:-8---8---8-7-----|-8--8-8---8------|-8--8-8--8-8-8-8-|-----------------|
G:-7---7---7-7-----|-7--7-7---7--7---|-7--7-7--7-7-7-7-|-9---9---9---9---|
D:-----------------|-------------7---|-7--7-7--7-7-7-7-|-7---7---7---7---|
A:-----------------|-----------------|-----------------|-----------------|
E:-----------------|-----------------|-----------------|-----------------|

   G                 D                 Asus4             D/F#
e:-----------------|-----------------|-----------------|-----------------|
B:-8---7----7-7----|-8---8-7---7-7---|-----------------|-----------------|
G:-7---7----9-7----|-7---7-7---9-7---|-7-9---9-9-9-7---|-7---7---9-7-5---|
D:-----------------|-----------------|-0-0---0-0-0-0---|-0---0---0-0-0---|
A:-----------------|-----------------|-----------------|-----------------|
E:-----------------|-----------------|-----------------|-----------------|

   G                 D                 Em7               Asus4
e:-----------------|-----------------|-----------------|-----------------|
B:-8---7----7-7----|-8---8-7---7-7---|-----------------|-----------------|
G:-7---7----9-7----|-7---7-7---9-7---|-7---7---7-7-7-7-|-9---9---9---9---|
D:-----------------|-----------------|-7---7---7-7-7-7-|-7---7---7---7---|
A:-----------------|-----------------|-----------------|-----------------|
E:-----------------|-----------------|-----------------|-----------------|

   G                 D                 Asus4             D/F#
e:-----------------|-----------------|-----------------|-----------------|
B:-7h8-8---10p8--7-|-7h8-8---10p8--7-|-7h8-8---10p8--7-|-7h8-8---10p8--7-|
G:-7---7---7--7--7-|-7---7---7--7--7-|-7---7---7--7--7-|-7---7---7--7--7-|
D:-----------------|-----------------|-----------------|-----------------|
A:-----------------|-----------------|-----------------|-----------------|
E:-----------------|-----------------|-----------------|-----------------|

   G                 D                 Em7               Asus4
e:-----------------|-----------------|-----------------|-----------------------|
B:-7h8-8---10p8--7-|-7-7-7---8---7---|-10--10-10-8-10--|-10-10-10-10--10-10-10-|
G:-7---7---7--7--7-|-7-7-7---7---7---|-7---7--7--7-7---|-7--7--7--7---7--7--7--|
D:-----------------|-----------------|-----------------|-0--0--0--0---0--0--0--|
A:-----------------|-----------------|-----------------|-----------------------|
E:-----------------|-----------------|-----------------|-----------------------|

   G                       D
e:-----------------------|------------------------|
B:-9h10--10--12-10-9--10-|-9h10--10---12-10-9--10-|
G:-9-----9---9--9--11-9--|-9-----9----9--9--11-9--|
D:-----------------------|------------------------|
A:-----------------------|------------------------|
E:-----------------------|------------------------|

   Asus4                   D/F#
e:-----------------------|-12-12-12-12------------|
B:-12-10-9----12-10-9----|-12-12-12-12---12-10-9--|
G:-9--9--9----9--9--9----|-9--9--9--9----9--9--9--|
D:-----------------------|------------------------|
A:-----------------------|------------------------|
E:-----------------------|------------------------|

   G                       D
e:-----------------------|------------------------|
B:-9h10---10-10--12-10-9-|-10----10----12-10-9----|
G:-9-9----9--9---9--9--9-|-9-----9-----9--9--9----|
D:-----------------------|------------------------|
A:-----------------------|------------------------|
E:-----------------------|------------------------|

   Em7                     Asus4                    D(hold)
e:-----------------------|------------------------|------------------------|
B:-10----10----12-10-9---|-9h10---10-10---12-10-9-|-3----------------------|
G:-9-----9-----9--9--9---|-9-9----9--9----9--9--9-|-2----------------------|
D:-----------------------|------------------------|-0----------------------|
A:-----------------------|------------------------|------------------------|
E:-----------------------|------------------------|------------------------|

    D
e:--------------------------|--------------------------|
B:--3--------3--------3-----|--3--------3--------3-----|
G:-----2--------2--------2--|-----2--------2--------2--| Play
D:--------0--------0--------|--------0--------0--------| twice
A:--------------------------|--------------------------|
E:--------------------------|--------------------------|

     D                          Csus2
e:--------------------------|--------------------------|
B:--3--------3--------3-----|--------3-----------3-----|
G:-----2--------2--------2--|-----------0-----------0--|
D:--------0--------0--------|-----2-----------2--------|
A:--------------------------|--3-----------3-----------|
E:--------------------------|--------------------------|
          Do      you    re -  member      when  the

     G/B                        Asus4
e:--------------------------|--------------------------|
B:--------3-----------3-----|--------3-----------3-----|
G:-----------0-----------0--|-----------2-----------2--|
D:-----0-----------0--------|-----2-----------2--------|
A:--2-----------2-----------|--0-----------0-----------|
E:--------------------------|--------------------------|
    first       snowfall       fell?

    Bm                          Csus2
e:--------------------------|--------------------------|
B:--------3-----------3-----|--------3-----------3-----|
G:-----------4-----------4--|-----------0-----------0--|
D:-----0-----------0--------|-----2-----------2--------|
A:--2-----------2-----------|--3-----------3-----------|
E:--------------------------|--------------------------|
          Was   that  your     cel  -  e  -  brated

     Em7                        Asus4                    D(hold)
e:--------------------------|--------------------------|-------------------------|
B:--------3-----------------|--------3-----------3-----|-3-----------------------|
G:--------0-----------------|-----------2-----------2--|-2-----------------------|
D:--------2--2--------------|-----2-----------2--------|-0-----------------------|
A:-----2-----2--------------|--0-----------0-----------|-------------------------|
E:--0-----------0--2--3-----|--------------------------|-------------------------|
    sum--------------------------------------------------------------------------|mer


TP.

PERFECT EXAMPLE (Bob Mould)

Note: Use your front pickup and turn down the tone knob.

Chords:

   G     Fsus2 Dsus4 Csus2 Em7
e:-3-----3-----3-----3-----3-----|
B:-3-----3-----3-----3-----3-----|
G:-0-----0-----2-----0-----0-----|
D:-0-----X-----0-----2-----2-----|
A:-2-----3-----X-----3-----2-----|
E:-3-----1-----2-----X-----0-----|

Intro(stress the bass note progression using your thumb for the F and F#):

G  //  /  //  Fsus2  //  Dsus4  //   X 4

G                                 Fsus2              Dsus4
I never look back at it, but it's always in front of me
G                                 Fsus2             Dsus4
It's always worth the hurt, but I know it's hurting me
G                                    Fsus2                Dsus4
I'll never let go of it because it's all that's going for me
G                                Fsus2        Dsus4
I'll put it in the past when the past is history

Fsus2             Dsus4      G                   Csus2
A perfect example is all the things it's done to me
Fsus2                   Dsus4     G           Csus2
I think I might lose my mind, but not my memory
Fsus2             Dsus4   G                    Csus2
A perfect example is what we all wish we could be

Em7                     Dsus4
I think I might lose my mind
Em7                     Fsus2
I think I might lose my mind
Em7                           Dsus4
You think you might lose your mind but
Csus2   //  // // /  //  //  //
not the memory,
Csus2  //  //  //  /  //  //  //

Csus2  //  //  //  /  //  //  //
means a lot to me

G  //  /  //  Fsus2  //  Dsus4  //   X 4

G                                 Fsus2              Dsus4
I never look back at it, but it's always in front of me
G                                 Fsus2             Dsus4
It's always worth the hurt, but I know it's hurting me
G                                    Fsus2                Dsus4
I'll never let go of it because it's all that's going for me
G                                Fsus2        Dsus4
I'll put it in the past when the past is history

Fsus2             Dsus4      G                   Csus2
A perfect example is all the things it's done to me
Fsus2                   Dsus4     G           Csus2
I think I might lose my mind, but not my memory
Fsus2             Dsus4   G                    Csus2
A perfect example is what we all wish we could be

Em7                     Dsus4
I think I might lose my mind
Em7                     Fsus2
I think I might lose my mind
Em7                           Dsus4
You think you might lose your mind but
Csus2   //  // // /  //  //  //
not the memory,
Csus2  //  //  //  /  //  //  //

Csus2  //  //  //  /  //  //  //
means a lot to me

G    / /    /  //    Fsus2  //  Dsus4  //   X 7
The perfect example is
G (hold)
perfect....

TP.

TERMS OF PSYCHIC WARFARE (Grant Hart)

Riff 1 chords:

    C  D   F  G
e:--8--10--X--X---|
B:--8--10--10-12--|
G:--9--11--10-12--|
D:--10-12--10-12--|
A:--10-12--8--10--|
E:--8--10--X--X---|

Riff 1 rhythm:

|	|	/ /		|	|	|	|	/ /
C	C	C_D    	C	C	F	F	C_C

|	|	/ /		|	|	|	|	/
C	C	C_D    	C	C	F	G	C

Chorus chords
    Am G  F  C  F1 G1
e:--X--3--1--0--1--3--|
B:--X--3--1--1--1--3--|
G:--2--0--2--0--0--0--|
D:--2--0--3--2--3--5--|
A:--0--2--3--3--3--5--|
E:--X--3--1--X--1--3--|


Riff 1 repeated twice

Riff 1
I see you walking down the road

And the thoughts within my mind explode
    Am             G                F             C
But having to hold back taught me a lot about control
    Am             G                         F               C
And letting it all loose at once when it was time to let you know
    Am          G             F             C
You occupied my space and you occupied your mind
   Am              G                    F1                      G1
By jumping off the roof to the first conclusion you can find

Riff 1

Riff 1
Now all the silver you can steal

Can't buy a piece of what I feel
     Am          G                     F           C
It's sad but the means they just don't justify the ends
   Am         G               F                 C
To be forever haunted by the ghosts of all your friends
    Am                   G          F            C
Painful, yeah that's the way you've chosen it to be
  Am             G       F1                    G1
C'mon can't you think of anyone besides me?       these are the terms

Riff 1 repeated twice

    Am                     G            F               C
Now don't think you're the only one who harbours a self hate
	Am               G               F          C
I'm just as guilty of selling what my sweet soul creates
    Am         G                    F            C
And don't feel bad the next time my memory comes creepin'
   Am                   G                         F1                G1
You've got your own bed now, I suggest that's the one you sleep in

Riff 1 repeated twice.

TP.


59 TIMES THE PAIN (Bob Mould)

Chords:

Intro Riff: A5 577XXX    G5 355XXX

Verse:      A5 X022XX    G  320033    D XXX23X    E XXX45X

Pre-Chorus: Fsus2 13X033    G 320033    A7sus4 X02233    Gsus2 X2X033

            Csus2 X32033    D XX023X    Em7 022033


Intro Riff:

   A5  E*  G5  A5  E*  G5
e:---------------------------|
B:---------------------------| Played
G:---------------------------| four
D:-7-------5---7-------5-----| times
A:-7-------5---7-------5-----|
E:-5---0---3---5---0---3-----|


Verse Riff:

   A5                          G       D   E
e:---------------------------------3-----------|
B:---------------------------------3---3-/-5---| Played
G:-2--------2-------2--2--2--------0---2-/-4---| four
D:-2--------2-------2--2--2----0---------------| times
A:-0--------0-------0--0--0----2---------------|
E:-----------------------------3---------------|
   The most intense of burning hells
   Blasting expectations into smithereens
   Never feeling normal, can't accept the truth
   Resign myself to hating it, I hate it all


Pre-Chorus (Stress the bass note progression):

Fsus2            G
I can't say that I don't like it
A7sus4                  Gsus2
Because the words won't come out right
Csus2         D           Em7              Fsus2   G
All I feel is bitter, and it won't make it better


Chorus:

   Am                     G           Am                      G
e:-0---0---0----0-----0---3---3-----|-------------------------3----3--|
B:-5---5---3----1-----3---3-------3-|-------------------------3----3--| Played
G:------------------------0---------|-------------------------0----0--| three
D:------------------------0---------|-2---2---2-----0-----2---0----0--| times
A:----------------------------------|-0---0---0-----0-----3---2----2--|
E:----------------------------------|-------------------------3----3--|
   Fif-ty  nine times the pain            I   could never be  like you
   Fif-ty  nine times the pain            I   could never be  with you
   Fif-ty  nine times the pain

Fsus2   G


   A5  E*  G5  A5  E*  G5
e:---------------------------|
B:---------------------------| Played
G:---------------------------| eight
D:-7-------5---7-------5-----| times
A:-7-------5---7-------5-----|
E:-5---0---3---5---0---3-----|


   A5                          G       D   E
e:---------------------------------3-----------|
B:---------------------------------3---3-/-5---| Played
G:-2--------2-------2--2--2--------0---2-/-4---| four
D:-2--------2-------2--2--2----0---------------| times
A:-0--------0-------0--0--0----2---------------|
E:-----------------------------3---------------|
   Never figured out eating 3 meals a day
   When the people sit in their broken-down homes
   Look at the photos from different eras gone by
   Shows the changes, and I hate them all


Fsus2            G
I can't say that I don't like it
A7sus4                  Gsus2
Because the words won't come out right
Csus2         D           Em7                Fsus2   G
All I feel is bitter, and it doesn't make it better


   Am                     G           Am                      G
e:-0---0---0----0-----0---3---3-----|-------------------------3----3--|
B:-5---5---3----1-----3---3-------3-|-------------------------3----3--| Played
G:------------------------0---------|-------------------------0----0--| three
D:------------------------0---------|-2---2---2-----0-----2---0----0--| times
A:----------------------------------|-0---0---0-----0-----3---2----2--|
E:----------------------------------|-------------------------3----3--|
   Fif-ty  nine times the pain            Never wanted to be  like you
   Fif-ty  nine times the pain            I   could never be  with you
   Fif-ty  nine times the pain


Fsus2   G


   A5  E*  G5  A5  E*  G5
e:---------------------------|
B:---------------------------| Played
G:---------------------------| eight
D:-7-------5---7-------5-----| times
A:-7-------5---7-------5-----|
E:-5---0---3---5---0---3-----|

   A5                          G       D   E
e:---------------------------------3-----------|
B:---------------------------------3---3-/-5---| Played
G:-2--------2-------2--2--2--------0---2-/-4---| four
D:-2--------2-------2--2--2----0---------------| times
A:-0--------0-------0--0--0----2---------------|
E:-----------------------------3---------------|
   Don't want to live with myself
   Can't live with what goes on
   All I see is the humiliation
   I wish it was gone

Fsus2            G
I can't say that I don't like it
A7sus4                  Gsus2
Because the words won't come out right
Csus2         D           Em7                Fsus2   G
All I feel is bitter, and it doesn't make it better


   Am                     G           Am                      G
e:-0---0---0----0-----0---3---3-----|-------------------------3----3--|
B:-5---5---3----1-----3---3-------3-|-------------------------3----3--| Played
G:------------------------0---------|-------------------------0----0--| three
D:------------------------0---------|-2---2---2-----0-----2---0----0--| times
A:----------------------------------|-0---0---0-----0-----3---2----2--|
E:----------------------------------|-------------------------3----3--|
   Fif-ty  nine times the pain            I   could never be  like you
   Fif-ty  nine times the pain            I   could never be  with you
   Fif-ty  nine times the pain            Oh..oh....


Fsus2     G


   Am                     G           Am                      G
e:-0---0---0----0-----0---3---3-----|-------------------------3----3--|
B:-5---5---3----1-----3---3-------3-|-------------------------3----3--| Played
G:------------------------0---------|-------------------------0----0--| three
D:------------------------0---------|-2---2---2-----0-----2---0----0--| times
A:----------------------------------|-0---0---0-----0-----3---2----2--|
E:----------------------------------|-------------------------3----3--|
   Fif-ty  nine times the pain            I   could never be  like you
   Fif-ty  nine times the pain            I   could never be  with you
                          Fif - ty      nine times the pa - a - ain


Fsus2(hold)   G(hold)    Am(hold)

                               Am
e:-0---0---0---0--(0)-(0)-(0)--0---|
B:-5---5---3---1-/-3---3-\-1---1---|
G:-----------------------------2---|
D:-----------------------------2---|
A:-----------------------------0---|
E:---------------------------------|

TP.

POWERLINE (Bob Mould)

From: gary@maple.mc.com (Gary Von Colln)

Intro Riff (play notes as harmonics, except for last measure)

e-|--------------------|--------------------|--------------------|
B-|--------------------|--------------------|--------------------|
G-|----------12----12--|----------12----12--|----------12----12--|
D-|-12-12-12----12-----|-12-12-12----12-----|-12-12-12----12-----|
A-|--------------------|--------------------|--------------------|
E-|--------------------|--------------------|--------------------|


e-|-----------------------|
B-|-----------------------| Play
G-|-12---p11-11-11-11-11--| all
D-|-----------------------| four
A-|-----------------------| bars
E-|-----------------------| twice


     G              G/Bb           G/C            Dsus4 D
e-|-----3--3--3--|-----3--3--3--|-----3--3--3--|--3-p2--2--2--2--|
B-|-----3--3--3--|-----3--3--3--|-----3--3--3--|--3-----3--3--3--|
G-|-----0--0--0--|-----0--0--0--|-----0--0--0--|--2-----2--2--2--| Played
D-|-----0--0--0--|-----0--0--0--|-----0--0--0--|--0-----0--0--0--| twice
A-|-----2--2--2--|--1-----------|--3-----------|-----------------|
E-|--3-----------|--------------|--------------|-----------------|


Verse:

     G                  G/Bb           G/C             Dsus4 D
e|----3--3--3-------|-------3--3--3--|-----3--3--3--|--3-p2--2--2--2--|
B|----3--3--3-------|-------3--3--3--|-----3--3--3--|--3-----3--3--3--| Played
G|----0--0--0-------|-------0--0--0--|-----0--0--0--|--2-----2--2--2--| four
D|----0--0--0-------|-------0--0--0--|-----0--0--0--|--0-----0--0--0--| times
A|----2--2--2-------|----1-----------|--3-----------|-----------------|
E|-3----------------|----------------|--------------|-----------------|
   What's this hummin'   in my    he - ead?
   Was it something that someone sa  - aid?
   It's   connecting     us with them.
   Electric wires turned on again.


Chorus:

     G/Bb             G/C              G              Dsus4 D
e-|-----3--3--3-----|-----3--3--3---|-----3--3--3--|--3-p2--2--2--2--|
B-|-----3--3--3-----|-----3--3--3---|-----3--3--3--|--3-----3--3--3--| Played
G-|-----0--0--0-----|-----0--0--0---|-----0--0--0--|--2-----2--2--2--| four
D-|-----0--0--0-----|-----0--0--0---|-----0--0--0--|--0-----0--0--0--| times
A-|--1--------------|--3------------|-----2--2--2--|-----------------|
E-|-----------------|---------------|--3-----------|-----------------|
    Well it aggravates and it pacifies Hear the power in the lines
    Well it aggravates and it pacifies Hear the power in the lines
    Well it aggravates and it pacifies Hear the power in the lines
    Well it aggravates and it pacifies Hear the power


   G                     G/Bb           G/C            Dsus4 D
e|----3--3--3-------|-------3--3--3--|-----3--3--3--|--3-p2--2--2--2--|
B|----3--3--3-------|-------3--3--3--|-----3--3--3--|--3-----3--3--3--| Played
G|----0--0--0-------|-------0--0--0--|-----0--0--0--|--2-----2--2--2--| four
D|----0--0--0-------|-------0--0--0--|-----0--0--0--|--0-----0--0--0--| times
A|----2--2--2-------|----1-----------|--3-----------|-----------------|
E|-3----------------|----------------|--------------|-----------------|
   Strung up high on     every pole,
   How can this power be bought and so -ld?
   Trying to harness     solar rays,
   Making minutes        seem like days.


     G/Bb                G/C              G              Dsus4 D
e-|-----3--3--3-----|-------3--3--3----|-----3--3--3--|--3-p2--2--2--2--|
B-|-----3--3--3-----|-------3--3--3----|-----3--3--3--|--3-----3--3--3--| Played
G-|-----0--0--0-----|-------0--0--0----|-----0--0--0--|--2-----2--2--2--| three
D-|-----0--0--0-----|-------0--0--0----|-----0--0--0--|--0-----0--0--0--| times
A-|--1--------------|----3-------------|-----2--2--2--|-----------------|
E-|-----------------|------------------|--3-----------|-----------------|
     Well it captivates and it hypnotizes,Hear the power in the lines.
     Well it captivates and it hypnotizes,Hear the power in the lines.
     Well it captivates and it hypnotizes,Hear the power in the lines.

     G/Bb                G/C              D
e-|-----3--3--3-----|-------3--3--3----|--2--2--2--2--|--2-----2--2--2--|
B-|-----3--3--3-----|-------3--3--3----|--3--3--3--3--|--3-----3--3--3--|
G-|-----0--0--0-----|-------0--0--0----|--2--2--2--2--|--2-----2--2--2--|
D-|-----0--0--0-----|-------0--0--0----|--0--0--0--0--|--0-----0--0--0--|
A-|--1--------------|----3-------------|--------------|-----------------|
E-|-----------------|------------------|--------------|-----------------|
     Well it captivates and it hypnotizes, I can hear power in the lines.


Outro:

     G              Bb             C             D
e-|--3--3--5--3--|--6--6--8--6--|--8--8-10--8--|-10-10-12-10--|
B-|--3--3--3--3--|--6--6--6--6--|--8--8--8--8--|-10-10-10-10--| Play
G-|--4--4--4--4--|--7--7--7--7--|--9--9--9--9--|-11-11-11-11--| four
D-|--------------|--------------|--------------|--------------| times
A-|--------------|--------------|--------------|--------------|
E-|--------------|--------------|--------------|--------------|
                                                 Powerline
                                                 Powerline
                                                 Powerline
                                                 Powerline
Final Riff:

e-|--------------------|--------------------|--------------------|
B-|--------------------|--------------------|--------------------|
G-|----------12----12--|----------12----12--|----------12----12--|
D-|-12-12-12----12-----|-12-12-12----12-----|-12-12-12----12-----|
A-|--------------------|--------------------|--------------------|
E-|--------------------|--------------------|--------------------|

e-|-------------------------| Play all
B-|-------------------------| four bars
G-|-12---p11-11-11-11-11----| four times
D-|-------------------------| but end with
A-|-------------------------| the bar
E-|-------------------------| below:

e-|-----------------------|
B-|-----------------------|
G-|-12---p11-11-11-11-12--|
D-|-----------------------|
A-|-----------------------|
E-|-----------------------|

(Minor corrections and editing by TP).

BOOKS ABOUT UFO'S (Grant Hart)

Chords:

C   X32010   F   XX3011 (verse only)    F/E XX2011   G   320033

F   133211 (last one in verse and throughout chorus)


Intro: repeated twice (also played under verse)

  C                      F    C
e:------0--0--0--0----0--1--|------0--0--0--0----0--0--|
B:------1--1--1--1----1--1--|------1--1--1--1----1--1--|
G:------0--0--0--0----0--2--|------0--0--0--0----0--0--|
D:-2----2--2--0-h2----2--3--|-2----2--2--0-h2----2--2--|
A:-3------------------------|-3---------------------3--|
E:--------------------------|--------------------------|

   F          F/E
e:------1--1-------1--1--|
B:------1--1-------1--1--|
G:-0----0--0--0----0--0--|
D:-3----3--3--2----2--2--|
A:-----------------------|
E:-----------------------|

   G                         C             F  C
e:-3----3--3----3----3--3----0----0--0--0--1--0--0--0--0--|
B:-3----3--3----3----3--3--|-1----1--1--1--1--1--1--1--1--|
G:-0----0--0----0----0--0--|-0----0--0--0--2--0--0--0--0--|
D:-0----0--0----0---h2--0--|-2----2--2--2--3--2--2--2--2--|
A:-2----2--2---------------|-3----3--3--3-----3--3--3--3--|
E:-3----3--3---------------|------------------------------|

C                F   C
Walking down a sunny street to the library
F                F/E    G               C      F     C
Checking out the latest books on outer space
                   F        C
Going to the fruit stand to buy a dozen oranges
     F           F/E           G                      C      F     C
Then she and the books and the oranges go back to her place

Chorus:
              G                 F                 C       F  C
She tells the same old story to everyone that she knows
           G                           F             C      F     C
She's just sitting in her room reading books about UFOs

C               F   C
Sometimes I see her sitting on the rooftop

F             F/E           G                C      F     C
Perched in a lawnchair and staring into the sky
                         F    C
I know that somewhere in some faraway galaxy
          F              F/E           G                     C      F     C
That some gray men with telescopes are gazing right into her eyes


Chorus:
              G                 F                 C       F  C
She tells the same old story to everyone that she knows
           G                           F             C      F     C
She's just sitting in her room reading books about UFOs


Solo: over intro riff repeated twice


Chorus:
              G                 F                 C       F  C
She tells the same old story to everyone that she knows
           G                           F             C      F     C
She's just sitting in her room reading books about UFOs


C                   F    C
Her live revolves around all of the planets
           F          F/E              G              C      F     C
And she is constantly aware of all the changes that occur
C                      F C
I'm going to turn into a lens and focus all my attention
   F              F/E       G                     C      F  C
On finding a new planet and naming it right after her

Chorus:
              G                 F                 C       F  C
She tells the same old story to everyone that she knows
           G                           F             C      F     C
She's just sitting in her room reading books about UFOs

              G                 F                 C       F  C
She tells the same old story to everyone that she knows
           G                           F             C(hold)
She's just sitting in her room reading books about UFOs

TP.


I DON'T KNOW WHAT YOU'RE TALKING ABOUT (Bob Mould)

Chords:

G 320033    Csus2 X32033    Dsus4 2X0233    E 022100    D XX0232

E5 022XXX    B5 X244XX    F#5 244XXX   G#5 466XXX    A5 X022XX

Break chords:

E5 022XXX    F#5 244XXX    G5 355XXX    A5 577XXX    B5 799XXX

Octaves:

E* X7X9XX    F#* X 9 11 11 X X    G* X 10 X 12 X X

A* X 12 X 14 X X    B* X 14 x 16 X X


Intro:

G   Csus2    Dsus4 (Played four times)

G                                     Csus2  Dsus4
You're a student of the world learning every day
G             Csus2 Dsus4
Surrounded by these walls

E5  B5  F#5  E5  B5  F#5  E5  B5  F#5  G#5  A5  B5

G                            Csus2      Dsus4
You tell me, "Man, I've been around the block"
G               Csus2   Dsus4
But you haven't seen it all

E5 B5    F#5   E5 B5    F#5   E5 B5    F#5  G#5         A5      B5
I  don't know, I  don't know, I  don't know what you're talking about
E5 B5    F#5   E5 B5    F#5   E5 B5    F#5  G#5         A5      B5    E
I  don't know, I  don't know, I  don't know what you're talking about


G              Csus2 Dsus4
Confrontations every day
G                     Csus2    Dsus4
Argue, then we go our separate ways

E5  B5  F#5  E5  B5  F#5  E5  B5  F#5  G#5  A5  B5

G              Csus2      Dsus4
Always over as soon as it begins
G                                    Csus2      Dsus4
You know that you're losing when you can't give in

E5 B5    F#5   E5 B5    F#5   E5 B5    F#5  G#5         A5      B5
I  don't know, I  don't know, I  don't know what you're talking about
E5 B5    F#5   E5 B5    F#5   E5 B5    F#5  G#5         A5      B5    E
I  don't know, I  don't know, I  don't know what you're talking about

G              Csus2  Dsus4
I don't know...
G              Csus2  Dsus4
I don't know...
G              Csus2  Dsus4
I don't know...
G              Csus2  Dsus4
I don't know...

Break:

E5   F#5  G5  A5  B5   (played three times)

E*   F#*  G*  A*  B*   (Octaves)

D

G                           Csus2      Dsus4
Now you live alone and it's always the same
G                            Csus2           Dsus4
Talking to yourself when you say that I'm to blame
G                         Csus2           Dsus4
There's more to life than being right and wrong
G                                   Csus2   Dsus4
There's something in between called getting along


E5 B5    F#5   E5 B5    F#5   E5 B5    F#5  G#5         A5      B5
I  don't know, I  don't know, I  don't know what you're talking about
E5 B5    F#5   E5 B5    F#5   E5 B5    F#5  G#5         A5      B5
I  don't know, I  don't know, I  don't know what you're talking about
E5 B5    F#5   E5 B5    F#5   E5 B5    F#5  G#5         A5      B5
I  don't know, I  don't know, I  don't know what you're talking about
E5 B5    F#5   E5 B5    F#5   E5 B5    F#5  G#5         A5      B5    E
I  don't know, I  don't know, I  don't know what you're talking about

G(hold)
I don't know....

TP.

HOW TO SKIN A CAT (Bob Mould)


e:---------------------------------|
B:-13--14--15--16--17--18--19--20--| Played
G:-11--12--13--14--15--16--17--18--| four
D:---------------------------------| times
A:---------------------------------|
E:---------------------------------|


e:---------15-------------15----|
B:---------13-------------13----|
G:---------12-------------12----| Played
D:------------------------------| twice
A:-0---0-0--------0---0-0-------|
E:------------------------------|
   PM-----|       PM------------|


e:------------------------------------------------------------|
B:------------------------------------------------------------|
G:-6-7-8-8---6-7-8-b(9)r-8------6-7-8-8---6-7-8-b(9)p-7-p-6---|
D:------------------------------------------------------------|
A:------------------------------------------------------------|
E:------------------------------------------------------------|


e:------------------------------|
B:---------7--------------7-----|
G:---------6--------------6-----|
D:------------------------------|
A:-0---0----------0---0---------|
E:------------------------------|
   PM---|         PM------------|


e:------------------------------------------------------------|
B:------------------------------------------------------------|
G:-6-7-8-8---6-7-8-b(9)r-8------6-7-8-8---6-7-8-b(9)p-7-p-6---|
D:------------------------------------------------------------|
A:------------------------------------------------------------|
E:------------------------------------------------------------|


e:------------------------------|
B:---------7--------------7-----|
G:---------6--------------6-----|
D:------------------------------|
A:-0---0----------0---0---------|
E:------------------------------|
   PM---|         PM------------|
                                          (Hold)
e:----------------------------------------0-----------|
B:----------------------------------------0-----------|
G:-6-7-8-8---6-7-8-b(9)r-8------6-7-8-8---1-----------|
D:----------------------------------------2-----------|
A:----------------------------------------2-----------|
E:----------------------------------------0-----------|

Repeat all of the above twice more with some variations.

Lyric:

We are starting a cat ranch and taking one hundred thousand cats
Each cat will have twelve kittens a year
The catskins will sell for thirty cents each
One hundred men could skin five thousand cats a day
We could be dealing a profit of over ten thousand dollars
But what should we feed the cats?
We will start a rat ranch next door with a million rats
The rats will be twelve times faster than the cats
So we can have more rats to feed each day for each cat
But what should we feed the rats?
We will feed the rats
The carcases of the cats
After they have been skinned
Now get this!
We feed the rats to the cats and the cats to the rats
And get the catskins for nothing
We feed the rats to the cats and the cats to the rats
And get the catskins for nothing
We feed the rats to the cats and the cats to the rats
And get the catskins for nothing
We feed the rats the carcases of the cats
After they have been skinned
We feed the rats to the cats and the cats to the rats
And get the catskins for nothing
Rats to the cats and the cats to the rats
And get the catskins for nothing


TP.

WHATCHA DRINKIN' (Bob Mould)

Chords: E5 XX240X    D5 XX023X     A5 XX22XX

        C#5 X466XX   F#5 XX46XX    F#5* 24XXXX    G#5 XX68XX

        A5* XX79XX   D#5 X68XXX    E5* X79XX


E5
I don't care what they say,
                         D5       A5
I don't care what you're drinking today
E5
I don't care what they say,
                         D5       A5
I don't care what you're drinking today
E5
I don't care what they say,
                     D5  A5     E5
I don't care I'll be drinking today


E5                   D5  A5


E5           A5    E5
I try not to drink anymore
E5             A5    E5
and try not to think anymore
E5           A5    E5
I try not to drink anymore
E5             A5    E5
and try not to think anymore

E5
Well I don't care what you say,
                         D5       A5
I don't care what you're drinking today
E5
I don't care what you say,
                         D5  A5     E5
I don't care what you're drinking today
                         D5  A5     E5
             What you're drinking today


E5                   D5  A5


E5           A5    E5
I try not to drink anymore
E5             A5    E5
and try not to think anymore
E5           A5    E5
I try not to drink anymore
E5             A5    E5
and try not to think anymore


C#5  / (hold)

C#5 /  / F#5  E5  C#5  F#5*

C#5 /  / F#5  E5  C#5  F#5*

C#5 /  / F#5  E5  C#5  F#5*
Running around

C#5 /  / F#5  E5  C#5  F#5*


F#5 / /  E5(hold)

F#5 / /  E5(hold)

F#5 / /  E5(hold)

F#5//  E5//F#5  E5///

F#5//  E5///  G#5/ F#5

F#5//  E5///  G#5/ F#5

F#5//  E5///  G#5/ F#5

F#5//  E5///  G#5/ F#5


A5*  F#5  D#5  F#5  D#5  E5*

A5*  F#5  D#5  F#5  D#5  E5*

A5*  F#5  D#5  F#5  D#5  E5*

A5*  F#5  D#5  F#5  D#5  E5*


E5                       D5       A5(hold)
I don't care what you're drinking today


TP.

PLANS I MAKE (Bob Mould/Husker Du)

Chords:  E5 XX240X    G5 XX570X    B5 X244XX    D5 X577XX

Break:   B5* X X 9 11 0 X    Ab5 XX68XX    F5 XX46XX


Intro:
e:-----------------------------------------|
B:-----------------------------------------| Played
G:-----------------------------------------| four
D:-0---2-2-2---0---2-2-2---0-2-2---0---0---| times
A:-----------------------------------------|
E:-----------------------------------------|


Verse Riff (played twice):

   E5                              G5  E5                              G5 E5
e:-----------------------------------|-----------------------------------------|
B:-0-----0--0--0------0--0-----0-/-0-|-0--------0--0--0--------0--0--/-0--0--0-|
G:-4-----4--4--4------4--4-----4-/-7-|-4--------4--4--4--------4--4--/-7--4--4-|
D:-2-----2--2--2------2--2-----2-/-5-|-2--------2--2--2--------2--2--/-5--2--2-|
A:-----------------------------------|-----------------------------------------|
E:-----------------------------------|-----------------------------------------|
I gotta make plans for the plans I make Gotta have friends for the friends I make
I gotta make plans for the friends I make Gotta have friends for the plans I make

   B5                  D5 B5
e:---------------------------|
B:---------------------------| Played
G:-4---4-4-4---4-4---4/7-4---| twice
D:-4---4-4-4---4-4---4/7-4---|
A:-2---2-2-2---2-2---2/5-2---|
E:---------------------------|
   Go make plans

   E5                              G5   E5                              G5 E5
e:-------------------------------------------|
B:-0--------0--0--0--------0--0--/-0--0--0---| Played
G:-4--------4--4--4--------4--4--/-7--4--4---| four
D:-2--------2--2--2--------2--2--/-5--2--2---| times
A:-------------------------------------------|
E:-------------------------------------------|
   I gotta make plans for the plans I make
   Gotta have friends for the friends I make
   I gotta make plans for the friends I make
   Gotta have friends for the plans I make

   B5                  D5 B5
e:---------------------------|
B:---------------------------| Played
G:-4---4-4-4---4-4---4/7-4---| twice
D:-4---4-4-4---4-4---4/7-4---|
A:-2---2-2-2---2-2---2/5-2---|
E:---------------------------|
   Go make plans

   E5                              G5   E5
e:-------------------------------------------|
B:-0--------0--0--0--------0--0--/-0--0--0---| Played
G:-4--------4--4--4--------4--4--/-7--4--4---| four
D:-2--------2--2--2--------2--2--/-5--2--2---| times
A:-------------------------------------------|
E:-------------------------------------------|
   I gotta make plans for the plans I make
   Gotta have friends for the friends I make
   I gotta make plans for the friends I make
   Gotta have friends for the plans I make

Break:

B5*/// Ab5/// F5/// //// //// ////


e:-----------------------------------|-------------------------------------|
B:-----------------------------------|-------------------------------------|
G:-----------------------------2-2-2-|---------------------------------2---|
D:-0---2-2-2---0---2-2-2---0---2-2-0-|-0---2-2-2---0---2-2-2---0---2-0---2-|
A:-----------------------------------|-------------------------------------|
E:-----------------------------------|-------------------------------------|

e:-----------------------------------|
B:-----------------------------------|
G:-----------------------------------|
D:-0---2-2-2---0---2-2-2---0---2/7\2-|
A:-----------------------------------|
E:-----------------------------------|

e:---------------------------------------|
B:---------------------------------------|
G:-------------------------0---0---0---0-|
D:-0---2-2-2---0---2-2/5---5---5---5---5-|
A:---------------------------------------|
E:---------------------------------------|
                           Go.......


Then solo over the riffs below (repeat until end: - ends on E):

   E5
e:-----------------------------------|
B:-0---0-0-0---0-0-0-0-0-0---0---0---| Played
G:-4---4-4-4---4-4-4-4-4-4---4---4---| four
D:-2---2-2-2---2-2-2-2-2-2---2---2---| times
A:-----------------------------------|
E:-----------------------------------|
   Go.......

   B5
e:-----------------------------------|
B:-----------------------------------| Played
G:-4---4-4-4---4-4-4-4-4-4---4---4---| twice
D:-4---4-4-4---4-4-4-4-4-4---4---4---|
A:-2---2-2-2---2-2-2-2-2-2---2---2---|
E:-----------------------------------|
   Go........


TP.
comments
We did not receive enough feedback on this tab! Please rate:
print report bad tab
1 2 3 4 5
I want to post or [tab]
guest
You may want to rate the tab now too:
select rating
Please do not post tabs as comments. Select "correction" instead!