Oops, an error
Loading. Please wait.

Warehouse Songs And Stories Tab

6,983 views 15 this week
no commentswrite comment
1 2 3 4 5
excellent!
x 2
add to favorites launch autoscroll
font size
0
reset
Autoscroll
+/-
esc
set tempo
stop
Contributor
WARNING: You are trying to view
                                    content from Ultimate-Guitar.com
                                    in an unauthorized application,
                                    which is prohibited.

                                    Please use an official Ultimate
                                    Guitar Tabs application for iPhone,
                                    iPad or Android to access legitimate
                                    chords, guitar, bass, and drum tabs
                                    from Ultimate-Guitar.com database.

                                    Type "ultimate guitar tabs" in Apple
                                    App Store's or Android Market's
                                    search to find the application.
This belongs to TONY PEART not me

THESE IMPORTANT YEARS  (Bob Mould) 

Chords:

G  320033    F 133211    Am X02210    Asus4 X02230    Em 022000

B5 X244XX   C5 X355XX    D5 X577XXX   D5/B  7577XX    C  X32010

Intro Riff (brackets indicate ghost notes):

        G             F      Am          F   Am              D
e:----------3---3---|------------------|-------------------|-------------------|
B:----------3---3---|------------------|----(1)-(1)--0-----|-3---3---3(3-3-3)--|
G:----------0---0---|(2)(2)--2---2-2---|(2)--2---2-----2---|-2---2---4p2p0h2---|
D:----------0-------|-3--3---2---2-2---|-3---2---2-----0---|-0---0---0(0-0-0)--|
A:-10-\-2---2-------|-3--3---0---0-0---|-3---0---0---------|-------------------|
E:------3---3-------|(1)(1)------------|(1)----------------|-------------------|

G                     F      Am          F   Am              D
e:-----3------3-3---|------------------|-------------------|-------------------|
B:-----3------3-3---|------------------|----(1)-(1)--0-----|-3---3---3(3-3-3)--|
G:-----0------0-0---|(2)(2)--2---2-2---|(2)--2---2-----2---|-2---2---4p2p0h2---|
D:-0---0------0-0---|-3--3---2---2-2---|-3---2---2-----0---|-0---0---0(0-0-0)--|
A:-2---2------------|-3--3---0---0-0---|-3---0---0---------|-------------------|
E:-3---3------------|(1)(1)------------|(1)----------------|-------------------|

|------------------------------- Play three times -----------------------------|

G                      Em
Well, you get up every morning
C5
And you see, it's still the

   Am(Riff)
e:-0---------0-0-0---|
B:-1---1---3-1-0-1---|
G:-2---2---2-2-2-2---|
D:-2---2---2-2-2-2---|
A:-0---0-------------|
E:-------------------|
   same

G                  Em
All the floors and all the walls
C5                 Am(Riff)
And all the rest remains
G               Em
Nothing changes fast enough
C5               Am(Riff)
The hurry, worry days
G                    Em
It makes you want to give it up
C5               Am(Riff)
And drift into a haze

B5  C5      D5       D5/B
Revelations seems to be another way
B5                  C5
To make the days go faster any-
   D(Riff)
e:-----------------------------------|
B:-3-3-3-3---3-3-3-3-----3---3---3---|
G:-2-2-2-2---2-2-2-2---4-2---0---2---|
D:-0-0-0-0---0-0-0-0---0-0-------0---|
A:-----------------------------------|
E:-----------------------------------|
  -ways

G                    Em
We're all exchanging pleasantries
   C5            Am(Riff)
No matter how we feel
G                    Em
And no one knows the difference
          C5             Am(Riff)
'Cause it all seems so unreal
      G             Em
You'd better grab a hold of something
C5               Am(Riff)
Simple but it's true
             G                 Em
If you don't stop to smell the roses now
C5                   Am(Riff)
They might end up on you

B5   C5           D5       D5/B             B5
Expectations only mean you really think you know
       C5                   D(Riff)
What's coming next, and you don't

G                    Am
Yearbooks with their autographs
     C
From friends you might have

   D(Riff 2)
e:---------------|
B:-3---3---3-3---|
G:-2---4---4-2---|
D:-0---0---0-0---|
A:---------------|
E:---------------|
   had

G                Am
These are your important years
      C                D(Riff 2)
You'd better make them last
G              Am               C          D(Riff 2)
Falling in and out of love just like...
G              Am                    C     D
These are your important years, your life

Break:

   G
e:-----3---3-3-3-3-----------3-3-3-3-------3---3-3-3-3-------3---3-3-3-3-|
B:-----3---3-3-3-3-----------3-3-3-3-------3---3-3-3-3-------3---3-3-3-3-|
G:-----0---0-0-0-0-----------0-0-0-0---0---0---0-0-0-0-------0---0-0-0-0-|
D:-----0---0-0-0-0---0---0---0-0-0-0---0---0---0-0-0-0---0---0---0-0-0-0-|
A:-2---2---2-2-2-2---2---3-------------------------------3---------------|
E:-3---3---3-3-3-3-------------------------------------------------------|

 |------------------------ play three times -----------------------------|


e:-----3---3-3-3-3-------3---3-3-3-3---------------------------3-|
B:-----3---3-3-3-3-------3---3-3-3-3---------------------------3-|
G:-----0---0-0-0-0-------0---0-0-0-0---0-----------------------0-|
D:-----0---0-0-0-0---0---0---0-0-0-0-------0-------------------0-|
A:-2---2---2-2-2-2---2-------------------------3---2---3---2---2-|
E:-3---3---3-3-3-3---------------------------------------------3-|

B5          C5       D5         D5/B
Once you've seen the light, you finally
B5         C5               D(Riff)
Realize it might end up all right

It might end up all right now

G                    Am
Yearbooks with their autographs
     C                      D(Riff 2)
From friends you might have had
G                Am
These are your important years
      C                D(Riff 2)
You'd better make them last
    G              Am               C      D(Riff 2)
And falling in and out of love just like...
G              Am                    C     D(Riff 2)
These are your important years, your life

G  Am  C  D(Riff 2)   (played four times)

G                Am                  C     D(Riff 2)  |(played four
These are your important years, your life             | times)

G  Am  C  D(Riff 2)   (played four times)

G(hold).

TP.




CHARITY, CHASTITY, PRUDENCE AND HOPE (Grant Hart)

Opening Riff/Verse Riff:

   D                           G
e:---------------------------|-3-3-3-3---3-3-3-3---|
B:-3-3---3-------3-------3---|-3-3-3-3---3-3-3-3---|
G:-2-2---2-------2-------2---|-0-0-0-0---0-0-0-0---|
D:-0-0---0-h-2-p-0-------0---|-5-5-5-5---5-5-5-5---|
A:-------------------2-------|---------------------|
E:---------------------------|---------------------|
 |----played three times-----|


INTRO:
Opening Riff (played twice)

D                                 G
She gave her little child a name
D                                 G
A ward of welfare she became
D                                 G
And then one day she met a man
D                                 G
Digging through the trash for cans

   C5 (X = left-hand muting ie.release pressure on fretted strings)
e:------------------------------------------------------|
B:------------------------------------------------------|
G:-5---5---X-X-X-X---5---5---X-X-X-X---5---5---X-X-X-X--|
D:-5---5---X-X-X-X---5---5---X-X-X-X---5---5---X-X-X-X--|
A:-3---3---X-X-X-X---3---3---X-X-X-X---3---3---X-X-X-X--|
E:------------------------------------------------------|
   Charity,          chastity,         prudence    and

   D5
e:------------------------------------------------------------------------|
B:------------------------------------------------------------------------|
G:-7---7---7-7-7-7---7---7---7-7-7-7---7---7---7-7-7-7---7---7---7-7-7-7--|
D:-0---0---0-0-0-0---0---0---0-0-0-0---0---0---0-0-0-0---0---0---0-0-0-0--|
A:-0-h-5---5-5-5-5---5---5---5-5-5-5---0-h-5---5-5-5-5---5---5---5-5-5-5--|
E:------------------------------------------------------------------------|
   hope

D                                G
It was his aluminum
D                                G
That attracted her to him
D                                G
And quite a day there did unfold
D                                G
Turning garbage into gold

C5                               D5
Charity, chastity, prudence, and hope

Solo:

   D                                                     G
e:-2---2---2-2-2-2---2---2---2-2-2-2---2---2---2-2-2-2-------------------------|
B:-3---3---3-3---3---3---3---3-3---3---3---3---3-3---3---3-3--3--3--3--3--3--3-|
G:-2---2---4-2-2-2---2---2---4-2-2-2---2---2---4-2-2-2---0-0--0--0--0--0--0--0-|
D:-0---0---0-0-2-----0---0---0-0-2-----0---0---0-0-2-----5-5--5--5--5--5--5--5-|
A:-----------------------------------------------------------------------------|
E:-----------------------------------------------------------------------------|

   D                                                     G
e:-2---2---2-0-2-3---2---2---2-0-2-3---2---2---2-0-2-3-------------------------|
B:-3---3---3-3-3-3---3---3---3-3-3-3---3---3---3-3-3-3---3-3--3--3--3--3--3--3-|
G:-------------------------------------------------------0-0--0--0--0--0--0--0-|
D:-------------------------------------------------------5-5--5--5--5--5--5--5-|
A:-----------------------------------------------------------------------------|
E:-----------------------------------------------------------------------------|

   D                                                     G
e:-------------------------------------------------------3---3---3-3-3---------|
B:-3---3---3/5-3-3---3/5\3---3(3)3-3---3/5\3---3h5-3-3---3---3---3-3-3---------|
G:-2---2---2/4-2-2---2/4\2---2h4-2-2---2/4\2---2(2)2-2---4---4---4-4-4---4-/-7-|
D:-------------------------------------------------------5---5---5-5-5---0--(0)|
A:-----------------------------------------------------------------------------|
E:-----------------------------------------------------------------------------|

   D                                                        G
e:-----------10-10-10--14-14-14--14-14-12--14--12--14-14-14-15-15-15-15-15-15--|
B:-10-10-10--10-10-10--12-12-12--12-12-12--12--12--12-12-12-12-12-12-12-12-12--|
G:-7--7--7---7--7--7-----------------------------------------------------------|
D:-7--7--7---------------------------------------------------------------------|
A:-----------------------------------------------------------------------------|
E:-----------------------------------------------------------------------------|

C5                               D5
Charity, chastity, prudence, and hope

D                                   G
She took that money in a trunk
D                                   G
And bought a bunch of worthless junk
D                                   G
And now they're back where they began
D                                   G
Digging through the trash for cans

C5                               D5    | play four times |
Charity, chastity, prudence, and hope  | hold final D    |

TP.




STANDING IN THE RAIN  (Bob Mould)

Chords: A5 X022XX   A5/G# 4X22XX   G5 355XXX   F#5 244XXX

        D  XX023X   D/C#  X4023X   G  320033   E   022100

     Asus2 X02200   B5    X2440X   D5 X5770X   E5  X7990X

A5         A5/G#
Looking outside my window
    G5    F#5
And all I see is grey
D                D/C#
I'm watching the clouds roll by every

   Bm Riff:
e:-----------------------|
B:-3--3-3-3-5---3--2--3--|
G:-4--4-4-4-4---4--4--4--|
D:-----------------------|
A:-----------------------|
E:-----------------------|
   day

A5            A5/G#
And we make a reservation
    F#5              E
You say you'll be on time
D               D/C#
I say, "I might be a little

e:-----------------------|
B:-3--3-3-3-5---3--2--3--|
G:-4--4-4-4-4---4--4--4--|
D:-----------------------|
A:-----------------------|
E:-----------------------|
   late"

G                            E
Well, I pull it together and brush my teeth

   D Riff:
e:----------------------------|
B:-5-3---2-------2---3-3--3-3-|
G:-2-2---2---4---2---2-2--2-2-|
D:-----------0-------0-0--0-0-|
A:----------------------------|
E:----------------------------|
   Comb my hair

G         E
I stop to think and I can see you
   D
e:----------------------------|
B:-5-3---2-------2---3-3--3-3-|
G:-2-2---2---4---2---2-2--2-2-|
D:-----------0-------0-0--0-0-|
A:----------------------------|
E:----------------------------|
   there
G                           E
I think of the times you've waited
D    /   ////  /
Just for me to care

   D                                                         E
e:-----------------------------|-----------------------------0--|
B:-3-3-------3-------3---------|-------3-3-------3------3----0--|
G:-2-2-------2-------2---------|-------2-2-------2------2----1--|
D:-0-0-------0-------0---------|-------0-0-------0------0----2--|
A:-------4-------4-------------|-------------4--------4------2--|
E:-----------------------------|--------------------------2--0--|
                       I care about you

A5           A5/G#
Checking the clock inside
    G5               F#5
The room we call our own

D              D/C#
I see that I'm late, I should get

e:-----------------------|
B:-3--3-3-3-5---3--2--3--|
G:-4--4-4-4-4---4--4--4--|
D:-----------------------|
A:-----------------------|
E:-----------------------|
   going

A5       A5/G#
Hop on a local transit
F#5             E
Spending all my change
D               D/C#
And I can still hear the tele-

e:-----------------------|
B:-3--3-3-3-5---3--2--3--|
G:-4--4-4-4-4---4--4--4--|
D:-----------------------|
A:-----------------------|
E:-----------------------|
  -phone
G                        E
I wanna go back, but I'm halfway to The

   D
e:----------------------------|
B:-5-3---2-------2---3-3--3-3-|
G:-2-2---2---4---2---2-2--2-2-|
D:-----------0-------0-0--0-0-|
A:----------------------------|
E:----------------------------|
   place where we will meet

G       E
And I'm half dead on my

   D
e:----------------------------|
B:-5-3---2-------2---3-3--3-3-|
G:-2-2---2---4---2---2-2--2-2-|
D:-----------0-------0-0--0-0-|
A:----------------------------|
E:----------------------------|
   feet

G          E
And once I get there, I see
D   / ////        /
Everything's the same

   D                                                        E(Hold)
e:---------------------------|------------------------------0--|
B:-3-3-------3-------3-------|--------3-3-------3------3----0--|
G:-2-2-------2-------2-------|--------2-2-------2------2----1--|
D:-0-0-------0-------0-------|--------0-0-------0------0----2--|
A:-------4-------4-----------|--------------4--------4------2--|
E:---------------------------|---------------------------2--0--|
                      Here comes the rain                   You left me standing

Asus2 /  ////  B5 / ////  D5 / //// / / ////

Asus2 /  ////  B5 / ////  D5 / //// E5/ ////

Asus2 /  ////  B5 / ////  D5 / //// E5/ ////

D5    /  ////  E5 / ////  D5 / //// E5/ ////

  Solo Riff (played over D5/E5 above)
e:----------------------------------|
B:----------------------------------|
G:-9---9---7-h-9---9-b-11-9---7---9-|
D:----------------------------------|
A:----------------------------------|
E:----------------------------------|

G                                E
I should have guessed that you'd stand me up

   D
e:----------------------------|
B:-5-3---2-------2---3-3--3-3-|
G:-2-2---2---4---2---2-2--2-2-|
D:-----------0-------0-0--0-0-|
A:----------------------------|
E:----------------------------|
   Why did I even go, now

G     E
And I guess it goes to

   D
e:----------------------------|
B:-5-3---2-------2---3-3--3-3-|
G:-2-2---2---4---2---2-2--2-2-|
D:-----------0-------0-0--0-0-|
A:----------------------------|
E:----------------------------|
   show

G            E
The snow may well thaw out, but it
D     /     / /  /   /
Goes right down the drain

   D                           E
e:---------------------------------------------------|
B:-3-3-------3---3-3-------3---5---5-----5-5-5-5-5-5-|
G:-2-2-------2---2-2-------2---4---4-----4-4-4-4-4-4-|
D:-0-0-------0---0-0-------0---2---2-----2-2-2-2-2-2-|
A:-------4-------------4-----------------------------|
E:---------------------------------------------------|
You left me  You left  me      You left me You left me

Asus2       B5              D5    E5
You left me standing in the rain
Asus2       B5              D5    E5
You left me standing in the rain
Asus2       B5              D5    E5
You left me standing in the rain

D5 / ///  E5 /  /  //
Oh   I    Know now

Asus2       B5              D5    E5
You left me standing in the rain
Asus2       B5              D5    E5
You left me standing in the rain
Asus2       B5              D5    E5
You left me standing in the rain

D5 / ///            E5 / / //
Why oh why oh why   D'you make me go now

Asus2   B5   D5   E5
now     now  now
Asus2   B5   D5   E5
now     now  now
Asus2   B5   D5   E5
now     now  now

D5 / ///  E5 /  /  //
Oh   I    Know now

Asus2       B5              D5    E5
You left me standing in the rain
Asus2       B5              D5    E5
You left me standing in the rain
Asus2       B5              D5    E5
You left me standing in the rain

D5 / ///   E5(hold)
Oh now     Oh....                                                    

TP.




BACK FROM SOMEWHERE  (Grant Hart)

Chords:

G  320033  A7sus4 X02233  Csus2 X32033  Em 022000  C X32010

D  XX0232  Dsus4  XX0233    D5  XX0235

Intro:

   G                  A7sus4  Csus2   G                  A7sus4     Csus2
e:-3---3------3-3-3---3---3---3---3-|-3---3------3-3-3-------------------------|
B:-3---3------3-3-3---3---3---3---3-|-3---3------3-3-3---12(12-12)--12-12---0--|
G:-0---0------0-0-0---2---2---0---0-|-0---0------0-0-0---14b16r14---14-14---12-|
D:-0---0------0-0-0---2---2---2---2-|-0---0------0-0-0-------------------------|
A:-2---2------2-2-2---0---0---3---3-|-2---2------2-2-2-------------------------|
E:-3---3------3-3-3-----------------|-3---3------3-3-3-------------------------|

   G                  A7sus4  Csus2   G                  A7sus4    Csus2
e:-3---3------3-3-3---3---3---3---3-|-3---3------3-3-3---3---3-3---3-3---3--|
B:-3---3------3-3-3---3---3---3---3-|-3---3------3-3-3---3---3-3---3-3---3--|
G:-0---0------0-0-0---2---2---0---0-|-0---0------0-0-0---2-b-3r2---2-2---0--|
D:-0---0------0-0-0---2---2---2---2-|-0---0------0-0-0----------------------|
A:-2---2------2-2-2---0---0---3---3-|-2---2------2-2-2----------------------|
E:-3---3------3-3-3-----------------|-3---3------3-3-3----------------------|

        G                      A7sus4    Csus2
Now you look like you just got back from somewhere
G                  A7sus4         Csus2
Somewhere yeah you know that it's true
G                A7sus4    Csus2
Together we went nearly to nowhere
G                    A7sus4 Csus2
Nowhere really worth going to

Em              C
Standing at the city center
Em            D
In the middle of the winter
Em                C                D   Dsus4   D5
I was waiting for you and you were due

     G              A7sus4        Csus2
When I got back you said you were leaving
G           A7sus4     Csus2
Leaving you said right away
G                       A7sus4    Csus2
And coming back for the sake of retrieving
G                      A7sus4  Csus2
Things you'd forgotten on that day

Em           C
Still now my eyes are burning
Em                D
With the sight of your returning
Em           C                 D   Dsus4   D5
Everywhere I look I'm finding you
           G
I remember you

   G                 A7sus4 Csus2  G                   A7sus4  Csus2
e:-------------------------------|-------------------------------------------|
B:-0-0---0---0-0-0---0-0---0-0---|-0(0)0-0(0)-0-0-(0)--0-(0)---0----0(0)-0---|
G:-4-4---2---4-5-4---4-2---0-0---|-7b8---9b10---11\9---11/14---11---9b10-7---|
D:-------------------------------|-------------------------------------------|
A:-------------------------------|-------------------------------------------|
E:-------------------------------|-------------------------------------------|

   G         A7sus4  Csus2     G          A7sus4      Csus2
e:---------------------------|-3-3-3----------------------------------|
B:-0-0-0-0---0-0-0---0---0---|-3-3-3------0--(0)-(0)--0-0---0-0---0---|
G:-4-2-4-5---4-5-4---0---0---|-0-0-0------4-b(5)r(4)--0-0---0-2---0---|
D:---------------------------|----------------------------------------|
A:---------------------------|----------------------------------------|
E:---------------------------|----------------------------------------|

   Em            C                     Em                D
e:---------------3---3-3---3---------|-----------------------------------|
B:-----5---------3---3-3---3---------|-----5---5-5---8---8-8---8-8-8-7---|
G:-----4---4-2---4---5-5---5p4-p-0---|-----4---4-4---7---7-7---7-7-7-7---|
D:-----2---2-2-----------------------|-----2---2-2-/-5-------------------|
A:-----------------------------------|-----------------------------------|
E:-0---------------------------------|-0---------------------------------|

   Em            C                     D
e:---------------3-3---3-------------|---7-8-7----7-8-7----7-8-7----7-8-7---|
B:-----5---------3-3---3---3-3---3---|---7-7-7------------------------------|
G:-----4---4-2---5-5---4---2-2---0---|-7--------7--------7--------7---------|
D:-----2---2-2-----------------------|-0--------0--------0--------0---------|
A:-----------------------------------|--------------------------------------|
E:-0---------------------------------|--------------------------------------|

   Slowing:
e:-7-8-7-----7-8-7--------10------10------10------10---|
B:-7-7-7-----7-7-7--------7-------7-------7-------7----|
G:-------7----------------7-------7-------7-------7----|
D:-------0----------------0-------0-------0-------0----|
A:-----------------------------------------------------|
E:-----------------------------------------------------|
                                     Fam - ili - ar

G              A7sus4      Csus2
places that we turned into gardens
G                  A7sus4         Csus2
Somewhere yeah you know that it's true
G                     A7sus4   Csus2
I'm begging you now a thousand pardons
G                          A7sus4    Csus2
For all of the wastelands we've been through

Em         C
I remember asking whether
Em                D
Or where we could be together
Em            C               D(hold)
You smiled at me and you said soon

TP.




ICE COLD ICE  (Bob Mould)

       D                             Csus2    G
|------------------------------------3--3-3---3--3-3---|   Played
|T-----3--3-3------------------------3--3-3---3--3-3---|   three
|A-----2--2-2--------2--(2)-(2)------0--0-0---0--0-0---|   times
|B-----0--0-0-------(0)--2---3-------2--2-2---0--0-0---|
|------0--0-0------------------------3--3-3---2--2-2---|
|---------------------------------------------3--3-3---|

       D                             Csus2
|------------------------------------3--3-3---|
|T-----3--3-3------------------------3--3-3---|
|A-----2--2-2--------2--(2)-(2)------0--0-0---|
|B-----0--0-0-------(0)--2---3-------2--2-2---|
|------0--0-0------------------------3--3-3---|
|---------------------------------------------|

      G5      Fsus2    A7sus4
|-----3---3---1/3------5---3---1---3------| Played
|T----3---3---1/3------5---3---1---3------| three
|A----0---0---0--------0---0---0---0------| times
|B----0---0---0--------0---0---0---0------|
|-----------------------------------------|
|-----3---3---1/3------5---3---1---3------|

                Pick Scrape- - - -|
|-----3---3---|----------------------|
|T----3---3---|----------------------|
|A----0---0---|----------------------|
|B----0---0---|-----X\---------------|
|-------------|-----X\----X\---------|
|-----3---3---|-----------X\---------|

    D                                               C
|--------------------------------------1--0-----------------| Played
|T--3-----------------------------------------3--1--1-------| four
|A--2-----------------------------------------------0-------| times
|B--0-----------------------------------------------2-------|
|---0-----------------------------------------------3-------|
|-----------------------------------------------------------|
    Barren lands and barren minds     (Ice-  cold-  ice)
    In another place and time         (Ice-  cold-  ice)
    I feel I've never known myself    (Ice-  cold-  ice)
    Frozen in the sand again          (Ice-  cold-  ice)

    F5            Bb5 F5  Bb5 F5                      Bb5 F5  Bb5 F5
|-----------------------------------------------------------------------|
|T----------------------------------------------------------------------|
|A----------------3-------3---------------------------3-------3---------|
|B--3---3---3-3-3-3---3---3---3---------3---3---3-3-3-3---3---3---3-----|
|---3---3---3-3-3-1---3---1---3---------3---3---3-3-3-1---3---1---3-----|
|---1---1---1-1-1-1---1---1---1---------1---1---1-1-1-1---1---1---1-----|
          See the blank expressions           Waiting for progression

     G5                               A5                    Bb5
|------------------------------------------------------------------------|
|C-----------------------------------------------------------------------|
|R------------------------------------2---------------------3------------|
|D---5--------------------------------2---------------------3------------|
|----5--------------------------------0---------------------1------------|
|----3-------------------------------------------------------------------|
    Standing still in place and time  There's no one moving  They're only

     Dm7
|----------8-----------8-----------8-----------8-----|
|T------6-----6-----6-----6-----6-----6-----6-----6--|
|A---7-----------7-----------7-----------7-----------|
|B---0-----------0-----------0-----------0-----------|
|----------------------------------------------------|
|----------------------------------------------------|
     Stan- ding  still  in  ice   cold  ice  cold -

      G5      Fsus2    A7sus4
|-----3---3---1/3------5---3---1---3------|
|T----3---3---1/3------5---3---1---3------|
|A----0---0---0--------0---0---0---0------| Played
|B----0---0---0--------0---0---0---0------| twice
|-----------------------------------------|
|-----3---3---1/3------5---3---1---3------|
    - Ice

     Dm7
|----------8-----------8-----------8-----------8-----|
|T------6-----6-----6-----6-----6-----6-----6-----6--|
|A---7-----------7-----------7-----------7-----------|
|B---0-----------0-----------0-----------0-----------|
|----------------------------------------------------|
|----------------------------------------------------|
    Only        Stan- ding  still  in    ice   cold

      G5      Fsus2    A7sus4
|-----3---3---1/3------5---3---1---3------|
|T----3---3---1/3------5---3---1---3------|
|A----0---0---0--------0---0---0---0------| Played
|B----0---0---0--------0---0---0---0------| twice
|-----------------------------------------|
|-----3---3---1/3------5---3---1---3------|
    - Ice

    D                                               C
|--------------------------------------1--0-----------------| Played
|T--3-----------------------------------------3--1--1-------| four
|A--2-----------------------------------------------0-------| times
|B--0-----------------------------------------------2-------|
|---0-----------------------------------------------3-------|
|-----------------------------------------------------------|
    All machines and all are one      (Ice-  cold-  ice)
    Catching up on what's been done   (Ice-  cold-  ice)
    Stealing glimpses from the past   (Ice-  cold-  ice)
    These impressions always last     (Ice-  cold-  ice)

    F5            Bb5 F5  Bb5 F5                      Bb5 F5  Bb5 F5
|-----------------------------------------------------------------------|
|T----------------------------------------------------------------------|
|A----------------3-------3---------------------------3-------3---------|
|B--3---3---3-3-3-3---3---3---3---------3---3---3-3-3-3---3---3---3-----|
|---3---3---3-3-3-1---3---1---3---------3---3---3-3-3-1---3---1---3-----|
|---1---1---1-1-1-1---1---1---1---------1---1---1-1-1-1---1---1---1-----|
          Never penetrating              Always contemplating
     G5                                 A5                     Bb5
|------------------------------------------------------------------------------|
|C-----------------------------------------------------------------------------|
|R--------------------------------------2----------------------3---------------|
|D---5----------------------------------2----------------------3---------------|
|----5----------------------------------0----------------------1---------------|
|----3-------------------------------------------------------------------------|
     We sit and count the blessings but we're blessed by icons No one else could

     Dm7
|----------8-----------8-----------8-----------8-----|
|T------6-----6-----6-----6-----6-----6-----6-----6--|
|A---7-----------7-----------7-----------7-----------|
|B---0-----------0-----------0-----------0-----------|
|----------------------------------------------------|
|----------------------------------------------------|
     Trust in    ice cold    ice   cold  ice  cold -

      G5      Fsus2    A7sus4
|-----3---3---1/3------5---3---1---3------|
|T----3---3---1/3------5---3---1---3------|
|A----0---0---0--------0---0---0---0------| Played
|B----0---0---0--------0---0---0---0------| twice
|-----------------------------------------|
|-----3---3---1/3------5---3---1---3------|
    - Ice

     Dm7
|----------8-----------8-----------8-----------8-----|
|T------6-----6-----6-----6-----6-----6-----6-----6--|
|A---7-----------7-----------7-----------7-----------|
|B---0-----------0-----------0-----------0-----------|
|----------------------------------------------------|
|----------------------------------------------------|
     Only       Standing    still  in    ice   cold  -

     Dm7      (hold)                  (hold)
|----------8-----------------------8-----------------|
|T------6-----6-----------------6-----6--------------|
|A---7-----------------------7-----------------------| Play
|B---0-----------------------0-----------------------| twice
|----------------------------------------------------|
|----------------------------------------------------|
     ice                     oh.....
     oh.....                 oh.....

|----------------------------------------------------------3------|
|C----6-------3--------6--------3--------6-----------------3------|
|R----5-------2--------5--------2--------5--------5--------0------|
|D----3-------0--------3--------0--------3--------5--------0------|
|-----3-------0--------3--------0--------3--------3---------------|
|----------------------------------------------------------3------|
      Ooooh-  oh      Oooh-    oh       Ooooh  Ohhhh     Ohhhh

     Pick Scrape- - - -|
|----------------------|
|----------------------|
|----------------------|
|-----X\---------------|
|-----X\----X\---------|
|-----------X\---------|

    D                                               C
|--------------------------------------1--0-----------------| Played
|T--3-----------------------------------------3--1--1-------| two
|A--2-----------------------------------------------0-------| times
|B--0-----------------------------------------------2-------|
|---0-----------------------------------------------3-------|
|-----------------------------------------------------------|
    We'll stay together till the end  (Ice-  cold-  ice)
    Thinking you might be a friend    (Ice-  cold-  ice)

    F5            Bb5 F5  Bb5 F5                      Bb5 F5  Bb5 F5
|-----------------------------------------------------------------------|
|T----------------------------------------------------------------------|
|A----------------3-------3---------------------------3-------3---------|
|B--3---3---3-3-3-3---3---3---3---------3---3---3-3-3-3---3---3---3-----|
|---3---3---3-3-3-1---3---1---3---------3---3---3-3-3-1---3---1---3-----|
|---1---1---1-1-1-1---1---1---1---------1---1---1-1-1-1---1---1---1-----|
   We sit and     pray together         that they might change the weather

     G5                               A5                    Bb5
|------------------------------------------------------------------------|
|C-----------------------------------------------------------------------|
|R------------------------------------2---------------------3------------|
|D---5--------------------------------2---------------------3------------|
|----5--------------------------------0---------------------1------------|
|----3-------------------------------------------------------------------|
     My love for you will never die  If I sound distant,    that's because

     Dm7
|----------8-----------8-----------8-----------8-----|
|T------6-----6-----6-----6-----6-----6-----6-----6--|
|A---7-----------7-----------7-----------7-----------|
|B---0-----------0-----------0-----------0-----------|
|----------------------------------------------------|
|----------------------------------------------------|
 You shouldn't   see me      crying      ice cold -

      G5      Fsus2    A7sus4
|-----3---3---1/3------5---3---1---3------|
|T----3---3---1/3------5---3---1---3------|
|A----0---0---0--------0---0---0---0------| Played
|B----0---0---0--------0---0---0---0------| twice
|-----------------------------------------|
|-----3---3---1/3------5---3---1---3------|
    - Ice

     Dm7
|----------8-----------8-----------8-----------8-----|
|T------6-----6-----6-----6-----6-----6-----6-----6--|
|A---7-----------7-----------7-----------7-----------|
|B---0-----------0-----------0-----------0-----------|
|----------------------------------------------------|
|----------------------------------------------------|
     shouldn't   see me      crying      ice cold -

      G5      Fsus2    A7sus4
|-----3---3---1/3------5---3---1---3------|
|T----3---3---1/3------5---3---1---3------|
|A----0---0---0--------0---0---0---0------| Played
|B----0---0---0--------0---0---0---0------| twice
|-----------------------------------------|
|-----3---3---1/3------5---3---1---3------|
    - Ice

     Dm7
|----------8-----------8-----------8-----------8-----|
|T------6-----6-----6-----6-----6-----6-----6-----6--|
|A---7-----------7-----------7-----------7-----------|
|B---0-----------0-----------0-----------0-----------|
|----------------------------------------------------|
|----------------------------------------------------|
     shouldn't   see me      crying      ice cold -

|------------------------------------------------------------------------
|T----h-p-p--------h-p-p--------p-p----p-p----p-p----p-p-----------------
|A---2^4^2^0------2^4^2^0------4^2^0--5^4^0--7^5^0--9^7^0--12~---12--12\-
|B-----------------------------------------------------------------------
|------------------------------------------------------------------------
|------------------------------------------------------------------------
     ice

Repeat below four plus times to fade:

     Dm7
|----------8-----------8-----------8-----------8-----|
|T------6-----6-----6-----6-----6-----6-----6-----6--|
|A---7-----------7-----------7-----------7-----------|
|B---0-----------0-----------0-----------0-----------|
|----------------------------------------------------|
|----------------------------------------------------|
     shouldn't   see me      crying      ice cold -

|----------3------------3------------3------------3------|
|T-------0-3----------0-3----------0-3----------0-3------|
|A---2-4-0-0------2-4-0-0------2-4-0-0------2-4-0-0------|
|B-------------------------------------------------------|
|--------------------------------------------------------|
|--------------------------------------------------------|
     ice

Alan Niles Widman  awidman@linknet.kitsap.lib.wa.us

+ minor additions by TP




YOU'RE A SOLDIER  (Grant Hart)

Chords: C5     X355XX   D5    X507XX    A X02220

        Asus2  X02200   Asus4 X02230    C X32010    D XX023X

INTRO RIFF (played twice):

   C5      D5            C5       D5           A     Asus2 A
e:-------------------------------------------|-0---0-0---0---|
B:-------------------------------------------|-2---2-0---2---|
G:-5-5-5-/-7-------7-----5-5-5-/-7-------7---|-2---2-2---2---|
D:-5-5-5-/-0-----0-------5-5-5-/-0-----0-----|-2---2-2---2---|
A:-3-3-3-/-5---5---------3-3-3-/-5---5-------|-0---0-0---0---|
E:-------------------------------------------|---------------|
   ^ v ^   v   ^ ^  ^    ^ v ^   v   ^ ^ ^

First Verse (Verses sung over intro riff);

C5       D5            C5     D5
Running around like an insane maniac
C5       D5       A
Anywhere that you please
C5       D5         C5     D5
Taking advantage of anyone handy
C5         D5   A
To satisfy your disease

Chorus (Uses same riff);

         C5 D5      C5 D5     C5 D5    A
You're a soldier
         C5 D5      C5 D5     C5 D5    A
You're a soldier

C5     D5      C5    D5
Going off on a big adventure
    C5         D5    A
You never want it to end
C5     D5   C5      D5
Saving up a million stories
   C5      D5       A
To tell to all your friends

         C5 D5      C5 D5     C5 D5    A
You're a soldier
         C5 D5      C5 D5     C5 D5    A
You're a soldier

A   /    Asus2 A   Asus4 A Asus2 A      C                D
Knocking o   - ver eve - rything that's standing in your way
A   /   Asus2 A   Asus4 A   Asus2 A  C              D
Can you tell  me  just  how ma -  ny did you kill today

         C5 D5      C5 D5     C5 D5    A
You're a soldier
         C5 D5      C5 D5     C5 D5    A
You're a soldier
C5             D5              C5         D5
Patrolling the world with your little boy face
      C5       D5        A
And a grown up gun that shoots
          C5             D5       C5        D5
You got a fresh scrubbed teenage outlook on terror
C5    D5        A
And a khaki attitude

         C5 D5      C5 D5     C5 D5    A
You're a soldier
         C5 D5      C5 D5     C5 D5    A
You're a soldier

A   /    Asus2 A   Asus4 A Asus2 A      C                D
Knocking o   - ver eve - rything that's standing in your way
A   /   Asus2 A   Asus4 A   Asus2 A  C              D
Can you tell  me  just  how ma -  ny did you kill today

         C5 D5      C5 D5     C5 D5    A
You're a soldier
         C5 D5      C5 D5     C5 D5    A
You're a soldier
         C5 D5      C5 D5     C5 D5    A
You're a soldier
         C5 D5      C5 D5     C5 D5    A
You're a soldier

Solo :

   A(/sus2/A/sus4/A/sus2/A)        C             D
e:---------------0-0---0---0--0--|---------------------------------|
B:-2---2---0-2---2/3---2---0--2--|---------------3---3-3-----------|
G:-2---2---2-2-------------------|-5---5-5-------2---2-2-----------|
D:-------------------------------|-5---5-5---5p0-0---0-0-----------|
A:-------------------------------|---------------------------------|
E:-------------------------------|---------------------------------|

   A(/sus2/A/sus4/A/sus2/A)        C             D
e:---------------0-0---0---0--0--|---------------------------------|
B:-2---2---0-2---2/3---2---0--2--|---------------------------------|
G:-2---2---2-2-------------------|-5---5-5---5-0-7---7-7-----------|
D:-------------------------------|-5---5-5---5-0-7---7-7-----------|
A:-------------------------------|---------------5---5-5-----------|
E:-------------------------------|---------------------------------|

Outro (riff);

C5 D5    C5 D5    C5 D5     A
                            You're a -
C5 D5    C5 D5    C5 D5     A
soldier                     You're a -
C5 D5    C5 D5    C5 D5     A
soldier                     You're a -
C5 D5    C5 D5    C5 D5     A   /   Asus2 A   Asus4 A   Asus2 A(hold)
soldier

TP.




COULD YOU BE THE ONE? (Bob Mould)

Thanks to Hank Tomczak for the Fm.

Chords:

G   320033  F  133211   C X32010   Bb X1333X   Am X02210  

Fm  122111  D  XX0232

C5  X3555X  B5 X2444X  A5 5776XX   G5 3554XX 

Em7 022033  Fsus2+D 13X033    D+A X0023X    
 
Intro:
 
G                       F       C
 
C                     Bb
Well could you be the one they talk about?
Am       G      F            G 
Hiding inside behind another door,
C               Bb 
well is it only happiness you want ?
     Am         G        F         G
does wanting or feeling matter any more.
Fm                   C
It doesn't mean that much to me sometimes
Fm                 C      G 
I don't mean that much to you
      Am                       D
and I don't even know what I'm hiding for and I

   Em7         Fsus2+D     D+A      G 
e:------3-3---------3-3-------------3----3-3---| Play
B:------3-3---------3-3------3-3----3----3-3---| three
G:------0-0---------0-0----2-2-2----0----0-0---| times
D:-2----2-2----------------0-0-0----0----0-0---| ()=Ghost Notes
A:-2-----------3----3-3----0--------2----------| ie. Don't stress.
E:(0)---------(1)-------------------3----------|
   don't even  know what I'm crying for,
I don't even   know what I'm hiding for,
I'm hiding in - si    -    i  -    ide,

   Em7         Fsus2+D     D+A      G    Fsus2
e:------3-3---------3-3-------------3----1-1---|
B:------3-3---------3-3------3-3----3----1-1---|
G:------0-0---------0-0----2-2-2----0----0-0---| 
D:-2----2-2----------------0-0-0----0----3-3---| 
A:-2-----------3----3-3----0--------2----3-3---| 
E:-0-----------1--------------------3----1-1---|
I'm crying in - si   -     i  -     ide

C                            Bb
Well could you be the one they talk about
Am        G           F              G
life is a game that only you can make
C                      Bb
well maybe I'm about to throw it out
     Am       G           F             G
I've given it all that's all that I can take
 
Fm                   C
It doesn't mean that much to me sometimes
Fm                 C      G 
I don't mean that much to you
      Am                       D
and I don't even know what I'm hiding for 
      Em7        Fsus2+D       D+A    G 
and I don't even know what I'm crying for
   Em7         Fsus2+D     D+A                                             
I don't even know          Well, 
     C5    B5   A5         G5 C5
Could you  be the one 
C5    B5   A5              G5 C5
could you  be the one 

C5    B5   A5              G5     C5
could you  be the one      that's hanging around
      Em7        Fsus2+D       D+A    G  
and I don't even know what I'm crying for,
  Em7        Fsus2+D       D+A    G 
I don't even know what I'm hiding for,
    Em7      Fsus2+D  D+A  G 
I'm hiding insi   -   i  - ide,
    Em7      Fsus2+D  D+A  G  Fsus2   
I'm crying insi   -   i  - ide

 
Solo:
 
  C                 Bb           Am        G  F          G
|---------------------------------------------------------------------|
|-----------11-p-10--------------10-10-10-----13-13-p-10--------------|
|-6-/-9--12---------12-p-10-h-12-----------12------------12-p-10-h-12-|
|---------------------------------------------------------------------|
|---------------------------------------------------------------------|
|---------------------------------------------------------------------|
 
  C                 Bb           Am        G  F          G
|---------------------------------------------------------------------|
|-----------11-p-10--------------10-10-10-----13-13-p-10--------------|
|-6-/-9--12---------12-p-10-h-12-----------12------------12-p-10-h-12-|
|---------------------------------------------------------------------|
|---------------------------------------------------------------------|
|---------------------------------------------------------------------|
        

   Fm                   C         Fm
|-----------------------15--------------------------------------------|
|-------------13--13-15----15-15------------13--13--15----------------|
|--12-/-13--13--13----------------12-/-13-13--13----------------------|
|---------------------------------------------------------------------|
|---------------------------------------------------------------------|
|---------------------------------------------------------------------|
 
   G        Am             D                G
|--15-13-12---------------------------------3-------------------------|
|-----------15-13-12------------------------3-------------------------|
|--------------------14-12-12-h-14----------0-------------------------|
|-----------------------------------14/17---0-------------------------|
|-------------------------------------------2-------------------------|
|-------------------------------------------3-------------------------|
 
      Em7        Fsus2+D       D+A    G  
and I don't even know what I'm crying for,
  Em7        Fsus2+D       D+A    G 
I don't even know what I'm hiding for,
Em7        Fsus2+D     D+A       G 
don't even know,       Could you be the only 
Em7    Fsus2+D D+A
broken hearted one?

     C5    B5   A5         G5 C5
Well could you  be the one 
C5    B5   A5              G5 C5
could you  be the one 


C5    B5   A5              G5     C5             
could you  be the one      that's hanging  all around
Em7        Fsus2+D     D+A       G 
I don't even know,
     Em7        Fsus2+D    D+A 
well don't even know

     C5    B5   A5         G5 C5
Well could you  be the one 
C5    B5   A5              G5 C5
could you  be the one 
C5    B5   A5              G5 C5
could you  be the one
C5    B5   A5           A5 G5 C5(hold).
could you  be the one

Daniel l Lovall (edited and extended by TP).




TOO MUCH SPICE  (Grant Hart)

Chords:  E 022100   C X32010   G 320033   A X02220   B X2440X

Intro:   B   A   C (play twice)

E         C                G           A
You never used to care for fancy new obsessions
E         C              G            A
You never used to have a reason to be bored
E         C                   G           A
Now you indulge yourself with new ways of possession
E         C                       G              A
Now you indulge yourself and your feelings are ignored

           B             A                  C
And you're coloring your life with too much spice
           B             A                  C
And you're coloring your life with too much spice

E           C                 G                  A
There was a time, there was a place, there was a reason
E           C         G               A
There was a situation comfortable for you
E             C             G                A
You've tasted everything in this here bag of season
E              C                    G                A
But now you're bored and you've run out of things to do

           B             A                  C
And you're coloring your life with too much spice
           B             A                  C
And you're coloring your life with too much spice
           B             A                  C
And you're coloring your life with too much spice
           B             A                  C
And you're coloring your life with too much spice

SOLO: over E  C  G  A  chord progression - played four times.

           B             A                  C
And you're coloring your life with too much spice
           B             A                  C
And you're coloring your life with too much spice

E             C             G             A
You don't see anything your eyes are so revealing
E               C          G              A
They're sharply focused on looking for a thrill
E                C              G          A
You've turned so numb you never notice any feeling
E                 C                     G                A
Your thoughts are dead and you've still got some time to kill

           B             A                  C
And you're coloring your life with too much spice
           B             A                  C
And you're coloring your life with too much spice
           B             A                  C
And you're coloring your life with too much spice
           B             A                  C(hold)
And you're coloring your life with too much spice                 

TP.




FRIEND, YOU'VE GOT TO FALL (Bob Mould)

Chords: 

F# 244322  E   022100  A  X02220  B5 X244XX  C#5 X466XX  G#5 466XXX  F#5 244XXX

B  X24402  D#5 X688XX  D5 X577XX


Intro Riff(^ V = direction of picking):

e:-----------------------|--------------------|
B:-7------7-p-0---0------|-5------5-p-0---0---|
G:-6------6-p-0---0------|-4------4---0---0---|
D:-----------------------|--------------------|
A:-----------------------|--------------------|
E:-----------------------|--------------------|
   ^      ^       v        ^      ^       v 

e:-----------------------|--------------------|
B:-7------7-p-0---0------|-5------5-p-0---0---|
G:-6------6-p-0---0------|-4------4---0---0---|
D:-----------------------|--------------------|
A:-----------------------|--------------------|
E:-----------------------|--------------------|
                            
e:-0----(0)--0----(0)--0---0---|
B:-2--/--4---5--/--7---5---4---|
G:-----------------------------|
D:-----------------------------|
A:-----------------------------|
E:-----------------------------|
   1  2  3   4  5   6  7  8 (Beat counts) 

e:-----------------------|--------------------|
B:-7------7-p-0---0------|-5------5-p-0---0---|
G:-6------6-p-0---0------|-4------4---0---0---|
D:-----------------------|--------------------|
A:-----------------------|--------------------|
E:-----------------------|--------------------|

e:-----------------------|--------------------|
B:-7------7-p-0---0------|-5------5-p-0---0---|
G:-6------6-p-0---0------|-4------4---0---0---|
D:-----------------------|--------------------|
A:-----------------------|--------------------|
E:-----------------------|--------------------|

e:-0-------0---0---2---0----------|
B:-4-------5---7---2---0----------|
G:--------------------------------|
D:--------------------------------|
A:--------------------------------|
E:--------------------------------|
   1   2   3   4   5   6   7   8 (Beat counts)     
 
F#    E        F#              E
I can hear the treetops in the distance
A     B5       A        B5
I can see your hollowed eyes


F#            E       F#               E
What have you done to yourself in this instance?
A          B5       A     B5
I guess it comes as no surprise

C#5           B5
I can see the billboards in the distance

C#5           B5
Writing is on every wall
C#5           B5 
I don't wanna know about your business
G#5              F#5                   B
Sooner or later, friend, you've got to fall


F#    E          F#         E   
Every night it's gotta be adventure
A           B5        A        B5 
The way you live your life's a crime
F#            E       F#                 E
And if you're guilty, will you serve the sentence?
A        /     /     / 
You're already doing time


C#5                        B5
There's nothing wrong with having aspirations
C#5                B5
Nothing wrong with walking tall
C#5               B5
But if misfortune deals the consequences
C#5              B5                    B  
Sooner or later, friend, you've got to fall


F#5        C#5         E             B5
I know the difference, you keep your distance
D                              E    
I don't wanna know what you've got
F#5   C#5         E     B5
Is it pathetic to be sympathetic?
D                         E
Maybe you don't wanna get caught
             G#5              D#5 
Caught up in something that's real
           F#5        C#5
That could last for a lifetime
E       B5    D5 
Nothing like, nothing like the
                       C#5 
Disease that's in your mind

e:-----------------------|--------------------|
B:-7------7-p-0---0------|-5------5-p-0---0---|
G:-6------6-p-0---0------|-4------4---0---0---|
D:-----------------------|--------------------|
A:-----------------------|--------------------|
E:-----------------------|--------------------|
   ^      ^       v        ^      ^       v 

e:-----------------------|--------------------|
B:-7------7-p-0---0------|-5------5-p-0---0---|
G:-6------6-p-0---0------|-4------4---0---0---|
D:-----------------------|--------------------|
A:-----------------------|--------------------|
E:-----------------------|--------------------|

e:-0---0---0---0---0---0---0---2---|
B:-2---4---5---7---9---7---2---2---|
G:---------------------------------|
D:---------------------------------|
A:---------------------------------|
E:---------------------------------|

e:-----------------------|--------------------|
B:-7------7-p-0---0------|-5------5-p-0---0---|
G:-6------6-p-0---0------|-4------4---0---0---|
D:-----------------------|--------------------|
A:-----------------------|--------------------|
E:-----------------------|--------------------|
   ^      ^       v        ^      ^       v 

e:-----------------------|--------------------|
B:-7------7-p-0---0------|-5------5-p-0---0---|
G:-6------6-p-0---0------|-4------4---0---0---|
D:-----------------------|--------------------|
A:-----------------------|--------------------|
E:-----------------------|--------------------|

e:-0---0---0---0---0---0---0--0--0--0---0--0--0--0---0--0--0--0---0--0--0--0-|
B:-2---4---5---7---9---10--12-12-12-12--12-12-12-12--12-12-12-12--12-12-12-12|
G:---------------------------------------------------------------------------|
D:---------------------------------------------------------------------------|
A:---------------------------------------------------------------------------|
E:---------------------------------------------------------------------------|

C#5                        B5
There's nothing wrong with having aspirations
C#5                B5
Nothing wrong with walking tall
C#5               B5
But if misfortune deals the consequences
C#5              B5                    B  
Sooner or later, friend, you've got to fall


F#         E        F#          E   
Well I can see your life disintegrating
A    B5    A       B5   
Into ashes in your hand
F#    E        F#               E
And I know you wouldn't want to tell me
A       B5     A              B5
What is wrong 'cause you're a man


C#5           B5
I can see the billboards in the distance
C#5           B5
Writing is on every wall
C#5           B5 
I don't wanna know about your business
G#5              F#5                   B
Sooner or later, friend, you've got to fall

You've got to fall

You've got to fall
                   (hold final B)
You've got to fall

TP.




VISIONARY  (Bob Mould)

Chords:
B X24400   Asus2 X02200   G 320003   E 022100   Dsus2 XX0230   C X32010

G/F# 2X0033   G/E 0X0033   (Note * = single bass string notes)

B          Asus2
Panhandle, pedal faster

E             Asus2
Playing card, listen, master

B            Asus2
Pointed gun, aim to please

G               E
No one talking, no one sees

B            Asus2
Take a stand and collect

E          Asus2
Images and imageless

B               Asus2
Think in rhymes every time

G                            G/F#  G/E
Someone was a friend of mine

E          Asus2         Dsus2         G*  F#*  E*
Visionary, in a cage, in Londonderry

E          Asus2            Dsus2      G*  F#*  E*
Visionary, foggiest notion, visionary

E         Asus2  Dsus2
Visionary ah, ah oh
C                             Asus2
Strip away the silver and the gold

Break:
B   Asus2   G   E   G*  F#*  E*   E   G*  F#*  E*   E
B   Asus2   G   E   G*  F#*  E*   E   G*  F#*  E*   E

B               Asus2
Torn up stories in your cage

E             Asus2
Never time to be a sage

B        Asus2
you're so sublime

G                             G/F#   G/E
Growing old before your time

E          Asus2         Dsus2         G*  F#*  E*
Visionary, in a cage, in Londonderry

E          Asus2            Dsus2      G*  F#*  E*
Visionary, foggiest notion, visionary

E         Asus2  Dsus2
Visionary ah, ah oh

C                             Asus2
Strip away the silver and the gold

E          Asus2           Dsus2         G*  F#*  E*
Visionary, ah, ah, oh, oh, Londonderry

E          Asus2            Dsus2        G*  F#*  E*
Visionary, foggiest notion, visionary

E         Asus2  Dsus2                   G*  F#*  E*
Visionary ah, ah oh

E         Asus2  Dsus2                   G*  F#*  E*
Visionary ah,ah, oh, now

E         Asus2  Dsus2                   G*  F#*  E*
Visionary ah,ah, oh, now

E         Asus2  Dsus2                   G*  F#*  E*
Visionary ah,ah, oh, now

E         Asus2  Dsus2                   G*  F#*  E*
Visionary ah,ah, oh, now

E         Asus2  Dsus
Visionary ah,ah, oh, now

TP.


SHE FLOATED AWAY (Grant Hart)

Intro Chords:

E 079900  B5 799XXX  C5 8,10,10,XXX

Verse Chords:

G 320033  D XX0232  Am X02210  Em 022000

Intro (played twice):

   E                 B5  C5    E                 B5  C5
e:---------------0-----------|---------------0-----------|
B:---------------0-----------|---------------0-----------|
G:-9-----9-9-9---9-----------|-9-----9-9-9---9-----------|
D:-9-----9-9-9---9---9---10--|-9-----9-9-9---9---9---10--|
A:-7-7---7-7-7-------9---10--|-7-7---7-7-7-------9---10--|
E:---0---------------7---8---|---0---------------7---8---|

   E                 B5  C5    E   
e:---------------0-----------|-------0---0-0-0---0-0-----|
B:---------------0-----------|-------0---0-0-0---0-0-----|
G:-9-----9-9-9---9-----------|-9-----9---9-9-9---9-9-----|
D:-9-----9-9-9---9---9---10--|-9-----9-----------9-9-----|
A:-7-7---7-7-7-------9---10--|-7-7---------------7-7-----|
E:---0---------------7---8---|---0-----------------------|

         G                          D
With her grandmother's face and her father's brown eyes
    Am                       Em
Her own force of will to her mother's surprise
  G                          D
A whole look about her that says that she may
    Am                      Em
She lifted her arms and she floated away

    G                 D
She floated away, she floated away
    Am                      Em
She lifted her arms and she floated away
    G                          D
She don't give a damn what the other girls say
    Am                      Em
She lifted her arms and she floated away

Intro Riff:

E /   / /  / B5 C5   E /   / /  / B5 C5   E /   / /  / B5 C55   E /  / /  / X 2

        G                        D
"Let me talk to you mother," she tried to confess
Am                  Em
"Go ahead honey and wear the white dress
G                        D
Don't let traditions go stand in your way"
    Am                      Em
She lifted her arms and she floated away

    G                 D
She floated away, she floated away
    Am                      Em
She lifted her arms and she floated away
    G                          D
She don't give a damn what the other girls say
    Am                      Em
She lifted her arms and she floated away

Intro Riff:

E /   / /  / B5 C5   E /   / /  / B5 C5   E /   / /  / B5 C55   E /  / /  / X 2


       G                       D
Well a man has two reasons for things that he does
    Am                         Em
The first one is pride and the second one is love
G                       D
All understandings must come by this way
    Am                      Em
She lifted her arms and she floated away

    G                 D
She floated away, she floated away
    Am                      Em
She lifted her arms and she floated away
    G                          D
She don't give a damn what the other girls say
    Am                      Em
She lifted her arms and she floated away

Intro Riff:

E /   / /  / B5 C5   E /   / /  / B5 C5   E /   / /  / B5 C5   E /   / /  / X 6

Slowly:

G  D  Am  Em

BED OF NAILS (Bob Mould)

Intro:

     Am                               Fsus2                    D
|-------0-----0-----------0-----0--0--1--1--1--1---------1---------------|
|T---1--1-----0-----------1-----0--0--1--1--1--1---------1--0--3-----3---|Played
|A---2--2--2--2--------2--2--2--2--2--0--0--2--0---------0--0--2-----2---|four
|B---2--2--2-----------2--2--2--------3--3--3--3---------3--0--0-----0---|times
|----0-----0-----------0-----0--------3--3--3--3---------3-----0-----0---|
|------------------------------------------------------------------------|

     Asus2
|----0-----0-----------------------------0-----0----------|
|T---0-----0-----------------------------0-----0----------|
|A---2--X--2-----------------------------2--X--2----------|
|B---2--X--2-----------------------------2--X--2----------|
|----0--X--0-----------------------2--1--0--X--0----------|
|----------------------------0--3-------------------------|
    I can walk the bed of nails          Not the only one

                 D                Em              Am       Asus2
|----------------0-----0----------0-----0---------0--0--0--0------------|
|T---------------3-----3----------0-----0---------1--1--1--0------------|
|A---------------2--X--2----------0--X--0---------2--2--2--2------------|
|B---------2--1--0--X--0----------2--X--2---------2--2--2--2------------|
|----0--3--------0--X--0----------2--X--2---------0--0--0--0-------2--1-|
|------------------------------------------------------------0--3-------|
                       Some they cannot walk the jagged line

                    D        E        Asus2              D     E
|----0-----0--------0--------2--------0-----0------------0--0--2-----|
|T---0-----0--------3--------5--------0-----0------------3--3--5-----|
|A---2--X--2--------2--------4--------2--X--2------------2--2--4-----|
|B---2--X--2--------0--------2--------2--X--2------------0--0--2-----|
|----0--X--0--------0--------2--------0--X--0------------0--0--2-----|
|--------------------------------------------------------------------|
     Callous  concentrating       For nails are sharp as lies

     C       G       Fsus2 Em  D   E      Am       Asus2
|----0-------3-------1-----0---0---2------0--0--0--0------|
|T---1-------3-------1-----0---3---5------1--1--1--0------|
|A---0-------0-------0-----0---2---4------2--2--2--2------|
|B---2-------0-------------2---0---2------2--2--2--2------|
|----3---------------3-----2---0---2------0--0--0--0------|
|------------3-------------0------------------------------|
                            I run the jagged    line

      F                  C           Em C
|-----1-----1------------0-----------0--0-------|
|-----1-----1------------1-----------0--1-------|
|T----2--X--2------------0-----------0--0-------|
|A----3--X--3------------2-----------2--2-------|
|B----3--X--3------------3-----------2--3-------|
|-----1-----1------------------------0----------|
  From years and years of practice

    Asus2              F
|---0-----0------------1-----1----------|
|T--0-----0------------1-----1----------|
|A--2--X--2------------2--X--2----------|
|B--2--X--2------------3--X--3----------|
|---0--X--0------------3--X--3----------|
|----------------------1-----1----------|
    I know just how to stand

     F                Em              Am        Asus2
|----1-----1----------0-----0---------0--0--0---0-|
|T---1-----1----------0-----0---------1--1--0---0-|
|A---2--X--2----------0--X--0---------2--2--2---2-|
|B---3--X--3----------2--X--2---------2--2--2---2-|
|----3--X--3----------2--X--2---------0--0--0---0-|
|----1-----1----------0-----0---------------------|
   Alone with perfect balance hand in hand

     F                     Em                Asus2  G       F
|----1-----1---------------0-----0-----------0------3-------1-------|
|T---1-----1---------------0-----0-----------0------3-------1-------|
|A---2--X--2---------------0--X--0-----------2------0-------2-------|
|B---3--X--3---------------2--X--2-----------2------0-------3-------|
|----3--X--3---------------2--X--2-----------0--------------3-------|
|----1-----1---------------0-----0------------------3-------1-------|
  Prepared with boards and hammers        And several bags of nails

     D                          Am  D
|-------------------------------0-------------------------|
|C---3--------------------------1---3---------------------|
|R---2--------------------------2---2---------------------|
|D---0--------------------------2---0---------------------|
|----0--------------------------0---0---------------------|
|---------------------------------------------------------|
   I could build a wall to lean on  roof above my mind

     Am  D                              Am
|----0----------------------------------0--------------|
|C---1---3------------------------------1--------------|
|R---2---2------------------------------2--------------|
|D---2---0------------------------------2--------------|
|----0---0------------------------------0--------------|
|------------------------------------------------------|
   I can see you've got your own plans, please don't

    D                 Em
|---------------------0---------------|
|C--3-----------------0---------------|
|R--2---------------------------------|
|D--0-----------------2---------------|
|---0-----------------2---------------|
|---------------------0---------------|
   Drive your nails into this heart of -

     Am                               Fsus2                    D
|-------0-----0-----------0-----0--0--1--1--1--1---------1---------------|
|T---1--1-----0-----------1-----0--0--1--1--1--1---------1--0--3-----3---|Played
|A---2--2--2--2--------2--2--2--2--2--0--0--2--0---------0--0--2-----2---|two
|B---2--2--2-----------2--2--2--------3--3--3--3---------3--0--0-----0---|times
|----0-----0-----------0-----0--------3--3--3--3---------3-----0-----0---|
|------------------------------------------------------------------------|
   - mine

     Asus2
|----0-----0-----------------------------0-----0----------|
|T---0-----0-----------------------------0-----0----------|
|A---2--X--2-----------------------------2--X--2----------|
|B---2--X--2-----------------------------2--X--2----------|
|----0--X--0-----------------------2--1--0--X--0----------|
|----------------------------0--3-------------------------|
    I can walk the bed of nails          Grin and bear the pain

                 D                Em                  Am       Asus2
|----------------0-----0----------0-----0-------------0--0--0--0------------|
|T---------------3-----3----------0-----0-------------1--1--1--0------------|
|A---------------2--X--2----------0--X--0-------------2--2--2--2------------|
|B---------2--1--0--X--0----------2--X--2-------------2--2--2--2------------|
|----0--3--------0--X--0----------2--X--2-------------0--0--0--0-------2--1-|
|----------------------------------------------------------------0--3-------|
                       Some they cannot deal with all these things

                    D        E        Asus2                 D     E
|----0-----0--------0--------2--------0-----0---------------0--0--2-----|
|T---0-----0--------3--------5--------0-----0---------------3--3--5-----|
|A---2--X--2--------2--------4--------2--X--2---------------2--2--4-----|
|B---2--X--2--------0--------2--------2--X--2---------------0--0--2-----|
|----0--X--0--------0--------2--------0--X--0---------------0--0--2-----|
|-----------------------------------------------------------------------|
     Always sacri - ficing            for lies are sharp as nails

     C       G       Fsus2 Em  D   E      Am       Asus2
|----0-------3-------1-----0---0---2------0--0--0--0------|
|T---1-------3-------1-----0---3---5------1--1--1--0------|
|A---0-------0-------0-----0---2---4------2--2--2--2------|
|B---2-------0-------------2---0---2------2--2--2--2------|
|----3---------------3-----2---0---2------0--0--0--0------|
|------------3-------------0------------------------------|
                            and all the pain it brings

      F                  C           Em C
|-----1-----1------------0-----------0--0-------|
|-----1-----1------------1-----------0--1-------|
|T----2--X--2------------0-----------0--0-------|
|A----3--X--3------------2-----------2--2-------|
|B----3--X--3------------3-----------2--3-------|
|-----1-----1------------------------0----------|
      Sometimes    I    just      pretend

    Asus2                 F
|---0-----0---------------1-----1----------|
|T--0-----0---------------1-----1----------|
|A--2--X--2---------------2--X--2----------|
|B--2--X--2---------------3--X--3----------|
|---0--X--0---------------3--X--3----------|
|-------------------------1-----1----------|
    That all the lies are true

     F                 Em              Am        Asus2
|----1-----1-----------0-----0---------0--0--0---0-|
|T---1-----1-----------0-----0---------1--1--0---0-|
|A---2--X--2-----------0--X--0---------2--2--2---2-|
|B---3--X--3-----------2--X--2---------2--2--2---2-|
|----3--X--3-----------2--X--2---------0--0--0---0-|
|----1-----1-----------0-----0---------------------|
     and then I know I might depend on you

     F               Em                   Asus2   G         F
|----1-----1---------0-----0--------------0-------3---------1-------|
|T---1-----1---------0-----0--------------0-------3---------1-------|
|A---2--X--2---------0--X--0--------------2-------0---------2-------|
|B---3--X--3---------2--X--2--------------2-------0---------3-------|
|----3--X--3---------2--X--2--------------0-----------------3-------|
|----1-----1---------0-----0----------------------3---------1-------|
     But if my concentration breaks    I'm washed away with pain

     D                              Am  D
|-----------------------------------0-------------------------|
|C---3------------------------------1---3---------------------|
|R---2------------------------------2---2---------------------|
|D---0------------------------------2---0---------------------|
|----0------------------------------0---0---------------------|
|-------------------------------------------------------------|
     and then my feet begin to bleed    upon my lonely bed of nails

     Am  D                              Am
|----0----------------------------------0--------------|
|C---1---3------------------------------1--------------|
|R---2---2------------------------------2--------------|
|D---2---0------------------------------2--------------|
|----0---0------------------------------0--------------|
|------------------------------------------------------|
  and I'm stuck here in the middle      of a

    D                 Em
|---------------------0---------------|
|C--3-----------------0---------------|
|R--2---------------------------------|
|D--0-----------------2---------------|
|---0-----------------2---------------|
|---------------------0---------------|
    sea of lies       inside my bed of -

     Am                               Fsus2                    D
|-------0-----0-----------0-----0--0--1--1--1--1---------1---------------|
|T---1--1-----0-----------1-----0--0--1--1--1--1---------1--0--3-----3---|Played
|A---2--2--2--2--------2--2--2--2--2--0--0--2--0---------0--0--2-----2---|two
|B---2--2--2-----------2--2--2--------3--3--3--3---------3--0--0-----0---|times
|----0-----0-----------0-----0--------3--3--3--3---------3-----0-----0---|
|------------------------------------------------------------------------|
   - nails

SOLO:

|-----------------------------------------------------------|
|T----1--0----------h---------------1--0---------h-p--------|
|A----------2---0--0^2--------------------2--0--2^4^2-------|
|B----------------------2-----------------------------------|
|-----------------------------------------------------------|
|-----------------------------------------------------------|

|---------------------------------------------|
|T---/6--5------------------------------------|
|A----------7--5--7/9-------------------------|
|B-----------------------10--9--7~------------|
|---------------------7-----------------------|
|---------------------------------------------|

|-----------------------------------------------------------|
|T----1--0----------h---------------1--0---------h-p--------|
|A----------2---0--0^2--------------------2--0--2^4^2-------|
|B----------------------2-----------------------------------|
|-----------------------------------------------------------|
|-----------------------------------------------------------|

     C       G       Fsus2 Em  D   E      Am       Asus2
|----0-------3-------1-----0---0---2------0--0--0--0------|
|T---1-------3-------1-----0---3---5------1--1--1--0------|
|A---0-------0-------0-----0---2---4------2--2--2--2------|
|B---2-------0-------------2---0---2------2--2--2--2------|
|----3---------------3-----2---0---2------0--0--0--0------|
|------------3-------------0------------------------------|

      F                  C           Em C
|-----1-----1------------0-----------0--0-------|
|-----1-----1------------1-----------0--1-------|
|T----2--X--2------------0-----------0--0-------|
|A----3--X--3------------2-----------2--2-------|
|B----3--X--3------------3-----------2--3-------|
|-----1-----1------------------------0----------|
  From years and years of practice

    Asus2              F
|---0-----0------------1-----1----------|
|T--0-----0------------1-----1----------|
|A--2--X--2------------2--X--2----------|
|B--2--X--2------------3--X--3----------|
|---0--X--0------------3--X--3----------|
|----------------------1-----1----------|
    I know just how to stand

     F                Em              Am        Asus2
|----1-----1----------0-----0---------0--0--0---0-|
|T---1-----1----------0-----0---------1--1--0---0-|
|A---2--X--2----------0--X--0---------2--2--2---2-|
|B---3--X--3----------2--X--2---------2--2--2---2-|
|----3--X--3----------2--X--2---------0--0--0---0-|
|----1-----1----------0-----0---------------------|
   Alone with perfect balance hand in hand

     F                     Em                Asus2  G       F
|----1-----1---------------0-----0-----------0------3-------1-------|
|T---1-----1---------------0-----0-----------0------3-------1-------|
|A---2--X--2---------------0--X--0-----------2------0-------2-------|
|B---3--X--3---------------2--X--2-----------2------0-------3-------|
|----3--X--3---------------2--X--2-----------0--------------3-------|
|----1-----1---------------0-----0------------------3-------1-------|
  Prepared with boards and hammers        And several bags of nails

     D                          Am  D
|-------------------------------0-------------------------|
|C---3--------------------------1---3---------------------|
|R---2--------------------------2---2---------------------|
|D---0--------------------------2---0---------------------|
|----0--------------------------0---0---------------------|
|---------------------------------------------------------|
   I could build a wall to lean on  roof above my mind

     Am  D                              Am
|----0----------------------------------0--------------|
|C---1---3------------------------------1--------------|
|R---2---2------------------------------2--------------|
|D---2---0------------------------------2--------------|
|----0---0------------------------------0--------------|
|------------------------------------------------------|
   I can see you've got your own plans, please don't

    D                 Em
|---------------------0---------------|
|C--3-----------------0---------------|
|R--2---------------------------------|
|D--0-----------------2---------------|
|---0-----------------2---------------|
|---------------------0---------------|
   Drive your nails into this heart of -

     Am                               Fsus2                    D
|-------0-----0-----------0-----0--0--1--1--1--1---------1---------------|
|T---1--1-----0-----------1-----0--0--1--1--1--1---------1--0--3-----3---|
|A---2--2--2--2--------2--2--2--2--2--0--0--2--0---------0--0--2-----2---|
|B---2--2--2-----------2--2--2--------3--3--3--3---------3--0--0-----0---|
|----0-----0-----------0-----0--------3--3--3--3---------3-----0-----0---|
|------------------------------------------------------------------------|
   - mine                                                      please don't

     Am                               Fsus2                    D
|-------0-----0-----------0-----0--0--1--1--1--1---------1---------------|
|T---1--1-----0-----------1-----0--0--1--1--1--1---------1--0--3-----3---|Played
|A---2--2--2--2--------2--2--2--2--2--0--0--2--0---------0--0--2-----2---|six
|B---2--2--2-----------2--2--2--------3--3--3--3---------3--0--0-----0---|times
|----0-----0-----------0-----0--------3--3--3--3---------3-----0-----0---|
|------------------------------------------------------------------------|
     drive  these  nails  into  this  heart of mine            please don't

     C       G       Fsus2 Em  D   E      Am(hold)
|----0-------3-------1-----0---0---2------0--|
|T---1-------3-------1-----0---3---5------1--|
|A---0-------0-------0-----0---2---4------2--|
|B---2-------0-------------2---0---2------2--|
|----3---------------3-----2---0---2------0--|
|------------3-------------0-----------------|

Alan Widman awidman@linknet.kitsap.lib.wa.us

Extended and slightly edited by TP.





TELL YOU WHY TOMORROW   (Grant Hart)

Chords:

   D#  C#  F#  Ab  E
e:---------------------|
B:---------------------|
G:-8---6---------------|
D:-8---6---4---6---2---|
A:-6---4---4---6---2---|
E:---------2---4---0---|

Intro: Guitar (over Ab - E chorus pattern)
e:-------------------------|
B:-------------------------| Played
G:-3-4---3-4---3-4---3-4---| four
D:-------------------------| times
A:-------------------------|
E:-------------------------|

Ab/// ////  E/// ////

Ab/// ////  E/// ////

D# /  /   /   /   / C#      /    F#  /
I see the sun and I see the calendar
D#                         C#          F#
The days go floating by so slowly in a blur
D#                       C#           F#
I read the numbers and I discard everyone
D#                       C#           F#
I burn my fingers on the pages of the sun

Ab / / /   / / / /  E / / /  / / / /
I'll tell you why tomorrow
Ab / / /   / / / /  E / / /  / / / /
I'll tell you why tomorrow

D#                        C#           F#
Moonlight pulling all the water to the beaches
D#                      C#           F#
Soaking time into everything that it reaches
D#                      C#                 F#
Turn it upside down and count the spilling sand
D#               C#            F#
Seize the moment with a minute hand

Ab / / /   / / / /  E / / /  / / / /
I'll tell you why tomorrow
Ab / / /   / / / /  E / / /  / / / /  D#  //(pause)
I'll tell you why tomorrow

Solo: (over verse & chorus chords)

D#               C#            F# (played four times)

Ab / / /   / / / /  E / / /  / / / /

Ab / / /   / / / /  E / / /  / / / /  D#  //(pause)

D#                  C#                   F#
Men and animals are floating through the sky
D#                  C#             F#
Every month or so a new one passes by
D#                         C#             F#
Forming circles 'round the planets in the air
D#                    C#           F#
Find a newspaper and it is printed there

Ab / / /   / / / /  E / / /  / / / /
I'll tell you why tomorrow
Ab / / /   / / / /  E / / /  / / / /  D#  //(pause)
I'll tell you why tomorrow
Ab / / /   / / / /  E / / /  / / / /  D#  //(pause)
I'll tell you why tomorrow
Ab / / /   / / / /  E / / /  / / / /  D#  //(pause)
I'll tell you why tomorrow
Ab / / /   / / / /  E / / /  / / / /  D#  //
I'll tell you why tomorrow

TP




IT'S NOT PECULIAR  (Bob Mould)

Chords:
   E   B   G   F   Csus2    D   Em7    Bb5 G5  Ab5
e:-0-------3---1---3------------3------------------|
B:-0---0---3---1---3--------3---3------------------|
G:-1---4---0---2---0--------2---0------------------|
D:-2---4---0---3---2--------0---2------8---5---6---|
A:-2---2---2---3---3------------2------8---5---6---|
E:-0-------3---1----------------0------6---3---4---|

Intro riff:
   D               G   Csus2    D               G   E
e:-2-2-2-2---2-2-2-3---3---3-|--2-2-2-2---2-2-2-3---0---0---|
B:-3-3-3-3---3-3-3-3---3---3-|--3-3-3-3---3-3-3-3---0---0---|
G:-2-2-2-2---2-2-2-0---0---0-|--2-2-2-2---2-2-2-0---1---1---|
D:-0-0-0-0---0-0-0-0---2---2-|--0-0-0-0---0-0-0-0---2---2---|
A:-----------------2---3---3-|------------------2---2---2---|
E:-----------------3---------|------------------3---0---0---|
  |-This bar played 3 times-|

E               B
Is it sensible, life is what it seems
G                       F
When you're living in a dream
E                             B
Could you care enough?  While pausing on a thought
G                            Csus2
Can you think of what you've got?
          Em7  D    Csus2
(Only you know what matters in your life)

Bb5                           G5          Ab5
When it's pouring out, you're pondering inside
    Bb5                        G5         Ab5
And all the times you shouted, everybody cried
G                            Em7   Csus2
You've got to learn to compromise
G                          Em7   Csus2
To live inside the others' lives

D                          Csus2        G       D (intro riff, + 'at all' X 4)
It's not peculiar, there's nothing to devise at a a a a a a a all right, at..

E                         B
On a stormy night, you're sitting on the floor
G                 F
Is it nothing anymore?
E                    B
Waking up to fix it, making up the fight
G                      Csus2
Will it be one more tonight?
                Em7  D    Csus2
(Some things we said will never wash away)

Bb5                  G5         Ab5
Taking all of this into another day
Bb5                   G5              Ab5
Recollections of the words we used to say
G                            Em7   Csus2
The times you looked into my eyes
G                       Em7   Csus2
Whispered vowing not to lie

D                          Csus2        G       D (intro riff, + 'at all' X 4)
It's not peculiar, there's nothing to devise at a a a a a a a all right, at..

E                        B
Hear the telephone, it's raining in the fall
G                    F
And you hope I never call
E                     B
Sending messages that never get received
G                     Csus2
But we're trying, I believe
              Em7 D    Csus2
(Sometimes we won-der what our lives are for)

Bb5                   G5            Ab5
Taking all of this is taking all of me
Bb5                G5          Ab5
Sometimes I wish I had the energy
G                        Em7              Csus2
When it falls apart like fragments of our lives
G                      Em7           Csus2
Give a little bit, and give a lot to die

D                          Csus2     G       D (intro riff, + 'at all' X 8)
It's not peculiar, there's nothing to devise at a a a a a a a all right, at..

TP.





ACTUAL CONDITION   (Grant Hart)

Chords:

G  320033  C  X32010  A  X02220  D  XX0232 (hammer on and pull off on g string)

D               G               D
Well the actual condition of my mind
D                 G              D
Is elusive as the answers that I find
       C                  A
I keep going through transition
     C            A
From doubt to indecision
         C          A           D
It's the actual condition of my mind

D                  G            D
Well the actual condition of my soul
D                          G             D
Sometimes feels like being sucked into a hole
         C               A
And I've come to this position
     C          A
Regardless of religion
          C         A           D
It's the actual condition of my soul

Break: Verse & chorus chords with solo over.

D             G            D
The actual condition of my heart
D                             G           D
Feels like two hands that are ripping it apart
       C          A
I keep losing definition
    C               A
But still I keep on wishin'
          C         A           D
It's the actual condition of my heart

Break: Verse & chorus chords with solo over ending on D.

TP




NO RESERVATIONS   (Bob Mould)

CHORDS: (NB. Let open B & E strings ring throughout chord sequences).

C#m7 X42400    B  X24400    Asus2  X02400    E 4X2400    Bsus4/F# 2X4400

C#m7                B        Asus2
I hear some news, I read the words
     E               Bsus4/F#
It's different every day
C#m7                     B             Asus2
I get my thoughts from a letter that's lost
     E             Bsus4/F#
That someone threw away
          C#m7                      B          Asus2
It says, "Don't give up, 'cause you can't give away"
    E                Bsus4/F#
The thought's appreciated
C#m7                    B      Asus2
Now at the best, you've second guessed
    E                     Bsus4/F#
And never should you have waited

   B
e:-2---2---0-2-2---4---2---0---2-2---|---2-2-2---2-2---2-0-------2-2---|
B:-0---0---0-0-0---0---0---0---0-0---|---4-4-4---0-2---0-0-------0-0---|
G:-4---4---4-4-4---4---4---4---4-4---|---4-4-4---------4-----4---4-4---|
D:-4---4---4-4-4---4---4---4---4-4---|---4-4-4---------4-----4---------|
A:-2---2---2-2-2---2---2---2---2-2---|-----------------2-----2---------|
E:-----------------------------------|---------------------------------|
Never changes, the things I feel inside Sit by a lake and cry

   B
e:-2---2---0-2-2---4---2---0---2-2---|---2-2-2---2-2---2-0-------2-2---|
B:-0---0---0-0-0---0---0---0---0-0---|---4-4-4---0-2---0-0-------0-0---|
G:-4---4---4-4-4---4---4---4---4-4---|---4-4-4---------4-----4---4-4---|
D:-4---4---4-4-4---4---4---4---4-4---|---4-4-4---------4-----4---------|
A:-2---2---2-2-2---2---2---2---2-2---|-----------------2-----2---------|
E:-----------------------------------|---------------------------------|
Like a shingle on a roof in a windstorm  Should I let loose and fly?

C#m7                  B         Asus2
An overpass, and some corn in a field
E                Bsus4/F#
Fat birds on the line
C#m7                 B        Asus2
Dented guard rail, immaculate bumper
E               Bsus4/F#
Protecting your design

C#m7                       B           Asus2
A broken down shack with a pond in the back
E              Bsus4/F#
Laundry out to dry
C#m7                 B            Asus2
Some of them barren, some of them whole
E                   Bsus4/F#
All of them have no time

   B
e:-2---2---0-2-2---4---2---0---2-2---|---2-2-2---2-2---2-0-------2-2---|
B:-0---0---0-0-0---0---0---0---0-0---|---4-4-4---0-2---0-0-------0-0---|
G:-4---4---4-4-4---4---4---4---4-4---|---4-4-4---------4-----4---4-4---|
D:-4---4---4-4-4---4---4---4---4-4---|---4-4-4---------4-----4---------|
A:-2---2---2-2-2---2---2---2---2-2---|-----------------2-----2---------|
E:-----------------------------------|---------------------------------|
Never changes, the things I feel inside Sit by a lake and cry

   B
e:-2---2---0-2-2---4---2---0---2-2---|---2-2-2---2-2---2-0-------2-2---|
B:-0---0---0-0-0---0---0---0---0-0---|---4-4-4---0-2---0-0-------0-0---|
G:-4---4---4-4-4---4---4---4---4-4---|---4-4-4---------4-----4---4-4---|
D:-4---4---4-4-4---4---4---4---4-4---|---4-4-4---------4-----4---------|
A:-2---2---2-2-2---2---2---2---2-2---|-----------------2-----2---------|
E:-----------------------------------|---------------------------------|
Like a shingle on a roof in a windstorm  Should I let loose and fly?

NB. At this point the riff below and the acoustic guitar chord that follows, are 
layered on top of the normal chords until the outro.

Riff:

   C#m7      B        Asus2           E              Bsus4/F#
e:-----------------------------------|---------------------------------|
B:-0-0---0---0-0(0)---0---0---0------|-----0---0-0-2-4---0(0)--0-0---0-|
G:-6-6---4---6-7/9----7---6---4------|-----4---4-4-4-4---8b9---8-8---4-|
D:-----------------------------------|---------------------------------|
A:-----------------------------------|---------------------------------|
E:-----------------------------------|---------------------------------|

Acoustic guitar chord (Played with up-strokes):

       B5
e:-----2------|
B:-----0------|
G:-----4------|
D:------------|
A:------------|
E:------------|

C#m7    B    Asus2    E    Bsus4/F#

C#m7    B    Asus2    E    Bsus4/F#

C#m7 B          Asus2  E      Bsus4/F#
Come along with me
C#m7 B          Asus2  E      Bsus4/F#
Come along with me
C#m7       B          Asus2   E     Bsus4/F#
Come, come along with me
C#m7                    B       Asus2 E    Bsus4/F#
We'll go to places that we have never seen
C#m7                         B      Asus2 E   Bsus4/F#
And if we're together, we'll have a happy time
C#m7            B    Asus2 E        Bsus4/F#
'Cause I got no reservati  - ons    no.

Outro (Played eight times):

   B
e:-2---2---0-2-2---4---2---0---2-2---|---2-2-2---2-2---2-0-------2-2---|
B:-0---0---0-0-0---0---0---0---0-0---|---4-4-4---0-2---0-0-------0-0---|
G:-4---4---4-4-4---4---4---4---4-4---|---4-4-4---------4-----4---4-4---|
D:-4---4---4-4-4---4---4---4---4-4---|---4-4-4---------4-----4---------|
A:-2---2---2-2-2---2---2---2---2-2---|-----------------2-----2---------|
E:-----------------------------------|---------------------------------|
   Oh no
   Oh no
   cause I've got no reservations etc.

This Riff played over the above towards end of outro:

e:-7---0---6---0---4---0---2---0---4---0---2---0---4---2-p-0---0---0---|
B:-0---0---0---0---0---0---0---0---0---0---0---0---0---0---0---0---0---|
G:---------------------------------------------------------------------|
D:---------------------------------------------------------------------|
A:---------------------------------------------------------------------|
E:---------------------------------------------------------------------|

TP.




TURN IT AROUND  (Bob Mould)

Chords:

C X32010   C/B X2X010   Am X02210   G 320033

F 133211   E 0221XX   G# 466XXX

Fsus2 133011   G* 355033

Opening Riff:
                           G
e:-------------------------3---|
B:-------------------------3---|  Played
G:-------------------------0---|  Four
D:-----------------------------|  Times
A:-3---------------3-----------|
E:-----3---0-1-3-------3-------|

Verse Riff:

   C   C/B Am  G   F               G             F               G
e:-------------3---1---1---1-1-1---3-----3-3---1---1---1-1-1---3-----3-3-|
B:-------------3---1---1---1-1-1---3-----3-3---1---1---1-1-1---3-----3-3-|
G:-5---4---2---0---2---2---2-2-2---0-----0-0---2---2---2-2-2---0-----0-0-|
D:-----------------3---3---3-3-3---0-----0-0---3---3---3-3-3---0-----0-0-|
A:-----------------3---3---3-3-3---2-----2-2---3---3---3-3-3---2-----2-2-|
E:-----------------1---1---1-1-1---3-----3-3---1---1---1-1-1---3-----3-3-|

Verse: (with above Riff)

C       C/B
Several times I've tried
Am            G                 F
Everything to make you feel all right
          G                  F                 G
(Turn it around) Is anything working? Turn it around
C       C/B               Am
Several times I've died inside
           G             F
And then I see you get uptight
          G                   F
(Turn it around) We gotta get back
         G
Turn it around

Am               G
I've got time on my side
Am                     C
And you've got time on your side
E5            G#5
Now it's only time to de-

   Am
e:-----------0----------------------0-------|
B:------1---------1-------------1-------1---|
G:-2---------------------2------------------|
D:------------------------------------------|
A:------------------------------------------|
E:------------------------------------------|
  cide Which side you're on

Am                        G
We've tried everything in sight
Am                      C
To make it turn out all right

Fsus2
Now is the only time

Now is the only time
                                 G*
Now it's time to try to turn it around

Verse with Riff:

C       C/B
Several times I've wished
Am                    G           F
That everything would slip into a void
          G                   F                    G
(Turn it around) Does it even matter now? Turn it around
C            C/B
It's time to figure out
    Am                  G                  F
The things we want, and things that we'll avoid
          G               F
(Turn it around) We gotta get back
         G
Turn it around

Am                    G
Well I don't grab for straws anymore
Am                      C
And you don't sink your claws anymore
        E
But the more I think
    G#
The less I really

   Am
e:-----------0----------------------0-------|
B:------1---------1-------------1-------1---|
G:-2---------------------2------------------|
D:------------------------------------------|
A:------------------------------------------|
E:------------------------------------------|
   know ab -out   my -  self

Am                G
We gotta turn it around
Am               C
Before it goes into the ground

Fsus2
Now is the only time

Now is the only time
                                 G*
Now it's time to try to turn it around

                           G
e:-------------------------3---|
B:-------------------------3---|
G:-------------------------0---|
D:-----------------------------|
A:-3---------------3-----------|
E:-----3---0-1-3-------3-------|
                  Several times

                           G
e:-------------------------3---|
B:-------------------------3---|
G:-------------------------0---|
D:-----------------------------|
A:-3---------------3-----------|
E:-----3---0-1-3-------3-------|
                  tried to turn it a-
                           G
e:-------------------------3---|
B:-------------------------3---|
G:-------------------------0---|
D:-----------------------------|
A:-3---------------3-----------|
E:-----3---0-1-3-------3-------|
round             Several ways
                           G
e:-------------------------3---|
B:-------------------------3---|
G:-------------------------0---|
D:-----------------------------|
A:-3---------------3-----------|
E:-----3---0-1-3-------3-------|
                  tried to turn it a-

Solo Riff (Played twice):

   C       C/B      Am      G   F               G           F               G
e:-8---7-8-10---8-7-----7-8-10--1---1---1-1-1---3---3-3-3---1---1---1-1-1---3|
B:------------------8-----------1---1---1-1-1---2---2-2-2---1---1---1-1-1---2|
G:------------------------------2---2---2-2-2---0---0-0-0---2---2---2-2-2---0|
D:------------------------------3---3---3-3-3---0---0-0-0---3---3---3-3-3---0|
A:------------------------------3---3---3-3-3---2---2-2-2---3---3---3-3-3---2|
E:------------------------------1---1---1-1-1---3---3-3-3---1---1---1-1-1---3|
round

e:---3-3-3-|
B:---2-2-2-|
G:---0-0-0-|
D:---0-0-0-|
A:---2-2-2-|
E:---3-3-3-|

  Am (Riff)                      G
e:-----------------------------|
B:-----0-h-1---3-p-1-p-0---0---|
G:-2---2--(2)--2--(2)-(2)--2---|
D:-----------------------------|
A:-----------------------------|
E:-----------------------------|

Am (Riff)         C

   E               G#              Am
e:---------0---------------0---------------0---------------0-------|
B:-----0-------0-------1-------1-------1-------1-------1-------1---|
G:-1---------------1---------------2---------------2---------------|
D:-----------------------------------------------------------------|
A:-----------------------------------------------------------------|
E:-----------------------------------------------------------------|

  Am (Riff)                      G
e:-----------------------------|
B:-----0-h-1---3-p-1-p-0---0---|
G:-2---2--(2)--2--(2)-(2)--2---|
D:-----------------------------|
A:-----------------------------|
E:-----------------------------|

Am (Riff)         C

Fsus2
No  No No No No

No  No No No No
                G*
No  No No No No No

Verse with Solo Riff played over:

C               C/B                Am
There's several morals and there's several plays
G                  F          G
Several parts that anyone can try
     F                  G
It's enough to make you cry
C     C/B                Am
I may not think that I'm right
               G
But I know the things I've got
    F                  G
Are gonna turn out all right
         F                  G
We gotta get back, turn it around

Am           G
I may not be anything
Am                   C
And you might be the biggest thing
        E                G#
But the biggest thing to me Is making

   Am
e:-----------0----------------------0-------|
B:------1---------1-------------1-------1---|
G:-2---------------------2------------------|
D:------------------------------------------|
A:------------------------------------------|
E:------------------------------------------|
 this  thing work for    life

Am                G
We gotta turn it around
Am               C
Before it goes into the ground

Fsus2
Now is the only time

Now is the only time
                                 G
Now it's time to try to turn it around

                           G
e:-------------------------3---| Play
B:-------------------------3---| nine
G:-------------------------0---| times.
D:-----------------------------| Hold
A:-3---------------3-----------| final
E:-----3---0-1-3-------3-------| G
                  Several times
                   tried to turn it a-
round             Several times
                   tried to turn it a-
round (Repeat to end).

TP




SHE'S A WOMAN  (AND NOW HE IS A MAN) - (Grant Hart) 

Chords (Nb. ()= little,or no emphasis placed on this note):

Dsus4 XX023(3)   Csus2 X32033   Fsus2 13X033   G 320033

Intro:

   Fsus2                  Csus2                  G             Csu G
e:-3---3-3---3--3--3--3---3---3-3---3--3--3--3---3-----------3-5---3---3-----|
B:-3---3-3---3--3--3--3---3---3-3---3--3--3--3---3-----------3-3---3---------|
G:-0---0-0---0--0--0--0---0---0-0---0--0--0--0---0-----------0-0---0-------0-|
D:-X---X-X---X--X--X--X---2---2-2---2--2--2--2---0---------------------------|
A:-3---3-3---3--3--3--3---3---3-3---3--3--3--3-------------------------------|
E:-1---1-1---1--1--1--1--------------------------3---------------------------|


   G                     Csus2         G               Csus G
e:-3-----------------------------3---1/3---3-5---3---1/3----3---3------------|
B:-3-----------------------------3---1/3---3-3---3---1/3----3---3------------|
G:-0-----------------------------0---0-0---0-0---0---0-0----0---0------------|
D:-0-----------------------------0---3/5-------------3/5---------------------|
A:-2-------------------------------------------------------------------------|
E:-3-------------------------------------------------------------------------|
   I can see her loading boxes in my mind


   G                       Csus2       Fsus2           Dsus4
e:-3----------------3------------3---1/3---3-5---3---1/3----5---3------------|
B:-3--------------------3--------3---1/3---3-3---3---1/3----3---3------------|
G:-0-----------------------0-----0---0-0---0-0---0---0-0----0---0------------|
D:-0-----------------------------0---3/5-------------3/5---------------------|
A:-2-------------------------------------------------------------------------|
E:-3-------------------------------------------------------------------------|   
   Into a belvedere with a trailer  pulled behind 


   G                       Csus2       G               Csus G
e:-3-----------------------------3---1/3---3-5---3---1/3----5---3------------|
B:-3--------------------3--------3---1/3---3-3---3---1/3----3---3------------|
G:-0-----------------------0-----0---0-0---0-0---0---0-0----0---0------------|
D:-0-----------------------------0---3/5-------------3/5---------------------|
A:-2-------------------------------------------------------------------------|
E:-3-------------------------------------------------------------------------|   
   Well things didn't go exactly as they planned 

Nb. At this point although Bob actually only plays the three note figure shown
below, I would advise you fret the bracketred notes for a fuller effect.

   Fsus2            Csus2         G
e:-3----------------3-------------3-------------3---------------------------|
B:(3)--3-----------(3)--3--------(3)--3-------------3-----------------------|
G:(0)------0-------(0)------0----(0)------0-------------0-------------------|
D:-----------------(2)-----------(0)----------------------------------------|
A:(3)--------------(3)-----------(2)----------------------------------------|
E:(1)----------------------------(3)----------------------------------------|
  She's a woman and now he is a   man

G                 Csus2             G         Csus2 G 
There's a vacancy between them everyday
G                           Csus2      Fsus2         Dsus4
And a sense of guilt that's not going away - a - a - ay
     G                 Csus2             G    Csus2 G
When they get older perhaps they'll understand
Fsus2             Csus2       G
She's a woman and now he is a man

    Fsus2         Csus2              G
And now he's into something that her heart cannot forgive
      Fsus2        Csus2              G 
She's saying to herself, "No, this is not the way to live"
      Fsus2        Csus2             G 
He'll never listen to her 'cause his mind is like a sieve
   Fsus2                      Csus2
Oh brother!  Oh brother!  I'm telling your sister
Dsus4
No way can I resist her

       G              Csus2            G                  Csus2 G 
With a guilty feeling hanging in their brain
G                         Csus2       Fsus2           Dsus4
And the two of them are potentially insane - a - a - ane
             G                   Csus2              G     Csus2 G
Well they've had enough which is more than they can stand
Fsus2             Csus2       G
She's a woman and now he is a man

Break:

Fsus2    Csus2    G

Fsus2    Csus2    G

Fsus2    Csus2    G

Fsus2    Csus2    Dsus4


G                     Csus2       G           Csus2 G
I can see her loading boxes in my mind
G                       Csus2            Fsus2  Dsus4 
Into a belvedere with a trailer pulled behind
     G                  Csus2         G       Csus2 G 
Well things didn't go exactly as they planned

Fsus2             Csus2       G
She's a woman and now he is a man
Fsus2             Csus2       G
She's a woman and now he is a man
Fsus2             Csus2       G
She's a woman and now he is a man
Fsus2             Csus2       G
She's a woman and now he is a man
Fsus2             Csus2       G
She's a woman and now he is a man
Fsus2             Csus2       G(hold)
She's a woman and now he is a man

TP.




UP IN THE AIR  (Bob Mould)

RETUNE to EBF#C#BE
(ie. A string up to B, D string up to F#, G string up to C#)

F# RIFF - Repeats THROUGHOUT song on second acoustic guitar.

() = Little Emphasis placed on note.

E :-------------------------------------------------|
B :---7--------7--------7------7--------7--------7--|
C#:(5)--5---(5)--5---(5)----(5)--5---(5)--5---(5)---|
F#:-0--------0--------0------0--------0--------0----|
B :-------------------------------------------------|
E :-------------------------------------------------|

Verse Riff (No intro):

   F# Riff                                            G#     B      E      C#
E :-------------------------------------------------|-------------------------|
B :---7--------7--------7------7--------7--------7--|-------------------------|
C#:(5)--5---(5)--5---(5)----(5)--5---(5)--5---(5)---|-2------5------3------0--|
F#:-0--------0--------0------0--------0--------0----|-2------5------5------2--|
B :-------------------------------------------------|-4------7------5------2--|
E :-------------------------------------------------|-------------------------|
    Pass   away      the    hours,       hear the    footsteps of   the    past
    Walking up       the stairs        of time,      knowing that I'm trap-ped
    Cold   winds     of    indifference              persuade a movement south
    Thinking that it's better there           The warmer climes that we seek out

Chorus:
    F#                  G#  F#      F#       B
E :-2---2----0--2--2----4---2---0---2---2----7---7--7--7--7---7---7---7----7---|
B :-2---2----0--2--2----4---2---0---2---2----0---0--0--0--0---0--(0)-(0)--(0)--|
C#:-0---0----0--0--0----0---0---0---0---0----5---5--5--5--5---5-----5---5----5-|
F#:-0---0----0--0--0----0---0---0---0---0----0---0--0--0--0---0----(0)-(0)--(0)|
B :-2---2----0--2--2----4---2---0---2---2---(7)-(7)(7)(7)(7)-(7)---------------|
E :-2---2----0--2--2----4---2---0---2---2--------------------------------------|
         Poor bird flies up in the air,(in the air) never getting anywhere
And how much misery can one soul take? (in the air)Trying to fly away might have
                                                    been your first mistake
          Poor bird flies up in the air (in the air)

    F#                  G#  F#      F#       B
E :-2---2----0--2--2----4---2---0---2---2----7---7--7--7--7---7---7---7----7---|
B :-2---2----0--2--2----4---2---0---2---2----0---0--0--0--0---0--(0)-(0)--(0)--|
C#:-0---0----0--0--0----0---0---0---0---0----5---5--5--5--5---5-----5---5----5-|
F#:-0---0----0--0--0----0---0---0---0---0----0---0--0--0--0---0----(0)-(0)--(0)|
B :-2---2----0--2--2----4---2---0---2---2---(7)-(7)(7)(7)(7)-(7)---------------|
E :-2---2----0--2--2----4---2---0---2---2--------------------------------------|         
Never getting anywhere         (in the air)

   F# Riff                                            G#     B      E      C#
E :-------------------------------------------------|--------------------------|
B :---7--------7--------7------7--------7--------7--|--------------------------|
C#:(5)--5---(5)--5---(5)----(5)--5---(5)--5---(5)---|-2------5------3------0---|
F#:-0--------0--------0------0--------0--------0----|-2------5------5------2---|
B :-------------------------------------------------|-4------7------5------2---|
E :-------------------------------------------------|--------------------------|
    Picking petals   off    a        flower,          loves me,  loves me  not
    Is      love     another way to count     the     things you haven't   got?
  Well we wish the best to all our friends,   for     young  and    old    alike
  When the dust has settled in the sky, well you can  have anything you    like

2nd Chorus:

    F#                G#  F#      F#        B
E :-2---2---0--2--2---4---2---0---2---2-----7---7--7--7--7----7---7---7----7---|
B :-2---2---0--2--2---4---2---0---2---2-----0---0--0--0--0----0--(0)-(0)--(0)--|
C#:-0---0---0--0--0---0---0---0---0---0-----5---5--5--5--5----5-----5---5----5-|
F#:-0---0---0--0--0---0---0---0---0---0-----0---0--0--0--0----0----(0)-(0)--(0)|
B :-2---2---0--2--2---4---2---0---2---2----(7)-(7)(7)(7)(7)--(7)---------------|
E :-2---2---0--2--2---4---2---0---2---2----------------------------------------|
         Poor bird flies up in the air,(in the air) never getting anywhere
And how much misery can one soul take? (in the air)Trying to fly away might have
                                                    been your first mistake
          Poor bird flies up in the air (in the air)

    F#                  G#  F#      F#       B
E :-2---2----0--2--2----4---2---0---2---2----7---7--7--7--7---7---7---7----7---|
B :-2---2----0--2--2----4---2---0---2---2----0---0--0--0--0---0--(0)-(0)--(0)--|
C#:-0---0----0--0--0----0---0---0---0---0----5---5--5--5--5---5-----5---5----5-|
F#:-0---0----0--0--0----0---0---0---0---0----0---0--0--0--0---0----(0)-(0)--(0)|
B :-2---2----0--2--2----4---2---0---2---2---(7)-(7)(7)(7)(7)-(7)---------------|
E :-2---2----0--2--2----4---2---0---2---2--------------------------------------|
         Never getting anywhere         (in the air)

    F#                G#  F#      F#       B
E :-2---2---0--2--2---4---2---0---2---2----7----7--7--7--7----7---7---7----7---|
B :-2---2---0--2--2---4---2---0---2---2----0----0--0--0--0----0--(0)-(0)--(0)--|
C#:-0---0---0--0--0---0---0---0---0---0----5----5--5--5--5----5-----5---5----5-|
F#:-0---0---0--0--0---0---0---0---0---0----0----0--0--0--0----0----(0)-(0)--(0)|
B :-2---2---0--2--2---4---2---0---2---2---(7)--(7)(7)(7)(7)--(7)---------------|
E :-2---2---0--2--2---4---2---0---2---2----------------------------------------|
         Poor bird flies up in the air,(in the air) never getting anywhere
And how much misery can one soul take? (in the air)Trying to fly away might have
                                                    been your first mistake
          Poor bird flies up in the air (in the air)


    F#                 G#  F#      F#      B
E :-2---2---0--2--2----4---2---0---2---2---7----7--7--7--7----7---7---7----7---|
B :-2---2---0--2--2----4---2---0---2---2---0----0--0--0--0----0--(0)-(0)--(0)--|
C#:-0---0---0--0--0----0---0---0---0---0---5----5--5--5--5----5-----5---5----5-|
F#:-0---0---0--0--0----0---0---0---0---0---0----0--0--0--0----0----(0)-(0)--(0)|
B :-2---2---0--2--2----4---2---0---2---2--(7)--(7)(7)(7)(7)--(7)---------------|
E :-2---2---0--2--2----4---2---0---2---2---------------------------------------|
         Never getting anywhere         (in the air) oh....

    F#                  G#  F#      F#       B
E :-2---2----0--2--2----4---2---0---2---2----7----7--7--7--7----7----7----7----|
B :-2---2----0--2--2----4---2---0---2---2----0----0--0--0--0----0----0----0----|
C#:-0---0----0--0--0----0---0---0---0---0----5----5--5--5--5----5----5----5----|
F#:-0---0----0--0--0----0---0---0---0---0----0----0--0--0--0----0----0----0----|
B :-2---2----0--2--2----4---2---0---2---2---(7)--(7)(7)(7)(7)--(7)--(7)--(7)---|
E :-2---2----0--2--2----4---2---0---2---2--------------------------------------|
         Poor bird flies up  in the  air(in the air)
         Never  getting  any      where (in the air)
         Poor bird flies up  in the  air(in the air)

    F#                  G#  F#      F#       B(hold)
E :-2---2----0--2--2----4---2---0---2---2----7---------------------------------|
B :-2---2----0--2--2----4---2---0---2---2----0---------------------------------|
C#:-0---0----0--0--0----0---0---0---0---0----5---------------------------------|
F#:-0---0----0--0--0----0---0---0---0---0----0---------------------------------|
B :-2---2----0--2--2----4---2---0---2---2---(7)--------------------------------|
E :-2---2----0--2--2----4---2---0---2---2--------------------------------------|
         Never   getting any         where

TP.




UP IN THE AIR (Bob Mould) 

Live version (no need to re-tune phew!) 

Intro:

   F#(hold)
e:-------------------|
B:-7-----------------|
G:-6-----------------|
D:-4-----------------|
A:-4-----------------|
E:-------------------|

Verse :

   F# Riff                                           G#5    B5     E5     C#5
e:-------------------------------------------------|---------------------------|
B:-7-------7-------7-------7-------7-------7-------|-9-------------------------|
G:-6-6-----6-6-----6-6-----6-6-----6-6-----6-6-----|-8-------------9------6----|
D:-4---4---4---4---4---4---4---4---4---4---4---4---|-6------9------9------6----|
A:-4-------4-------4-------4-------4-------4-------|-6------9------7------4----|
E:-------------------------------------------------|--------7------------------|
    Pass   away      the    hours,       hear the    footsteps of   the    past
    Walking up       the stairs        of time,      knowing that I'm trap-ped
    Cold   winds     of    indifference              persuade a movement south
    Thinking that it's better there              The warmer climes that we seek out

Chorus:
   F#        E  F#      G#  F#  E   F#       B                   Bsus4                 
e:---------------------------------------------------------------0-0-0-0---0-0-0-0-|
B:---------------------------------------------------------------0-0-0-0---0-0-0-0-|
G:-3----3----1--3--3----5---3---1---3---3----4-4-4-4---4-4-4-4---4-4-4-4---4-4-4-4-|
D:-4----4----2--4--4----6---4---2---4---4----4-4-4-4---4-4-4-4---4-4-4-4---4-4-4-4-|
A:-4----4----2--4--4----6---4---2---4---4----2-2-2-2---2-2-2-2---------------------|
E:-2----2----0--2--2----4---2---0---2---2------------------------------------------| 
         Poor bird flies up in the air,(in the air) never getting anywhere
And how much misery can one soul take? (in the air)Trying to fly away might have
                                                    been your first mistake
          Poor bird flies up in the air (in the air)

   F#        E  F#      G#  F#  E   F#       B(hold)               
e:---------------------------------------------------------------------------------|
B:---------------------------------------------------------------------------------|
G:-3----3----1--3--3----5---3---1---3---3----4-------------------------------------|
D:-4----4----2--4--4----6---4---2---4---4----4-------------------------------------|
A:-4----4----2--4--4----6---4---2---4---4----2-------------------------------------|
E:-2----2----0--2--2----4---2---0---2---2------------------------------------------|  
         Never getting anywhere         (in the air)


   F# Riff                                           G#5    B5     E5     C#5
e:-------------------------------------------------|---------------------------|
B:-7-------7-------7-------7-------7-------7-------|-9-------------------------|
G:-6-6-----6-6-----6-6-----6-6-----6-6-----6-6-----|-8-------------9------6----|
D:-4---4---4---4---4---4---4---4---4---4---4---4---|-6------9------9------6----|
A:-4-------4-------4-------4-------4-------4-------|-6------9------7------4----|
E:-------------------------------------------------|--------7------------------|
    Picking petals   off    a        flower,          loves me,  loves me  not
    Is      love     another way to count     the     things you haven't   got?
  Well we wish the best to all our friends,   for     young  and    old    alike
  When the dust has settled in the sky, well you can  have anything you    like


2nd Chorus:
   F#        E  F#      G#  F#  E   F#       B                   Bsus4                 
e:---------------------------------------------------------------0-0-0-0---0-0-0-0-|
B:---------------------------------------------------------------0-0-0-0---0-0-0-0-|
G:-3----3----1--3--3----5---3---1---3---3----4-4-4-4---4-4-4-4---4-4-4-4---4-4-4-4-|
D:-4----4----2--4--4----6---4---2---4---4----4-4-4-4---4-4-4-4---4-4-4-4---4-4-4-4-|
A:-4----4----2--4--4----6---4---2---4---4----2-2-2-2---2-2-2-2---------------------|
E:-2----2----0--2--2----4---2---0---2---2------------------------------------------| 
         Poor bird flies up in the air,(in the air) never getting anywhere
And how much misery can one soul take? (in the air)Trying to fly away might have
                                                    been your first mistake
          Poor bird flies up in the air (in the air)

   F#        E  F#      G#  F#  E   F#       B(hold)               
e:---------------------------------------------------------------------------------|
B:---------------------------------------------------------------------------------|
G:-3----3----1--3--3----5---3---1---3---3----4-------------------------------------|
D:-4----4----2--4--4----6---4---2---4---4----4-------------------------------------|
A:-4----4----2--4--4----6---4---2---4---4----2-------------------------------------|
E:-2----2----0--2--2----4---2---0---2---2------------------------------------------|  
         Never getting anywhere         (in the air)

   F#        E  F#      G#  F#  E   F#       B                   Bsus4                 
e:---------------------------------------------------------------0-0-0-0---0-0-0-0-|
B:---------------------------------------------------------------0-0-0-0---0-0-0-0-|
G:-3----3----1--3--3----5---3---1---3---3----4-4-4-4---4-4-4-4---4-4-4-4---4-4-4-4-|
D:-4----4----2--4--4----6---4---2---4---4----4-4-4-4---4-4-4-4---4-4-4-4---4-4-4-4-|
A:-4----4----2--4--4----6---4---2---4---4----2-2-2-2---2-2-2-2---------------------|
E:-2----2----0--2--2----4---2---0---2---2------------------------------------------| 
         Poor bird flies up in the air,(in the air) never getting anywhere
And how much misery can one soul take? (in the air)Trying to fly away might have
                                                    been your first mistake
          Poor bird flies up in the air (in the air)

   F#        E  F#      G#  F#  E   F#       B(hold)               
e:---------------------------------------------------------------------------------|
B:---------------------------------------------------------------------------------|
G:-3----3----1--3--3----5---3---1---3---3----4-------------------------------------|
D:-4----4----2--4--4----6---4---2---4---4----4-------------------------------------|
A:-4----4----2--4--4----6---4---2---4---4----2-------------------------------------|
E:-2----2----0--2--2----4---2---0---2---2------------------------------------------| 
         Never getting anywhere         (in the air) oh....

   F#        E  F#      G#  F#  E   F#       B                   Bsus4                 
e:---------------------------------------------------------------0-0-0-0---0-0-0-0-|
B:---------------------------------------------------------------0-0-0-0---0-0-0-0-|
G:-3----3----1--3--3----5---3---1---3---3----4-4-4-4---4-4-4-4---4-4-4-4---4-4-4-4-|
D:-4----4----2--4--4----6---4---2---4---4----4-4-4-4---4-4-4-4---4-4-4-4---4-4-4-4-|
A:-4----4----2--4--4----6---4---2---4---4----2-2-2-2---2-2-2-2---------------------|
E:-2----2----0--2--2----4---2---0---2---2------------------------------------------| 
         Poor bird flies up  in the  air(in the air)           
         Never  getting  any      where (in the air)
         Poor bird flies up  in the  air(in the air)           

   F#        E  F#      G#  F#  E   F#       B(hold)               
e:---------------------------------------------------------------------------------|
B:---------------------------------------------------------------------------------|
G:-3----3----1--3--3----5---3---1---3---3----4-------------------------------------|
D:-4----4----2--4--4----6---4---2---4---4----4-------------------------------------|
A:-4----4----2--4--4----6---4---2---4---4----2-------------------------------------|
E:-2----2----0--2--2----4---2---0---2---2------------------------------------------|
         Never   getting any         where....... 

TP.        





YOU CAN LIVE AT HOME  (Grant Hart)

Chords:

Dsus2 XX0230   Dsus2/B X2X230   Asus4 X02230   Asus2 X02200

G     320033   A       X02220   E     022100

Intro:

Dsus2     Dsus2/B     Asus4    G

Dsus2     Dsus2/B     Asus4    G

Dsus2                          Asus4            Asus2
You're looking for a chance to give your mind a rest
Dsus2                        Asus4            Asus2
Now please correct me if I'm wrong
Dsus2                       Asus4      Asus2
The story goes that I'm not terribly impressed
Dsus2                     Asus4        Asus2
I guess I've known it all along

Dsus2                  Dsus2/B      Asus4
Walk, walk, walk away, walk keep on walking
              G
Walk, keep on walking, walk, walk away
Dsus2                  Dsus2/B      Asus4
Walk, walk, walk away, walk keep on walking
               G
Walk, walking away - ay

Dsus2                     Asus4          Asus2
Figured it out that I was wasting all my time
Dsus2                     Asus4          Asus2
And time was eating at my soul
Dsus2                   Asus4           Asus2
Now I find comfort only somewhere in my mind
Dsus2                  Asus4            Asus2
Free to pursue another goal

Dsus2                  Dsus2/B      Asus4
Walk, walk, walk away, walk keep on walking
              G
Walk, keep on walking, walk, walk away
Dsus2                  Dsus2/B      Asus4
Walk, walk, walk away, walk keep on walking
               G
Walk, walking away - ay

Dsus2                  Dsus2/B      Asus4
Walk, walk, walk away, walk keep on walking
              G
Walk, keep on walking, walk, walk away
Dsus2                  Dsus2/B      Asus4
Walk, walk, walk away, walk keep on walking
              G
Walk, keep on walking, walk, walk away

Dsus2          Dsus2/B      Asus4
I can be fine, I can be free
                            G
I can beautiful without you torturing me
Dsus2                  Dsus2/B      Asus4
Walk, walk, walk away, walk keep on walking
               G
Walk, walking away - ay

Break:

Dsus2                     A                       E
You can live at home now, you can live at home now
Dsus2                     A                       E
You can live at home now, you can live at home now
Dsus2                     A                       E
You can live at home now, you can live at home now
Dsus2                     A                       E
You can live at home now, you can live at home now
Dsus2                     A                       E
You can live at home now, you can live at home now
Dsus2                     A                       E
You can live at home now, you can live at home now

Repeat above to fade.....

TP.
 
comments
We did not receive enough feedback on this tab! Please rate:
print report bad tab
1 2 3 4 5
I want to post or [tab]
guest
You may want to rate the tab now too:
select rating
Please do not post tabs as comments. Select "correction" instead!