Oops, an error
Loading. Please wait.

Zen Arcade Tab

ver2
ver2

Album

More versions @911Tabs.com
1,013 views 9 this week
no commentswrite comment
1 2 3 4 5
excellent!
x 1
Autoscroll
+/-
esc
set tempo
stop
Contributor
Hey! There's an official Ultimate Guitar app which is ideal
for learning songs when you're away from computer. Get the app
WARNING: You are trying to view
                                    content from Ultimate-Guitar.com
                                    in an unauthorized application,
                                    which is prohibited.

                                    Please use an official Ultimate
                                    Guitar Tabs application for iPhone,
                                    iPad or Android to access legitimate
                                    chords, guitar, bass, and drum tabs
                                    from Ultimate-Guitar.com database.

                                    Type "ultimate guitar tabs" in Apple
                                    App Store's or Android Market's
                                    search to find the application.
This is all the work of TONY PEART not mine


SOMETHING I LEARNED TODAY (Bob Mould)

Chords:
B  X2440X    F# 244X0X   D  X5770X   A 57700X
Asus2 X0220X  B X2440X   C# X466XX   E X79900  *F# X9 11 11 XX

Intro (bass) played three times:
G:---------------------------------------------------------------------------|
D:-4---4---4---4---4---4---4---4-----------------------------------7---7---7-|
A:-0---2---2---0---0---2---2---0---4---4---4---4---4---4---4---4---0---5---5-|
E:---------------------------------0---2---2---0---0---2---2---0-------------|

G:----------------------------------------------------|
D:--7---7---7---7---7---------------------------------|
A:--0---0---5---5---0---7---7---7---7---7---7---7---7-|
E:----------------------0---5---5---0---0---5---5---0-|

GUITAR (chord held over second run of bass riff):
    B
e:-----------------------------------------------------------------|
B:--0--------------------------------------------------------------|
G:--4--------------------------------------------------------------|
D:--4--------------------------------------------------------------|
A:--2--------------------------------------------------------------|
E:-----------------------------------------------------------------|

GUITAR (played over third run of bass riff):
   B                   F#                  D                   A
e:---------------------------------------------------------------------------|
B:-0-0-0-0---0-0-0-0---0-0-0-0---0-0-0-0---0-0-0-0---0-0-0-0---0-0-0-0---0-0-|
G:-4-4-4-4---4-4-4-4-----------------------7-7-7-7---7-7-7-7---0-0-0-0---0-0-|
D:-4-4-4-4---4-4-4-4---4-4-4-4---4-4-4-4---7-7-7-7---7-7-7-7---7-7-7-7---7-7-|
A:-0-2-2-2---0-2-2-2---4-4-4-4---4-4-4-4---0-5-5-5---0-5-5-5---7-7-7-7---7-7-|
E:---------------------0-2-2-2---0-2-2-2-----------------------0-5-5-5---0-5-|

e:--------|
B:0-0---0-|
G:0-0---0-|
D:7-7---7-|
A:7-7---7-|
E:5-5---5-|

B           D         Asus2
Something I learned today
B                   Asus2  C#
Black and white is always grey
B                   D      Asus2
Looking through the window pane
B         C#     Asus2
I'm not inside  your

GUITAR Riff (played twice)

   B                   F#                  D                   A
e:---------------------------------------------------------------------------|
B:-0-0-0-0---0-0-0-0---0-0-0-0---0-0-0-0---0-0-0-0---0-0-0-0---0-0-0-0---0-0-|
G:-4-4-4-4---4-4-4-4-----------------------7-7-7-7---7-7-7-7---0-0-0-0---0-0-|
D:-4-4-4-4---4-4-4-4---4-4-4-4---4-4-4-4---7-7-7-7---7-7-7-7---7-7-7-7---7-7-|
A:-0-2-2-2---0-2-2-2---4-4-4-4---4-4-4-4---0-5-5-5---0-5-5-5---7-7-7-7---7-7-|
E:---------------------0-2-2-2---0-2-2-2-----------------------0-5-5-5---0-5-|
   brain...

e:--------|
B:0-0---0-|
G:0-0---0-|
D:7-7---7-|
A:7-7---7-|
E:5-5---5-|

B            D        Asus2
Something I learned today
B            Asus2    C#
Yield to the right-of-way
B             D     Asus2
Stopping at a 4-way sign
B              C#             Asus2
Someone else's rules, not mine


GUITAR Riff (played twice)

B            D         Asus2
Something I learned today
B                    Asus2  C#
Never look straight in the sun's rays
B               D        Asus2
Letting all the sunshine in
B              C#     Asus2
Can't remember where I've been

GUITAR Riff (played four times)

Something I learned
B
to day ay ay
C#          E          B
Something I learned to day ay ay
C#          E          B
Something I learned to day ay ay
C#          E          B
Something I learned to day ay ay
C#          E          B
Something I learned to day ay ay
C#          E          B
Something I learned to day ay ay
C#          E          B
Something I learned to day ay ay

*F# // E  F#    (F# with open B string picked to fade)

TP.

BROKEN HOME, BROKEN HART (Bob Mould)

Chords:

E 079900    A5 577XXX     B5 799XXX    G  320033    D XX023X

F#5 244XXX  Asus2 X02200  C#5 X466XXX  E* X22450

Intro:

E    E - Pick scrape.

E                  A5   B5
I look at your house
E                  A5   B5
I wonder what goes on inside
E                                A5       B5
When you have to cry yourself to sleep at night

   G (riff)
e:-3-------------------3---------------|
B:-3-------------------3---------------|
G:-0-------------------0---0-0---0-----|
D:-0-------------------------------0---|
A:-2---2-2---0---0-0---2---2-3---2-2---|
E:-3---3-3-------------------------3---|

E                    A5       B5
Your parents fight
E                    A5       B5
You don't know who's wrong or right
E                       A5       B5
Have to cry yourself to sleep at night

   G (riff)
e:-3-------------------3---------------|
B:-3-------------------3---------------|
G:-0-------------------0---0-0---0-----|
D:-0-------------------------------0---|
A:-2---2-2---0---0-0---2---2-3---2-2---|
E:-3---3-3-------------------------3---|


G                       D
A broken home, a broken heart
         G                        D
When the two of them will have to part
              G                 D
It's a broken home, or a broken heart
        E*
Now you know just how it feels
E*
To have to cry yourself to sleep at night

   E5      D                   Asus2   D
e:---------------------------|-----0---------------------|
B:---------3-3-3-3-3-3-3-3---|-----0---3-3-3-3-3-3-3-3---|
G:-----4---2-2-2-2-2-2-2-2---|-2---2---2-2-2-2-2-2-2-2---| Played
D:-2---2---0-0-0-0-0-0-0-0---|-2---2---0-0-0-0-0-0-0-0---| twice
A:-2---2---------------------|-0---0---------------------|
E:-0---0---------------------|---------------------------|

E                  A5   B5
I look at your house
E                     A5   B5
I look in your window deep inside
E                                A5      B5
How you going to cry yourself to sleep tonight?

   G (riff)
e:-3-------------------3---------------|
B:-3-------------------3---------------|
G:-0-------------------0---0-0---0-----|
D:-0-------------------------------0---|
A:-2---2-2---0---0-0---2---2-3---2-2---|
E:-3---3-3-------------------------3---|

E                    A5       B5
Your parents fight
E                    A5       B5
You don't know who's wrong or right
E                       A5       B5
Have to cry yourself to sleep at night

   G (riff)
e:-3-------------------3---------------|
B:-3-------------------3---------------|
G:-0-------------------0---0-0---0-----|
D:-0-------------------------------0---|
A:-2---2-2---0---0-0---2---2-3---2-2---|
E:-3---3-3-------------------------3---|


G                       D
A broken home, a broken heart
         G                        D
When the two of them will have to part
              G                 D
It's a broken home, or a broken heart
        E*
Now you know just how it feels
E*
To have to cry yourself to sleep at night

   E5      D                   Asus2   D
e:---------------------------|-----0---------------------|
B:---------3-3-3-3-3-3-3-3---|-----0---3-3-3-3-3-3-3-3---|
G:-----4---2-2-2-2-2-2-2-2---|-2---2---2-2-2-2-2-2-2-2---| Played
D:-2---2---0-0-0-0-0-0-0-0---|-2---2---0-0-0-0-0-0-0-0---| twice
A:-2---2---------------------|-0---0---------------------|
E:-0---0---------------------|---------------------------|

Break:

   E                     (hold)
e:--------------------------------------------------|
B:-5-5---5-5---5-5-5-5---5------------------------\-|
G:-4-4---4-4---4-4-4-4---4------------------------\-|
D:-2-2---2-2---2-2-2-2---2------------------------\-|
A:-2-2---2-2---2-2-2-2---2------------------------\-|
E:--------------------------------------------------|

                                                       (Very Fast):
   F#   Asus2 F#   Asus2   C#5                         F#          Asus2
e:-----------------------------------------|         |-0-0-0-0-----0--(0)-(0)-|
B:-----------------------------------------| Played  |-5-5-5-5-----5--(5)-(5)-|
G:-----------------------------6-6---6-6---| three   |-7-7-7-7-----7-b-9-r-7--|
D:-----------------------------6-6---6-6---| times   |------------------------|
A:-------0---------0---2-/(4)--4-4---4-4---|         |------------------------|
E:-2-2-------2-2---------------------------|         |------------------------|

  F#          Asus2        F#          Asus2        D
|-0-0-0-0-----0--(0)-(0)-|-0-0-0-0-----0--(0)-(0)-|-0-0-0-0-----0--(0)-(0)-|
|-5-5-5-5-----5--(5)-(5)-|-5-5-5-5-----5--(5)-(5)-|-5-5-5-5-----5--(5)-(5)-|
|-7-7-7-7-----7-b-9-r-7--|-7-7-7-7-----7-b-9-r-7--|-7-7-7-7-----7-b-9-r-7--|
|------------------------|------------------------|------------------------|
|------------------------|------------------------|------------------------|
|------------------------|------------------------|------------------------|

   F#      Asus2 F#        Asus2     C#5
e:-----------------------------------------------|
B:-----------------------------------------------|
G:-------------------------------------------6-6-| Played
D:-------------------------------------------6-6-| twice
A:---------0-----2----4----2----0----2-/(4)--4-4-|
E:-2-2-------------------------------------------|

   F#  A5           F#      B5  C#5     A5
e:------------------------------------|-0---0----0--0--|
B:------------------------------------|-5---5----5--5--|
G:-11/-14-14---14-\-11-11-------------|-7-b(9)--(9)(9)-|
D:-11/-14-14---14-\-11-11---9-/-11-11-|----------------|
A:-9-/-12-12---12-\-9--9----9-/-11-11-|----------------|
E:--------------------------7-/-9--9--|----------------|

  A5
|-0---0----0--0--|-0---0----0--0--|-0---0----0--0--|
|-5---5----5--5--|-5---5----5--5--|-5---5----5--5--|
|-7-b(9)--(9)(9)-|-7-b(9)--(9)(9)-|-7-b(9)--(9)(9)-|
|----------------|----------------|----------------|
|----------------|----------------|----------------|
|----------------|----------------|----------------|

   G             D        Asus2
e:------------------------0-------------------|
B:------------------------0-------------------| Played
G:-12-12---------7--------2-------------------| four
D:-12-12---------7--------2-------------------| times
A:-10-10---------5--------0-------------------| to
E:--------------------------------------------| end.

TP.

NEVER TALKING TO YOU AGAIN (Grant Hart)

Chords:

Am X02210     Asus2 X02200    Em 022000    G 320033    D XX0232

Dsus4 XX233   Dsus2 XX0230

Intro:  Am   Em   Am   Em   (Played twice)

Am        Em              Am      Em
There are things that I'd like to say
        G     D          Am   Asus2
But I'm never talking to you again
Am                 Em      Am          Em
There's things I'd like to phrase some way
        G     D          Am   Asus2
But I'm never talking to you again

Chorus:

    D     Dsus4 D    Am   Asus2
I'm never talking to you again
    D     Dsus4 D    Am   Asus2
I'm never talking to you
    D        Dsus4 D Am     Asus2
I'm tired of wasting all my time
G(hold)           D
Trying to talk to you

Am          Em         Am    Em
I'd put you down where you belong
        G     D          Am   Asus2
But I'm never talking to you again
Am           Em    Am         Em
I'd show you every way you're wrong
        G     D          Am   Asus2
But I'm never talking to you again

Chorus:

    D     Dsus4 D    Am   Asus2
I'm never talking to you again
    D     Dsus4 D    Am   Asus2
I'm never talking to you
    D        Dsus4 D Am     Asus2
I'm tired of wasting all my time
G(hold)           D
Trying to talk to you (talking to you)

Break: Verse chords (no vocal)

Chorus:

    D     Dsus4 D    Am   Asus2
I'm never talking to you again
    D     Dsus4 D    Am   Asus2
I'm never talking to you
    D        Dsus4 D Am     Asus2
I'm tired of wasting all my time
G(hold)           Dsus2(hold)
Trying to talk to you

TP.

CHARTERED TRIPS (Bob Mould)

Chords:

F# 244XXX  G# 466XXX  B X2440X  C# X466XX  Asus2 X02200  G 355033

Intro Riff (Played Twice)
e:-------------------------------------------------------------------------|
B:-----0-----------0-----------0-----------0-----------0-----------0-------|
G:-----4-----------4-----------4-----------4-----------4-----------4-------|
D:-------------------------2-------2---------------------------------------|
A:-2-------2---4-------4---------------0-------0---------------------------|
E:-------------------------------------------------3-------3---2-------2---|

Verse Riff (play bass notes with thumb)
   F#            G#                B                C#
e:----------------------------------------------------0-0---------------------|
B:---------------------------------0---0---0---0------0-0--4--0-0----0-0------|
G:---------------------------------4---4---4---4-sl-6---------4-4----4-4------|
D:-4---4---4---4-6---6---6---6-6---4---4---4---4-sl-6---------6-6----6-6------|
A:-4---4---4---4-6---6---6---6-6---2---2---2---2-sl-4-------------------------|
E:-2---2---2---2-4---4---4---4-4----------------------------------------------|

F#                  G#              B           C#
Well I picked up my belongings in a nylon carry-all
F#                G#         B        C#
I hear the porter call
F#                  G#            B               C#
Said "The sky's the limit on this chartered trip away,"
F#                  G#         Asus2
I guess I'd better stay

F#               G#             B             C#
Out there on the desert, I see trees on every wall
F#             G#           B        C#
Nothing's ever solved
F#                  G#            B               C#
Said "The sky's the limit on this chartered trip away,"
F#               Asus2
Guess I'd better stay away

Riff 3 (played twice)
e:---------------------------------------------------------------------------|
B:-----0-----------0-----------0-----------0-----------0-----------0---------|
G:-----4-----------4-----------4-----------4-----------4-----------4---------|
D:-------------------------2-------2-----------------------------------------|
A:-2-------2---4-------4---------------0-------0-----------------------------|
E:-------------------------------------------------3-------3---2-------2---3-|

e:--------------------|
B:--0-----------0-----|
G:--4-----------4-----|
D:--------------------|
A:--------------------|
E:------3---2-------2-|

CHORUS (The G chord descends as follows: 355033,  354033,  350033):

G                         Asus2
I thought I owed myself a trip away
G                            Asus2
I wanted to go to places I have never been away
G                                 Asus2
I looked at the pictures, imagine where they lay
G                                        Asus2                         G
Away on a beach by the sand, where their clothes all lay, clothes all, clothes

all lay away


F#             G#              B           C#
I picked up my belongings in a nylon carry-all
F#                G#         B        C#
I hear the porter call
F#          G#        B               C#
Horizon is oblivious, chartered trip away
F#                  G#        Asus2
I guess I'd better stay

F#               G#             B             C#
Out there on the desert, I see trees on every wall
F#             G#           B        C#
Nothing's ever solved
F#          G#        B               C#
Horizon is oblivious, chartered trip away
F#                      Asus2
GuessI guess I'd better stay away


Riff 3
Said "There's no returning from this chartered trip away."
Riff 3
Said "There's no returning from this chartered trip away."


RPT. CHORUS


F#           G#              B           C#
Picked up my belongings in a nylon carry-all
F#              G#         B        C#
Hear the porter call
F#               G#                  B               C#
Said "There's no returning from this chartered trip away,"
F#                 G#      Asus2
I guess I'd better stay

F#                 G#                 B              C#
Said "There's no returning from this chartered trip away,"
F#                 G#                 B              C#
Said "There's no returning from this chartered trip away,"
F#                 G#                 B              C#
Said "There's no returning from this chartered trip away,"
F#        Asus2
Said no return......


Outro (Riff 4) played over Asus2 to fade:

e:------------------------------------|
B:-5-5-5-5---5-5-5-5---5-5-5-5---0-0--|
G:-0-0-0-0---0-0-0-0---0-0-0-0---0-0--|
D:-7-7-7-7---7-7-7-7---7-7-7-7---7-7--|
A:-7---------7---------7--------------|
E:------------------------------------|

TP

INDECISION TIME (Bob Mould)

Note: where you see this ^^^ above a bend, repeatedly bend and release the indicated
notes with lots of vibrato.


Intro:

   G     G#    A     Bb    A   Bb G   A        ^^^^^^^^^^^^^^^^^
e:---------------------------------------|-------------------------------------|
B:---------------------------------------|-------------------------------------|
G:---------------------------------------|-------------------------------------|
D:-5-----6-----7-----8-----7-/-8--5-/-7--|-------------------------------------|
A:-5-----6-----7-----8-----7-/-8--5-/-7--|-3-/-5-b-6---------------------------|
E:-3--0--4--0--5--0--6--0--5-/-6--3-/-5--|-------------------------------------|


   G     G#    A     Bb    A   Bb G   A    G     G#    A     Bb
e:---------------------------------------|------------------------12b13--------|
B:---------------------------------------|----------------------------12b13----|
G:---------------------------------------|--------------------------------13b14|
D:-5-----6-----7-----8-----7-/-8--5-/-7--|-5-----6-----7-----8-7b6-------------|
A:-5-----6-----7-----8-----7-/-8--5-/-7--|-5-----6-----7-----8-----------------|
E:-3--0--4--0--5--0--6--0--5-/-6--3-/-5--|-3--0--4--0--5--0--6-----------------|
Questions like a candle that's burning at both ends


   G     G#    A     Bb    A   Bb G   A    G     G#    A     Bb   ^^^^^^^^^^
e:---------------------------------------|-------------------------------------|
B:---------------------------------------|-------------------------------------|
G:---------------------------------------|-------------------------------------|
D:-5-----6-----7-----8-----7-/-8--5-/-7--|-5-----6-----7-----8-----------------|
A:-5-----6-----7-----8-----7-/-8--5-/-7--|-5-----6-----7-----8--3/5b6----------|
E:-3--0--4--0--5--0--6--0--5-/-6--3-/-5--|-3--0--4--0--5--0--6-----------------|
Never find an answer that fits in your plans


   A5  G5     A5  G5     A5                  G5     A5  G5     D
e:-------------------------------------|-------------------------------------|
B:-------------------------------------|-------------------------------------|
G:-9---7-7----9---7-7----9---9---9---9-|-9---7-7----9---7-7----7---7---7---7-|
D:-7---5-5----7---5-5----7---7---7---7-|-7---5-5----7---5-5----7---7---7---7-|
A:-------------------------------------|-----------------------5---5---5---5-|
E:-------------------------------------|-------------------------------------|
Back and forth take the good with the bad in-de  -  cision     time


   A5  G5     A5  G5     A5              C#(hold)                      ^^^^^
e:-------------------------------------|-------------------------------14b15-|
B:-------------------------------------|-------------------------------------|
G:-9---7-7----9---7-7----9---9---9---9-|-6-----------------------------------|
D:-7---5-5----7---5-5----7---7---7---7-|-6-----------------------------------|
A:-------------------------------------|-4--------------------------9b10-----|
E:-------------------------------------|-----------------------9-------------|
   You're so natural you're so free     so don't decide what's best for me


   G     G#    A     Bb    A   Bb G   A    G     G#    A     Bb
e:---------------------------------------|-------------------------------------|
B:---------------------------------------|-------------------------------------|
G:---------------------------------------|-------------------------------------|
D:-5-----6-----7-----8-----7-/-8--5-/-7--|-5-----6-----7-----8-6/8b-9r-8\6-----|
A:-5-----6-----7-----8-----7-/-8--5-/-7--|-5-----6-----7-----8-----------------|
E:-3--0--4--0--5--0--6--0--5-/-6--3-/-5--|-3--0--4--0--5--0--6-----------------|
Nothing in your life is ever going on course


   G     G#    A     Bb    A   Bb G   A    G     G#    A     Bb    ^^^^^^^^^^^
e:---------------------------------------|-------------------------------------|
B:---------------------------------------|-------------------------------------|
G:---------------------------------------|-------------------------------------|
D:-5-----6-----7-----8-----7-/-8--5-/-7--|-5-----6-----7-----8-7-/-9-----------|
A:-5-----6-----7-----8-----7-/-8--5-/-7--|-5-----6-----7-----8-----------------|
E:-3--0--4--0--5--0--6--0--5-/-6--3-/-5--|-3--0--4--0--5--0--6-----------------|
You wonder if living could be much worse


   A5  G5     A5  G5     A5                  G5     A5  G5     D
e:-------------------------------------|-------------------------------------|
B:-------------------------------------|-------------------------------------|
G:-9---7-7----9---7-7----9---9---9---9-|-9---7-7----9---7-7----7---7---7---7-|
D:-7---5-5----7---5-5----7---7---7---7-|-7---5-5----7---5-5----7---7---7---7-|
A:-------------------------------------|-----------------------5---5---5---5-|
E:-------------------------------------|-------------------------------------|
Back and forth take the good with the bad in-de  -  cision     time


   A5  G5     A5  G5     A5              C#
e:-------------------------------------|---------------------------------|
B:-------------------------------------|---------------------------------|
G:-9---7-7----9---7-7----9---9---9---9-|-6---6---6-6---6-6---6--6--6--6--|
D:-7---5-5----7---5-5----7---7---7---7-|-6---6---6-6---6-6---6--6--6--6--|
A:-------------------------------------|-4---4---4-4---4-4---4--4--4--4--|
E:-------------------------------------|---------------------------------|
   You're so natural you're so free     so don't decide what's best for me


   D           E  D           C#         D                             C#
e:-------------------------------------|----------------------------------|
B:-------------------------------------|----------------------------------|
G:-7--7--7--7--9--7--7--7--7--6--------|-7---7--7--7--7---7--7--7--7---6--|
D:-7--7--7--7--9--7--7--7--7--6--------|-7---7--7--7--7---7--7--7--7---6--|
A:-5--5--5--5--7--5--5--5--5--4--------|-5---5--5--5--5---5--5--5--5---4--|
E:-------------------------------------|----------------------------------|
  Go to the left  Go to the right    Your mind is going to keep you up all night


   D           E  D           C#         C                           ^^^^^^
e:-------------------------------------|-----------------------------------|
B:-------------------------------------|-----------------------------------|
G:-7--7--7--7--9--7--7--7--7--6--------|-5---5---5---5-5/10b12r10b12/16b17-|
D:-7--7--7--7--9--7--7--7--7--6--------|-5---5---5---5---------------------|
A:-5--5--5--5--7--5--5--5--5--4--------|-3---3---3---3---------------------|
E:-------------------------------------|-----------------------------------|
You twist in your sleep, grabbing the sheets sweating to death


   G     G#    A     Bb    A   Bb G   A    G     G#    A     Bb       ^^^^^^
e:---------------------------------------|-------------------------------------|
B:---------------------------------------|---------------------10b12-----------|
G:---------------------------------------|-------------------------------------|
D:-5-----6-----7-----8-----7-/-8--5-/-7--|-5-----6-----7-----8-----------------|
A:-5-----6-----7-----8-----7-/-8--5-/-7--|-5-----6-----7-----8--------12b13----|
E:-3--0--4--0--5--0--6--0--5-/-6--3-/-5--|-3--0--4--0--5--0--6-----------------|
Sucking on pollution like a rattle in your mouth


   G     G#    A     Bb    A   Bb G   A    G     G#    A     Bb      ^^^^^
e:---------------------------------------|-------------------------------------|
B:---------------------------------------|-------------------------------------|
G:---------------------------------------|---------------------10b12-----------|
D:-5-----6-----7-----8-----7-/-8--5-/-7--|-5-----6-----7-----8-----------------|
A:-5-----6-----7-----8-----7-/-8--5-/-7--|-5-----6-----7-----8-------13b14-----|
E:-3--0--4--0--5--0--6--0--5-/-6--3-/-5--|-3--0--4--0--5--0--6-----------------|
You're a big fucking kid, you don't know what you're about


   A5  G5     A5  G5     A5                  G5     A5  G5     D
e:-------------------------------------|-------------------------------------|
B:-------------------------------------|-------------------------------------|
G:-9---7-7----9---7-7----9---9---9---9-|-9---7-7----9---7-7----7---7---7---7-|
D:-7---5-5----7---5-5----7---7---7---7-|-7---5-5----7---5-5----7---7---7---7-|
A:-------------------------------------|-----------------------5---5---5---5-|
E:-------------------------------------|-------------------------------------|
Back and forth take the good with the bad in-de  -  cision     time


   A5  G5     A5  G5     A5              C#                         ^^^^^^^^^
e:-------------------------------------|-------------------------------------|
B:-------------------------------------|-------------------------------------|
G:-9---7-7----9---7-7----9---9---9---9-|-6-6-----6-6----6------6-6-----------|
D:-7---5-5----7---5-5----7---7---7---7-|-6-6-----6-6----6------6-6-----------|
A:-------------------------------------|-4-4-----4-4----4------4-4-----------|
E:-------------------------------------|---------------------------12-b-14---|
   You're so natural you're so free     so don't decide what's best for me


   G     G#    A     Bb    A   Bb G   A    G     G#    A     Bb        ^^^^^^^^
e:---------------------------------------|-------------------------------------|
B:---------------------------------------|-------------------------------------|
G:---------------------------------------|-------------------------------------|
D:-5-----6-----7-----8-----7-/-8--5-/-7--|-5-----6-----7-----8-----------------|
A:-5-----6-----7-----8-----7-/-8--5-/-7--|-5-----6-----7-----8-----------------|
E:-3--0--4--0--5--0--6--0--5-/-6--3-/-5--|-3--0--4--0--5--0--6-7-/-9-/-12-b-14-|
   Tell me about your fellow man


   G     G#    A     Bb    A   Bb G   A    G     G#    A     Bb
e:---------------------------------------|-------------------------------------|
B:---------------------------------------|----------------------7--(7)---------|
G:---------------------------------------|----------------------9-b-11---------|
D:-5-----6-----7-----8-----7-/-8--5-/-7--|-5-----6-----7-----8-----------------|
A:-5-----6-----7-----8-----7-/-8--5-/-7--|-5-----6-----7-----8-----------------|
E:-3--0--4--0--5--0--6--0--5-/-6--3-/-5--|-3--0--4--0--5--0--6-----------------|
   You wipe their shit all over your hands


   A5  G5     A5  G5     A5                  G5     A5  G5     D
e:-------------------------------------|-------------------------------------|
B:-------------------------------------|-------------------------------------|
G:-9---7-7----9---7-7----9---9---9---9-|-9---7-7----9---7-7----7---7---7---7-|
D:-7---5-5----7---5-5----7---7---7---7-|-7---5-5----7---5-5----7---7---7---7-|
A:-------------------------------------|-----------------------5---5---5---5-|
E:-------------------------------------|-------------------------------------|
Back and forth take the good with the bad in-de  -  cision     time


   A5  G5     A5  G5     A5              C#
e:-------------------------------------|---------------------------------|
B:-------------------------------------|---------------------------------|
G:-9---7-7----9---7-7----9---9---9---9-|-6---6---6-6---6-6---6--6--6--6--|
D:-7---5-5----7---5-5----7---7---7---7-|-6---6---6-6---6-6---6--6--6--6--|
A:-------------------------------------|-4---4---4-4---4-4---4--4--4--4--|
E:-------------------------------------|---------------------------------|
   You're so natural you're so free


   D           E  D           C#         D                             C#
e:-------------------------------------|----------------------------------|
B:-------------------------------------|----------------------------------|
G:-7--7--7--7--9--7--7--7--7--6--------|-7---7--7--7--7---7--7--7--7---6--|
D:-7--7--7--7--9--7--7--7--7--6--------|-7---7--7--7--7---7--7--7--7---6--|
A:-5--5--5--5--7--5--5--5--5--4--------|-5---5--5--5--5---5--5--5--5---4--|
E:-------------------------------------|----------------------------------|
  Go to the left  Go to the right    Your mind is going to keep you up all night


    D           E  D           C#        C               ^^^^   ^^^^
e:-------------------------------------|------------------------10-b-12----|
B:-------------------------------------|-----------------7-b-9-------------|
G:-7--7--7--7--9--7--7--7--7--6--------|-5---5---5---5---------------------|
D:-7--7--7--7--9--7--7--7--7--6--------|-5---5---5---5---------------------|
A:-5--5--5--5--7--5--5--5--5--4--------|-3---3---3---3---------------------|
E:-------------------------------------|-----------------------------------|
You twist in your sleep, grabbing the sheets sweating to death


Solo (over the following played twice):

   G     G#    A     Bb    A   Bb G   A    G     G#    A     Bb(hold)
e:---------------------------------------|-------------------------------------|
B:---------------------------------------|-------------------------------------|
G:---------------------------------------|-------------------------------------|
D:-5-----6-----7-----8-----7-/-8--5-/-7--|-5-----6-----7-----8-----------------|
A:-5-----6-----7-----8-----7-/-8--5-/-7--|-5-----6-----7-----8-----------------|
E:-3--0--4--0--5--0--6--0--5-/-6--3-/-5--|-3--0--4--0--5--0--6-----------------|


   G     G#    A     Bb    A   Bb G   A    G     G#    A     Bb(hold)
e:---------------------------------------|-------------------------------------|
B:---------------------------------------|-------------------------------------|
G:---------------------------------------|-------------------------------------|
D:-5-----6-----7-----8-----7-/-8--5-/-7--|-5-----6-----7-----8-----------------|
A:-5-----6-----7-----8-----7-/-8--5-/-7--|-5-----6-----7-----8-----------------|
E:-3--0--4--0--5--0--6--0--5-/-6--3-/-5--|-3--0--4--0--5--0--6-----------------|

   A5  G5     A5  G5     A5                  G5     A5  G5     D
e:-------------------------------------|-------------------------------------|
B:-------------------------------------|-------------------------------------|
G:-9---7-7----9---7-7----9---9---9---9-|-9---7-7----9---7-7----7---7---7---7-|
D:-7---5-5----7---5-5----7---7---7---7-|-7---5-5----7---5-5----7---7---7---7-|
A:-------------------------------------|-----------------------5---5---5---5-|
E:-------------------------------------|-------------------------------------|


   A5  G5     A5  G5     A5              C#(hold)
e:-------------------------------------|-------------------------------------|
B:-------------------------------------|-------------------------------------|
G:-9---7-7----9---7-7----9---9---9---9-|-6-----------------------------------|
D:-7---5-5----7---5-5----7---7---7---7-|-6-----------------------------------|
A:-------------------------------------|-4-----------------------------------|
E:-------------------------------------|-------------------------------------|


Ends with:


  C# D        C# D        C# D        C# D        C# D        C# D
e:---------------------------------------------------------------------------|
B:---------------------------------------------------------------------------|
G:-6/7-7-7-7-7-6/7-7-7-7-7-6/7-7-7-7-7-6/7-7-7-7-7-6/7-7-7-7-7-6/7-7-7-7-7---|
D:-6/7-7-7-7-7-6/7-7-7-7-7-6/7-7-7-7-7-6/7-7-7-7-7-6/7-7-7-7-7-6/7-7-7-7-7---|
A:-4/5-5-5-5-5-4/5-5-5-5-5-4/5-5-5-5-5-4/5-5-5-5-5-4/5-5-5-5-5-4/5-5-5-5-5---|
E:---------------------------------------------------------------------------|


   C            D#           G#           C                B A E(hold)
e:---------------------------------------------------------------------------|
B:---------------------------------------------------------------------------|
G:-5--5--5--5---8--8--8--8----------------5---5--5--5--5---4-2---------------|
D:-5--5--5--5---8--8--8--8---6--6--6--6---5---5--5--5--5---4-2-2-------------|
A:-3--3--3--3---6--6--6--6---6--6--6--6---3---3--3--3--3---2-0-2-------------|
E:---------------------------4--4--4--4------------------------0-------------|

TP.

HARE KRSNA (Bob Mould, Grant Hart, Greg Norton)

Chords:    C5 X355XX    Bb5 X133XX

Intro:

   C5                 Bb5 C5                         Bb5 C5
e:------------------------------|------------------------------|
B:------------------------------|------------------------------| Played
G:-5-----5-5----5-----3---5-----|-5-----5-5----5-----3---5-----| four
D:-5-----5-5----5-----3---5-----|-5-----5-5----5-----3---5-----| times
A:-3-----3-3----3-----1---3-----|-3-----3-3----3-----1---3-----|
E:------------------------------|------------------------------|


   C5                 Bb5 C5                         Bb5 C5
e:------------------------------|------------------------------|
B:------------------------------|------------------------------| Played
G:-5-----5-5----5-----3---5-----|-5-----5-5----5-----3---5-----| four
D:-5-----5-5----5-----3---5-----|-5-----5-5----5-----3---5-----| times
A:-3-----3-3----3-----1---3-----|-3-----3-3----3-----1---3-----|
E:------------------------------|------------------------------|
   Krsna walking down the street
   Touching me with lotus feet
   Going to talk to the Radharani
   Going to ask her for her money

   C5                 Bb5 C5                         Bb5 C5
e:------------------------------|------------------------------|
B:------------------------------|------------------------------| Played
G:-5-----5-5----5-----3---5-----|-5-----5-5----5-----3---5-----| eight
D:-5-----5-5----5-----3---5-----|-5-----5-5----5-----3---5-----| times
A:-3-----3-3----3-----1---3-----|-3-----3-3----3-----1---3-----|
E:------------------------------|------------------------------|
   Hare               Krs-na
   Hare               Krs-na
   Krsna              Krs-na
   Hare               Ra -ma
   Hare               Ra -ma
   Rama               Ra -ma
   Hare               Ha -re

As the song continues much of the rhythm is carried by the bass riff below (often with the
guitar holding a C5 chord over it).

G:-----------------------|
D:-----------------------|
A:-----------------------|
E:-8---8-8---8---6---8---|


At 1:27 the rhythm changes to:

 Bb5 C5                  Bb5 C5
e:-----------------------------|
B:-----------------------------|
G:-3/5---5---5-5-5---5---3---5-|
D:-3/5---5---5-5-5---5---3---5-|
A:-1/3---3---3-3-3---3---1---3-|
E:-----------------------------|

The rest you'll have to improvise for yourself.

TP.

BEYOND THE THRESHOLD (Bob Mould)

Chords:

F# X 9 11 11 X X    F X 8 10 10 X X    E X799XX

C# 9 11 11 X X X    C 8 10 10 X X X   Bb 688XXX    C* X355XX


Intro (sl.=slide, /=rhythm pattern):

F# F   E   Esl.F   F/  //

F# F   E   Esl.F   C# C Bb

F# F   E   Esl.F   F/  //

F# F   E   Esl.F   C# C Bb

C*

F#     F   E     F
It's a one-horse town
F# F E   F
One  big desert
F# F  E   F
As-ph-alt desert
F# F E F C# C Bb
Asphalt jungle

C*
Beyond the threshold, beyond the threshold

F#  F   E      F
Change for the worse
F#  F   E      F
Change nonetheless
F#  F   E      F
Hey hey hey
F#  F E F C# C  Bb
Got no place to stay

C*
Beyond the threshold, beyond the threshold

Solo:
e:---------------------------------------------------------------------|
B:---------------------------------------------------------------------|
G:-------------------------------------------1-0-------0---1---0-------|
D:-------------1---------------------1-------------3---------------3---|
A:-3---3---3-------3-----3---3---3-------3-----------------------------|
E:---------------------------------------------------------------------|

(*Bar top three strings at 8th fret with index finger)
e:------------------------8-------8-------8-------8----------------------------|
B:-8----------------------8-------8-------8-------8---------------8--8--8---8--|
G:-10-b12--12-p10-p8------10-b12--10-b12--10-b12--10-b12--10-b12--12-12-12--10-|
D:--------------------10-------------------------------------------------------|
A:-----------------------------------------------------------------------------|
E:-----------------------------------------------------------------------------|

<-----------------------Play four times (end with pick scrape)----------------->


F#  F   E   F
I hear machines
F#  F E  F C#  C  Bb
They burst at the seams
F#  F   E   F
But tar and feather
F#  F E F C# C Bb
All stick together

C*
Beyond the threshold, beyond the threshold

F#  F     E    F
Greetings from home
F#  F E F C# C  Bb
I wish you were here
F#  F     E     F
Hear what I say but
F#  F E   F    C# C  Bb
You can't hear me at all

e:---------------------------------------------------------------------|
B:---------------------------------------------------------------------|
G:-------------------------------------------1-0-------0---1---0-------|
D:-------------1---------------------1-------------3---------------3---|
A:-3---3---3-------3-----3---3---3-------3-----------------------------|
E:---------------------------------------------------------------------|
                         Beyond              the

e:------------------------8-------8-------8-------8----------------------------|
B:-8----------------------8-------8-------8-------8---------------8--8--8---8--|
G:-10-b12--12-p10-p8------10-b12--10-b12--10-b12--10-b12--10-b12--12-12-12--10-|
D:--------------------10-------------------------------------------------------|
A:-----------------------------------------------------------------------------|
E:-----------------------------------------------------------------------------|
   threshold                                              Beyond      the

<------------------------------Play four times--------------------------------->

F# F   E  F  / / /
       Beyond

F# F   E  F   Csl.C#  Bb
              Beyond

F# F   E  F  / / /
       Beyond

F# F   E  F   C(hold).

TP.

PRIDE (Bob Mould)

Chords:

G5 X 10 12 12 X X    E5 X799XX    D#5 X688XX    D5 X577XX

B5 799XXX            C5 X355XX

Intro:

e:-h5-p4-h5-p4-h5-p4-h5-p4-h5-p4-h5-p4-h5-p4-h5-p4--h5-p4-h5-p4-h5-p4--|
B:---------------------------------------------------------------------|
G:---------------------------------------------------------------------|
D:---------------------------------------------------------------------|
A:---------------------------------------------------------------------|
E:---------------------------------------------------------------------|

G5                            E5
Why did you back me into a corner?
G5                               E5
I didn't mean it, it was just an act
G5                                 E5
My friend's outside, can't he come in?
G5                       E5
And everybody else

E5 D#5 E5     E5 D#5  E5     E5 D#5 E5
Stupid pride, selfish pride, stupid pride

E5  D#5 D5 B5  E5         E5   D#5 D5 B5   E5
               Pride                       Pride

E5  D#5 D5 B5  E5         E5   D#5 D5 B5
               Pride

C5
Why does everybody have to be like that?

(*this riff should be played by the bass and
  the final D# should be a whole octave lower)
e:--------------------------------------------|
B:--------------------------------------------|
G:--------------------------------------------|
D:-----------------1*-------------------------|
A:-3---1--------------------------------------|
E:---------3---1------------------------------|

   E
e:-0-----------------------------------------|
B:-0-----------------------------------------|
G:-1-----------------------------------------|
D:-2------------1---------1-----------1---4--|
A:-2--------------4---2-------4---2----------|
E:-0-----------------------------------------|

   E
e:-0-----------------------------|
B:-0-----------------------------|
G:-1-----------------------------|
D:-2-----------------------------|
A:-2-----------------------------|
E:-0-----------------------------|

   G5                                                              E5
e:---------------------------------------------------------------|---------|
B:-8p0h8p0h8p0h8p0h8p0h8p0h8p0h8p0h8p0h8p0h8p0h8p0h8p0h8p0h8p0h8-|---------|
G:---------------------------------------------------------------|-9-------|
D:---------------------------------------------------------------|-9-------|
A:---------------------------------------------------------------|-7-------|
E:---------------------------------------------------------------|---------|
   Pride
   "Out!"       just         an                                    act
   His  parents love him,    they      send          him           money
   But          he           won't     come                        back

<--------------------------Play four times--------------------------------->


E5 D#5 E5     E5 D#5  E5     E5 D#5 E5
Stupid pride, selfish pride, stupid pride

E5  D#5 D5 B5  E5         E5   D#5 D5 B5   E5
               Pride                       Pride

E5  D#5 D5 B5  E5         E5   D#5 D5 B5   C5
               Pride

C5
Why does everybody have to be like that?

   E
e:-0-----------------------------------------|
B:-0-----------------------------------------|
G:-1-----------------------------------------|
D:-2------------1---------1-----------1---4--|
A:-2--------------4---2-------4---2----------|
E:-0-----------------------------------------|

   E
e:-0----------0------0---0---0---|
B:-0----------5-b6---3---5---3---|
G:-1-----------------------------|
D:-2-----------------------------|
A:-2-----------------------------|
E:-0-----------------------------|
   No         reaction,

e:-0------------------5b6---0---0---0-|-0----------------5b6---0---0---0-|
B:-0------------------------3---5---3-|-0----------------------3---5---3-|
G:-1----------------------------------|-1--------------------------------|
D:-2----------------------------------|-2--------------------------------|
A:-2----------------------------------|-2--------------------------------|
E:-0----------------------------------|-0--------------------------------|
   No             Res-ponse             Forget     him

   E                           D#5           E                 D#5
e:-0---------------------------5b6r5b6r5b6-|-5-5-5-5---10-10-b-11--------|
B:-0---------------------------------------|-----------------------------|
G:-1---------------------------------------|-----------------------------|
D:-2---------------------------------------|-----------------------------|
A:-2---------------------------------------|-----------------------------|
E:-0---------------------------------------|-----------------------------|
   Just        forget          him


   E5                           D#5   E5                           D#5
e:-10-10--10-10--10-10--10-10-b-11--|-10-10--10-10--10-10--10-10-b-11--|
B:----------------------------------|----------------------------------|
G:----------------------------------|----------------------------------|
D:----------------------------------|----------------------------------|
A:----------------------------------|----------------------------------|
E:----------------------------------|----------------------------------|

   E5            D#5
e:-4-4-4---5-5---6-b-7-|
B:---------------------|
G:---------------------|
D:---------------------|
A:---------------------|
E:---------------------|

   E5                      D#5     E5                        D#5
e:------------------------------------------------------------------|
B:-1-p-0-h-2-p-0-h-3-p-0-h-4-p-0-h-5-p-h-6-p-0-h-7-p-0-h-8-b-10-r-8-|
G:------------------------------------------------------------------|
D:------------------------------------------------------------------|
A:------------------------------------------------------------------|
E:------------------------------------------------------------------|


   E5      D#5     E5       E C5
e:-0---0---0-------0------|-------------------------------------------------|
B:-6-b-7---4-b-5---4-b-5--|-------------------------------------------------|
G:------------------------|-9-5---------------------5-----------------------|
D:------------------------|-9-5---------------------5-------------------1---|
A:------------------------|-7-3---------------------3---3---1---------------|
E:------------------------|-------------------------------------3---1-------|


   E
e:-0-----------------------------------------|
B:-0-----------------------------------------|
G:-1-----------------------------------------|
D:-2------------1---------1-----------1---4--|
A:-2--------------4---2-------4---2----------|
E:-0-----------------------------------------|


   E     D#5(hold)                                   E(hold)
e:-0---0-------------------------|-------------------0--------------------|
B:-0---0-------------------------|-------------------0--------------------|
G:-1---1-8-----------------------|-------------------1--------------------|
D:-2---2-8-----------------------|-------------------2--------------------|
A:-2---2-6-----------------------|----\-\------------2--------------------|
E:-0---0-------------------------|----\-\------------0--------------------|
                                    Pick scrape
TP.

I'LL NEVER FORGET YOU (Bob Mould)

Chords:

G  355XXX    Bb 688XXX   C# 9 11 11 XXX    F X 8 10 10 XX    E  X799XX

Ab 466XXX    D  X577XX   A 577XXX          B 799XXX          D# X688XX

Intro (bass):

   G                          Bb                          G
e:--------------------------|-------------------------------|
B:--------------------------|-------------------------------|
G:--------------------------|-------------------------------|
D:-5-5---5-5---5-5---5---5-/|-8---8-8-8---8-8---8-8---8---5-|
A:-5-5---5-5---5-5---5---5-/|-8---8-8-8---8-8---8-8---8---5-|
E:-3-3---3-3---3-3---3---0--|-6---6-6-6---6-6---6-6---6---3-|

    C#                                         F   B     D#  A       C#    Ab
e:|------------------------------------------|-------------------------------|
B:|------------------------------------------|-------------------------------|
G:|------------------------------------------|-10--------8-----------6-6-----|
D:|-11---11-11-11---11-11---11-11---11-11-11-|-10--9-9---8---7-7---7-6-6---6-|
A:|-11---11-11-11---11-11---11-11---11-11-11-|-8---9-9---6---7-7---7-4-4---6-|
E:|-9----9--9--9----9--9----9--9----9--9--9--|-----7-7-------5-5---5-------4-|

   G                          Bb                          G
e:--------------------------|-------------------------------|
B:--------------------------|-------------------------------|
G:--------------------------|-------------------------------|
D:-5-5---5-5---5-5---5---5-/|-8---8-8-8---8-8---8-8---8---5-|
A:-5-5---5-5---5-5---5---5-/|-8---8-8-8---8-8---8-8---8---5-|
E:-3-3---3-3---3-3---3---0--|-6---6-6-6---6-6---6-6---6---3-|

    C#                                         F   B     D#  A       C#    Ab
e:|------------------------------------------|---------------------0---------|
B:|------------------------------------------|---------------------4-b-5-----|
G:|------------------------------------------|-10--------8-------------------|
D:|-11---11-11-11---11-11---11-11---11-11-11-|-10--9-9---8---7-7-------------|
A:|-11---11-11-11---11-11---11-11---11-11-11-|-8---9-9---6---7-7-------------|
E:|-9----9--9--9----9--9----9--9----9--9--9--|-----7-7-------5-5-------------|

   G                          Bb                          G
e:--------------------------|-------------------------------|
B:--------------------------|-------------------------------|
G:--------------------------|-------------------------------|
D:-5-5---5-5---5-5---5---5-/|-8---8-8-8---8-8---8-8---8---5-|
A:-5-5---5-5---5-5---5---5-/|-8---8-8-8---8-8---8-8---8---5-|
E:-3-3---3-3---3-3---3---0--|-6---6-6-6---6-6---6-6---6---3-|

    C#                                         F   B     D#  A       C#    Ab
e:|------------------------------------------|-------------------------------|
B:|------------------------------------------|-------------------------------|
G:|------------------------------------------|-10--------8-----------6-6-----|
D:|-11---11-11-11---11-11---11-11---11-11-11-|-10--9-9---8---7-7---7-6-6---6-|
A:|-11---11-11-11---11-11---11-11---11-11-11-|-8---9-9---6---7-7---7-4-4---6-|
E:|-9----9--9--9----9--9----9--9----9--9--9--|-----7-7-------5-5---5-------4-|

   F     E                   D       C#                Bb      A
e:-------------------------|-------------------------|-----------------------|
B:-------------------------|-------------------------|-----------------------|
G:-------------------------|-7-7-7---6---6---6---6---|-3-3-3---2-------------|
D:-3-3---2-2-2-2-2-2-2-2---|-7-7-7---6---6---6---6---|-3-3-3---2-------------|
A:-3-3---2-2-2-2-2-2-2-2---|-5-5-5---4---4---4---4---|-1-1-1---0-------------|
E:-1-1---0-0-0-0-0-0-0-0---|-------------------------|-----------------------|

<-------------------------- Played three times ------------------------------>


   F     E                   D       C#        (hold)  Bb      A
e:-------------------------|-------------0-----------|-----------------------|
B:-------------------------|-------------3/5-b-6-----|-----------------------|
G:-------------------------|-7-7-7---6---------------|-----------------------|
D:-3-3---2-2-2-2-2-2-2-2---|-7-7-7---6---------------|-----------------------|
A:-3-3---2-2-2-2-2-2-2-2---|-5-5-5-------------------|-----------------------|
E:-1-1---0-0-0-0-0-0-0-0---|-------------------------|-----------------------|


Verse:

   G                                     Bb                             G
e:-------------------------------------|-----------------------------------|
B:-------------------------------------|-----------------------------------|
G:-------------------------------------|-----------------------------------|
D:-5----5---5----5-----5--5---5-----5-/|-8---8---8---8--8-8-8----8--8---5--|
A:-5----5---5----5-----5--5---5-----5-/|-8---8---8---8--8-8-8----8--8---5--|
E:-3----3---3----3-----3--3---3-----0--|-6---6---6---6--6-6-6----6--6---3--|
   Told you everything I knew about me   Didn't listen to a word I say

   C#                                         F   B     D#  A     C#   Ab
e:------------------------------------------|---------------------0--------|
B:------------------------------------------|---------------------3/5-b-6--|
G:------------------------------------------|-10--------8------------------|
D:-11-11-11-11----11--11---11-11--11-11-11--|-10--9-9---8---7-7------------|
A:-11-11-11-11----11--11---11-11--11-11-11--|-8---9-9---6---7-7------------|
E:-9--9--9--9-----9---9----9--9---9--9--9---|-----7-7-------5-5------------|
   Spill my guts, you just threw them away

   G                                     Bb                             G
e:-------------------------------------|-----------------------------------|
B:-------------------------------------|-----------------------------------|
G:-------------------------------------|-----------------------------------|
D:-5----5---5----5-----5--5---5-----5-/|-8---8---8---8--8-8-8----8--8---5--|
A:-5----5---5----5-----5--5---5-----5-/|-8---8---8---8--8-8-8----8--8---5--|
E:-3----3---3----3-----3--3---3-----0--|-6---6---6---6--6-6-6----6--6---3--|
   Never cared about me                  Only wanted to be your friend,

   C#                                         F   B     D#  A     C#   Ab
e:------------------------------------------|---------------------0--------|
B:------------------------------------------|---------------------3/5-b-6--|
G:------------------------------------------|-10--------8------------------|
D:-11-11-11-11----11--11---11-11--11-11-11--|-10--9-9---8---7-7------------|
A:-11-11-11-11----11--11---11-11--11-11-11--|-8---9-9---6---7-7------------|
E:-9--9--9--9-----9---9----9--9---9--9--9---|-----7-7-------5-5------------|
   Now I know that it's gotta end

   G                                     Bb                             G
e:-------------------------------------|-----------------------------------|
B:-------------------------------------|-----------------------------------|
G:-------------------------------------|-----------------------------------|
D:-5----5---5----5-----5--5---5-----5-/|-8---8---8---8--8-8-8----8--8---5--|
A:-5----5---5----5-----5--5---5-----5-/|-8---8---8---8--8-8-8----8--8---5--|
E:-3----3---3----3-----3--3---3-----0--|-6---6---6---6--6-6-6----6--6---3--|
   Never cared                           a thing    about me

   C#                                         F  B      D#  A       C#   Ab
e:------------------------------------------|------------------------------|
B:------------------------------------------|------------------------------|
G:------------------------------------------|-10--------8------------6-----|
D:-11-11-11-11----11--11---11-11--11-11-11--|-10--9-9---8---7-7------6---6-|
A:-11-11-11-11----11--11---11-11--11-11-11--|-8---9-9---6---7-7------4---6-|
E:-9--9--9--9-----9---9----9--9---9--9--9---|-----7-7-------5-5----------4-|
   and now I will....                         I will    I will

   F     A                   D       C#              A       Ab
e:-------------------------|---------------------------------------------|
B:-------------------------|---------------------------------------------|Play
G:-------------------------|-7-7-7---6---6---6---6-----------------------|three
D:-3-3---2-2-2-2-2-2-2-2---|-7-7-7---6---6---6---6---7-7-7---6-----------|times
A:-3-3---2-2-2-2-2-2-2-2---|-5-5-5---4---4---4---4---7-7-7---6-----------|
E:-1-1---0-0-0-0-0-0-0-0---|-------------------------5-5-5---4-----------|
         I will                  ne- ver             forget
         you,                    I   will            never
         forget                      you,            I will

   F     A                   D       C#              A       Ab
e:-------------------------|-------------------------0-------------------|
B:-------------------------|-------------------------3/5-b-6-------------|
G:-------------------------|-7-7-7---6---6---6---6-----------------------|
D:-3-3---2-2-2-2-2-2-2-2---|-7-7-7---6---6---6---6-----------------------|
A:-3-3---2-2-2-2-2-2-2-2---|-5-5-5---4---4---4---4-----------------------|
E:-1-1---0-0-0-0-0-0-0-0---|---------------------------------------------|
   never                         for-get you


Solo (over Intro riff):

   G                          Bb                          G
e:--------------------------|-------------------------------|
B:--------------------------|-------------------------------|
G:--------------------------|-------------------------------|
D:-5-5---5-5---5-5---5---5-/|-8---8-8-8---8-8---8-8---8---5-|
A:-5-5---5-5---5-5---5---5-/|-8---8-8-8---8-8---8-8---8---5-|
E:-3-3---3-3---3-3---3---0--|-6---6-6-6---6-6---6-6---6---3-|

    C#                                         F   B     D#  A       C#    Ab
e:|------------------------------------------|-------------------------------|
B:|------------------------------------------|-------------------------------|
G:|------------------------------------------|-10--------8-----------6-6-----|
D:|-11---11-11-11---11-11---11-11---11-11-11-|-10--9-9---8---7-7---7-6-6---6-|
A:|-11---11-11-11---11-11---11-11---11-11-11-|-8---9-9---6---7-7---7-4-4---6-|
E:|-9----9--9--9----9--9----9--9----9--9--9--|-----7-7-------5-5---5-------4-|

<-------------------- Play the four bars above three times ------------------>


   F     A                   D       C#              A       Ab
e:-------------------------|---------------------------------------------|
B:-------------------------|---------------------------------------------|Play
G:-------------------------|-7-7-7---6---6---6---6-----------------------|three
D:-3-3---2-2-2-2-2-2-2-2---|-7-7-7---6---6---6---6---7-7-7---6-----------|times
A:-3-3---2-2-2-2-2-2-2-2---|-5-5-5---4---4---4---4---7-7-7---6-----------|
E:-1-1---0-0-0-0-0-0-0-0---|-------------------------5-5-5---4-----------|
         I will                      never
   for - get you                     I will                  never
   for - get you                     I will                  never

   F     A                   D       C#(hold)
e:-------------------------|---------------------------------------------|
B:-------------------------|---------------------------------------------|
G:-------------------------|-7-7-7---6-----------------------------------|
D:-3-3---2-2-2-2-2-2-2-2---|-7-7-7---6-----------------------------------|
A:-3-3---2-2-2-2-2-2-2-2---|-5-5-5---4-----------------------------------|
E:-1-1---0-0-0-0-0-0-0-0---|---------------------------------------------|
   for - get you


Outro (play the four bars below three times):

   G                          Bb                          G
e:--------------------------|-------------------------------|
B:--------------------------|-------------------------------|
G:--------------------------|-------------------------------|
D:-5-5---5-5---5-5---5---5-/|-8---8-8-8---8-8---8-8---8---5-|
A:-5-5---5-5---5-5---5---5-/|-8---8-8-8---8-8---8-8---8---5-|
E:-3-3---3-3---3-3---3---0--|-6---6-6-6---6-6---6-6---6---3-|

    C#                                         F   B     D#  A       C#    Ab
e:|------------------------------------------|---------------------0---------|
B:|------------------------------------------|---------------------4-b-5-----|
G:|------------------------------------------|-10--------8-------------------|
D:|-11---11-11-11---11-11---11-11---11-11-11-|-10--9-9---8---7-7-------------|
A:|-11---11-11-11---11-11---11-11---11-11-11-|-8---9-9---6---7-7-------------|
E:|-9----9--9--9----9--9----9--9----9--9--9--|-----7-7-------5-5-------------|

Then:

    F   B     D#  A       C#    Ab  F   B     D#  A       C#    Ab
e:|---------------------0---------|---------------------0---------|
B:|---------------------4-b-5-----|---------------------4-b-5-----|
G:|-10--------8-------------------|-10--------8-------------------|
D:|-10--9-9---8---7-7-------------|-10--9-9---8---7-7-------------|
A:|-8---9-9---6---7-7-------------|-8---9-9---6---7-7-------------|
E:|-----7-7-------5-5-------------|-----7-7-------5-5-------------|

    F   B     D#  A       C#    Ab  F(hold)
e:|-------------------------------------|
B:|-------------------------------------|
G:|-10--------8-----------6-6-----------|
D:|-10--9-9---8---7-7---7-6-6---6---3---|
A:|-8---9-9---6---7-7---7-4-4---6---3---|
E:|-----7-7-------5-5---5-------4---1---|

TP.

THE BIGGEST LIE (Bob Mould)

Chords:

E5 X799XX    D5 X577XX      C5 X355XX    C#5 X466XX    F#5* X 9 11 11 XX

F#5 244XXX   Asus2 X02200   G#5 466XXX   A5 577XXX     G5 355XXX

Bb5 X133XX


Intro:

E5(hold)  C5(hold)  C#5(hold)  F#5*(hold) - Played four times.

Fast strum:

E5  C5  F#5*  D5  E5  C5  Asus2 - Played twice.

    C#5                  D5                 C#5              G#5
You think you've made it to the top because people know your name,
     A5    F#5
It's still the same
     C#5                 D5           C#5             G#5
Your daydreams aren't forever, better get your shit together
      A5  F#5
For a new game

D5                     F#5
Back to your day job
D5                     F#5
Back to your girlfriend
D5                     F#5
Back to your hometown
    D5
The biggest lie

E5  C5  F#5*  D5

E5  C#5  G5

Bb5  C5  F#5*  D5

A5  C#5  A5 sl. G5

C#5             D5                 C#5               G#5
Passing harsher judgement, but you brought it on yourself
   A5    F#5
By being you
    C#5                 D5              C#5             G#5
You trade your work for no success, you tried to be a hero
        A5  F#5
But you end up nothing

    D5           F#5
The biggest lie, back to your day job
    D5           F#5
The biggest lie, back to your girlfriend
    D5           F#5
The biggest lie, back to your hometown
    D5
The biggest lie, you'll always lie


Then the riff below is played over the following chords:

e:-------------------------|
B:-17-(17)-17--17-(17)-17--|
G:-20b-21--21--20b-21--21--|
D:-------------------------|
A:-------------------------|
E:-------------------------|

E5  C5  F#5*  D5  E5  C#5  G5

E5  C5  F#5*  D5  A5  C#5  A5 sl. G5

E5  C5  F#5*  D5  E5  C#5  G5

Then the riff stops and it ends with the following chords:

E5  C5  F#5*  D5  A5  C#5  A5 sl. G5 (hold).

TP.

WHAT'S GOING ON (Inside My Head) - (Grant Hart)

Chords (NB. LHM = left hand mute):

D5 X577XX    D#5 X688XX    G#5 466XXX    C# X466XX

Intro:

D5 sl. D#5////////////// G#5////////////////

D5 sl. D#5////////////// G#5////////////////

            D5/D#5
      I was talking
                              G#5
      When I should have been listening
D5/D#5                                 G#5
      I didn't hear a word that anyone said
D5/D#5                                 G#5
      It might not have been so very important
D5/D#5                               G#5
      'Cause I was concerned about instead (with)


D#5 LHM
What's going on
D5 LHM
What's going on
C#5 LHM           G#5
What's going on inside my head
D#5 LHM
What's going on
D5 LHM
What's going on
C#5 LHM           G#5
What's going on inside my head

Solo over:

D5/D#5     G#5 (played six times)


D#5 LHM
What's going on
D5 LHM
What's going on
C#5 LHM           G#5
What's going on inside my head
D#5 LHM
What's going on
D5 LHM
What's going on
C#5 LHM           G#5
What's going on inside my head


D5 sl. D#5////////////// G#5////////////////

D5 sl. D#5////////////// G#5////////////////

            D5/D#5
      I was talking
                              G#5
      When I should have been listening
D5/D#5                                 G#5
      I didn't hear a word that anyone said
D5/D#5                                 G#5
      It might not have been so very important
D5/D#5                               G#5
      'Cause I was concerned about instead (with)


D#5 LHM
What's going on
D5 LHM
What's going on
C#5 LHM           G#5
What's going on inside my head
D#5 LHM
What's going on
D5 LHM
What's going on
C#5 LHM           G#5
What's going on inside my head

D#5 LHM
What's going on
D5 LHM
What's going on
C#5 LHM           G#5
What's going on inside my head
D#5 LHM
What's going on
D5 LHM
What's going on
C#5 LHM           G#5
What's going on inside my head


D5/D#5     G#5 (played six times)

D#5(hold)    G#5(hold)

D#5(hold)    G#5(hold)

D#5 LHM
What's going on
D5 LHM
What's going on
C#5 LHM           G#5
What's going on inside my head
D#5 LHM
What's going on
D5 LHM
What's going on
C#5 LHM           G#5
What's going on inside my head


Slowing:

D#5 LHM
What's going on
D5 LHM
What's going on
C#5 LHM           G#5
What's going on inside my head

TP.

MASOCHISM WORLD (Grant Hart - Bob Mould)

Chords:

C5 X355XX    D#5 X688XX    Bb5 X133XX    F5 X8 10 10 XX    G5 X 10 12 12 XX

E5 X799XX    C#5 X466XX

Intro:

C5    D#5    Bb5

C5    D#5    Bb5

C5
Can you feel it feel it feel it
D#5     Bb5
In your soul
C5
Can you tell me
                D#5    Bb5
Tell me if it's hot or cold


C#5/D#5 Bb5
Can you tell me
C#5/ F5 Bb5
what it is
C#5/ F5 Bb5
Does it hurt you
C#5/ F5   Bb5
when I do this

C5    D#5    Bb5

C5    D#5    Bb5

C5
Stop it stop it stop it
       D#5         Bb5
You're pulling too hard
C5
Stop it
       D#5       Bb5
You're going too far


C#5/F5  Bb5
Can you tell me
C#5/D#5 Bb5
what it is
D#5/ F5 Bb5
Does it hurt you
C#5/   D#5 Bb5
when I do  this

Break:

G5    D5  (played four times)

C5    D#5    Bb5  (played four times)

C#5 / F5  Bb5
Can't you tell me
D#5/ F5 Bb5
what it is
C#5/ D#5 Bb5
Does it  hurt you
C#5/   D#5 Bb5
when I do  this

C5    D#5     Bb5

C5    E5\D#5  Bb5

C5                                   D#5(hold)  Bb5
I love it I hate it I love it I hate it........ too
C5
I love it I hate it I love it
        D#5(hold)  Bb5
So how about...... you?

C#5 D#5 Bb5      C#5     D#5   Bb5
Can you tell me 'cause I don't know
C#5 F5        Bb5     D#5 F5    Bb5
Why don't you tell me why is it so
C5 C#5  D5  C#5   D5   D#5   D5   D#5
Confusing!

E5* (*move this chord up the neck, one fret at a time to end)

TP.

STANDING BY THE SEA (Grant Hart)

Chords:

C5 X355XX    G 355433    G# 466544

Intro (Bass):

G:---------------------------------------------------| Played
D:---------------------------------------------------| eight
A:-3-------1---3-------1---3-------1---3-------1-----| times.
E:-----2-----------2-----------2-----------2---------|

          C5          G        G#
There was no one all around
          C5               G   G#
There was no one there but me
      C5            G          G#
I was staring out a window
      C5              G        G#
I was standing by the sea


Bass Riff played four times.


    C5              G           G#
The waves kept on repeating
         C5              G      G#
Each one crashing to the shore
       C5                 G     G#
And my footprints nowhere leading
          C5             G      G#
As they disappeared once more


Bass Riff played eight times.


      C5                G            G#
Your senses they are bombarded
       C5               G            G#
By the roaring that you hear
     C5                        G     G#
In a shell    you can hear the ocean
         C5                     G    G#
When you put it up   up to your ear


          C5          G        G#
There was no one all around
          C5               G   G#
There was no one there but me
      C5            G          G#
I was staring out a window
      C5              G        G#
I was standing by the sea


Bass Riff played ten times to end.

SOMEWHERE (Grant Hart)

Intro (use lots of left hand muting):

   C                                          G
e:-----------------------------------------|--3-3---3-3---3-3---3-3-|
B:-8---8-8---8-8---8(8)--8---8---8-8---8-8-|--3-3---3-3---3-3---3-3-|
G:-5---5-5---5-5---5p0---5---5---5-5---5-5-|--0-----0-----0-----0---| Played
D:-0---0-0---0-0---0(0)--0---0---0-0---0-0-|--5-----5-----5-----5---| twice
A:-----------------------------------------|--5-----5-----5-----5---|
E:-----------------------------------------|------------------------|

Verse:

   C                                               G
e:-----------------------------------------------|-3-3---3-3---3-3---3-3---|
B:-8---------8---8---8--8--8-8-8---8-8-8--8---8--|-3-3---3-3---3-3---3-3---|
G:-5---------5---5---5--5--5p0-5---5-5-5--5---5--|-0-----0-----0-----0-----|
D:-0---------0---0---0--0--0-0-0---0-0-0--0---0--|-5-----5-----5-----5-----|
A:-----------------------------------------------|-5-----5-----5-----5-----|
E:-----------------------------------------------|-------------------------|
   Searching for the truth but all I ever find is  lies
   Trying to find identity but I just find a  dis- guise
   Looking at the nightmare when I try to see the  dream
   Finding   a     reality   as  perfect  as  it   seems

Chorus:

  A5  C5                                        Asus4
e:----------------------------------------------0-0-----------------|
B:----------------------------------------------3----3--------------|
G:2---0------0---0------0---0----0--0------0----2-------------2-----|
D:2---2------2---2------2---2----2--2------2----2---------------2---|
A:0---3------3---3------3---3----3--3------3----0-------------------|
E:------------------------------------------------------------------|
  Somewhere (somewhere) the dirt is washed down with the rain

 Asus2 C5                                     Asus4              Asus2
e:---------------------------------------------------------------------|
B:-0------------------------------------------3----3---3-3---3---0-0---|
G:-2---0------0---0------0-------0---0--0--0--2----2---2-2---2---2-2---|
D:-2---2------2---2------2-------2---2--2--2--2----2---2-2---2---2-2---|
A:-0---3------3---3------3-------3---3--3--3--0----0---0-0---0---0-0---|
E:---------------------------------------------------------------------|
   Somewhere (somewhere) there's happiness instead of        pain
   Somewhere (somewhere) satisfaction      has no            name
   Somewhere (somewhere) I can             be  the           same


Verse:

   C                                               G
e:-----------------------------------------------|-3-3---3-3---3-3---3-3---|
B:-8---------8---8---8--8--8-8-8---8-8-8--8---8--|-3-3---3-3---3-3---3-3---|
G:-5---------5---5---5--5--5p0-5---5-5-5--5---5--|-0-----0-----0-----0-----|
D:-0---------0---0---0--0--0-0-0---0-0-0--0---0--|-5-----5-----5-----5-----|
A:-----------------------------------------------|-5-----5-----5-----5-----|
E:-----------------------------------------------|-------------------------|
   Looking down on everything it seems a total     bore
   Missing all the people that I've never met      before
   Trying to find an unknown something I consider  best
   I don't know if I'll find it, but until then I'll be depressed

Chorus:

  A5  C5                                        Asus4
e:----------------------------------------------0-0-----------------|
B:----------------------------------------------3----3--------------|
G:2---0------0---0------0---0----0--0------0----2-------------2-----|
D:2---2------2---2------2---2----2--2------2----2---------------2---|
A:0---3------3---3------3---3----3--3------3----0-------------------|
E:------------------------------------------------------------------|
  Somewhere (somewhere) the dirt is washed down with the rain

 Asus2 C5                                     Asus4              Asus2
e:---------------------------------------------------------------------|
B:-0------------------------------------------3----3---3-3---3---0-0---|
G:-2---0------0---0------0-------0---0--0--0--2----2---2-2---2---2-2---|
D:-2---2------2---2------2-------2---2--2--2--2----2---2-2---2---2-2---|
A:-0---3------3---3------3-------3---3--3--3--0----0---0-0---0---0-0---|
E:---------------------------------------------------------------------|
   Somewhere (somewhere) there's happiness instead of        pain
   Somewhere (somewhere) satisfaction      has no            name
   Somewhere (somewhere) I can             be  the           same

   C                                          G
e:-----------------------------------------|--3-3---3-3---3-3---3-3-|
B:-8---8-8---8-8---8(8)--8---8---8-8---8-8-|--3-3---3-3---3-3---3-3-|
G:-5---5-5---5-5---5p0---5---5---5-5---5-5-|--0-----0-----0-----0---| Played
D:-0---0-0---0-0---0(0)--0---0---0-0---0-0-|--5-----5-----5-----5---| four
A:-----------------------------------------|--5-----5-----5-----5---| times
E:-----------------------------------------|------------------------|

Chorus:

Asus2  C5                Asus2                   Asus4        Asus2
e:------------------------------------------------------------------|
B:-0---------------------0---0---0---0---0--0----3----3---3---0---0-|
G:-2---0-----------------2---2---2---2---2--2----2----2---2---2---2-|
D:-2---2---3-p-2-p-0-----2---2---2---2---2--2----2----2---2---2---2-|
A:-0---3---3--(3)-(3)----0---0---0---0---0--0----0----0---0---0---0-|
E:------------------------------------------------------------------|
   Somewhere (somewhere) the dirt is washed down with the rain
   Somewhere (somewhere) there's happiness instead of     pain
   Somewhere (somewhere) satisfaction      has no         name
   Somewhere (somewhere) I can             be  the        same

Asus2  C5                Asus2                   Asus4        Asus2
e:------------------------------------------------------------------|
B:-0---------------------0---0---0---0---0--0----3----3---3---0---0-| Played
G:-2---0-----------------2---2---2---2---2--2----2----2---2---2---2-| three
D:-2---2---3-p-2-p-0-----2---2---2---2---2--2----2----2---2---2---2-| times
A:-0---3---3--(3)-(3)----0---0---0---0---0--0----0----0---0---0---0-|
E:------------------------------------------------------------------|
   Somewhere

Ending (slowly):

 Asus2  C5              Asus2(hold)
e:--------------------------|
B:--0-------------------0---|
G:--2---0---------------2---|
D:--2---2---3---2---0---2---|
A:--0---3---------------0---|
E:--------------------------|

TP.

ONE STEP AT A TIME (Bob Mould/Grant Hart)

This is a very simple piano piece transcribed for guitar (if you want to play it on the
piano all you need are the chords: A, F#, G# and E and the following three notes which comprise
the melody: B, C# and F#).

The easiest way to play it solo on the guitar is to do a spot of retuning. Drop the E, A and


   A(hold)                 F#(hold)                G#(hold)
e:-----------------------|-----------------------|-----------------------|
B:-----------------------|-----------------------|-----------------------|
A:-0---------------------|-0---------------------|-0---------------------|
C:-2---------------------|-4---------------------|-6---------------------|
G:-0---------------------|-4---------------------|-6---------------------|
D:-----------------------|-2---------------------|-4---------------------|

   E(hold)
e:-----------------------|
B:-----------------------|
A:-0---------------------|
C:-2---------------------|
G:-2---------------------|
D:-0---------------------|

   A                       F#                      G#
e:-----0---------0-------|-----0---------0-------|-----0---------0-------|
B:---0---------0-----0---|---0---------0-----0---|---0---------0-----0---|
A:---------0-----------0-|---------0-----------0-|---------0-----------0-|
C:-2---------------------|-----------------------|-----------------------|
G:-0---------------------|-4---------------------|-6---------------------|
D:-----------------------|-2---------------------|-4---------------------|

   E
e:-----0---------0-------|
B:---0---------0-----0---|
A:---------0-----------0-|
C:-----------------------|
G:-2---------------------|
D:-0---------------------|

   A                       F#                      G#
e:-----0---------0-------|-----0---------0-------|-----0---------0-------|
B:---0---------0-----0---|---0---------0-----0---|---0---------0-----0---|
A:---------0-----------0-|---------0-----------0-|---------0-----------0-|
C:-2---------------------|-----------------------|-----------------------|
G:-0---------------------|-4---------------------|-6---------------------|
D:-----------------------|-2---------------------|-4---------------------|

   E                       A(hold)
e:-----0---------0-------|-----0------------------------------|
B:---0---------0-----0---|---0--------------------------------|
A:---------0-----------0-|------------------------------------|
C:-----------------------|-2----------------------------------|
G:-2---------------------|-0----------------------------------|
D:-0---------------------|------------------------------------|

TP.

PINK TURNS TO BLUE (Grant Hart)

C#m X46654  Em  022000 (079987)on record.
Bm  X24432  Am  X02210

  Riff 1 (Played throughout song).

   C#m                           Em (End of each verse)
e:-------------------------|  e:-7--7-----7-----7--7--|
B:-------5-----------5-----|  B:-8--8-----8-----8--8--|
G:----------6-----------6--|  G:-9--9-----9-----9--9--|
D:-------------------------|  D:-9--9-----9-----9--9--|
A:-4-----------0-----------|  A:-7--7-----7-----7--7--|
E:-------------------------|  E:-0--0-----0-----0--0--|


PINK TURNS TO BLUE (Grant Hart)


Intro (live version):
   C#m                           (hold)
e:--------------------------------------|
B:--------------------------------------|
G:-----6---------6---------6------------| Play
D:-------6---------6---------6----------| twice
A:-4---------0--------------------------|
E:---------------------4---------0------|

 C#m
e:-------------------------------------------------------|
B:-------------------------------------------------------|
G:-----6---------6---------6---------6-------6-------6---| Play
D:-------6---------6---------6---------------------------| twice
A:-4---------0-------------------------------------------|
E:---------------------4---------0-------4-------5-------|

  C#m                                                      (hold)
e:-------------------------------------------------------|-----------------|
B:-------------------------------------------------------|-----------------|
G:-----6---------6---------6---------6-------6-------6---|-6---------------|
D:-------6---------6---------6---------------------------|-6---------------|
A:-4---------0-------------------------------------------|-4---------------|
E:---------------------4---------0-------4-------5-------|-----------------|

Intro (album version):

Riff 1 (C#m) X 8

C#m (riff)
Going out each day to score

She was no whore
        Em
But for me
C#m
Celebrating every day

The way
                      Em
She thought it should be


Chorus:
      Bm                  Am
And I don't know what to do
                  C#m
Now that pink has turned to blue
      Bm                  Am
And I don't know what to do
                  C#m
Now that pink has turned to blue

C#m riff X 3

C#m
She was always by my side

And never tried
    Em
To leave
C#m
Standing up for me

And like a tree
               Em
For what she believed

Chorus:

      Bm                  Am
And I don't know what to do
                  C#m
Now that pink has turned to blue
      Bm                  Am
Now I don't know what to do
                  C#m
Now that pink has turned to blue

C#m riff X 3

Solo:

  C#m
e:-------------------|-------------------|-------------------|
B:-------------------|-------------------|-------------------|
G:-------------------|-------------------|-------------------|
D:-------------------|-------------------|-------------------|
A:-------------11-9--|-------------11-9--|-------------11-9--|
E:-9--9--12-9--------|-9--9--12-9--------|-9--9--12-9--------|

   Em
e:----------------------|
B:-8-------8------8--8--|
G:-9-------9------9--9--|
D:-9-------9------9--9--|
A:-7-------7------7--7--|
E:----------------------|

  C#m
e:-------------------|-------------------|-------------------|
B:-------------------|-------------------|-------------------|
G:-------------------|-------------------|-------------------|
D:-------------------|-------------------|-------------------|
A:-------------11-9--|-------------11-9--|-------------11-9--|
E:-9--9--12-9--------|-9--9--12-9--------|-9--9--12-9--------|

   Em                       C#m
e:-0----(0)---------------|------------------------|------------------------|
B:-11-b-(12)--------------|-0---0-------0---0------|-0---0-------0---0------|
G:-----------9------9-----|-9---9-(9)---9---9-(9)--|-9---9-(9)---9---9-(9)--|
D:-------------11-----11--|--------11----------11--|--------11----------11--|
A:------------------------|------------------------|------------------------|
E:------------------------|------------------------|------------------------|


e:---------------------------------------|
B:-0---0------13-b-(14)-12--13-b(14)-12--|
G:-9---9-(9)-----------------------------|
D:--------11-----------------------------|
A:---------------------------------------|
E:---------------------------------------|

   Em
e:---------------------------------------|
B:-13-b(14)-12--9----------9-------------|
G:----------------11-9-9-------11-9----9-|
D:----------------------------------11---|
A:---------------------------------------|
E:---------------------------------------|


   C#m                                                         Em
e:---------------|-----0-0-------|-----0-0-0-0-0-0-|-0-0-0-0-0-0-0-0-0-0-0-|
B:---------------|-----2-0---5---|-----7-\-5-\-4-\-|-2-\-0---0-2p0h2p0h2p0-|
G:---------------|-----------6---|-----------------|-----------------------|
D:-----6-4-------|---------------|-----------------|-----------------------|
A:-4---------7---|-4-------------|-4---------------|-----------------------|
E:---------------|---------------|-----------------|-----------------------|

Chorus:

      Bm                  Am
And I don't know what to do
                  C#m
Now that pink has turned to blue
      Bm                  Am
And I don't know what to do
                  C#m
Now that pink has turned to blue

C#m riff X 3

C#m
No more rope

And too much dope
                   Em
She's lying on the bed

C#m
Angels pacing

Gently placing
                 Em
Roses 'round her head


Chorus:

      Bm                  Am
And I don't know what to do
                  C#m
Now that pink has turned to blue
      Bm                  Am
Now I don't know what to do
                  C#m
Now that pink has turned to blue

      Bm                  Am
Now I don't know what to do
                  C#m
Now that pink has turned to blue
      Bm                  Am
Now I don't know what to do oo o

C#m X 4. Slowing down

Ending (live version):

   C#m
e:-----------------------------------------------|
B:-----5-----------5-----------5-----------5-----|
G:-------6-----------6-----------6-----------6---|
D:---------6-----------6-----------6-----------6-|
A:-4-----------0-----------4-----------0---------|
E:-----------------------------------------------|

                           (hold)
e:-----------------------------------------------|
B:------5----------------------------------------|
G:--------6----------------6---------------------|
D:----------6--------------6---------------------|
A:--4------------0---------4---------------------|
E:-----------------4-0-4-------------------------|

TP.

NEWEST INDUSTRY (Bob Mould)

Verse chords:   F# 2443XX     E X2240X     B X2440X

Break 1 chords: G#5 466XXX    A#5 688XXX   B5 799XXX    E 079900

Break 2 chords: D#5 X688XX    B5 X244XX    C#5 X466XX   A5 X022XX

                G#5 466XXX    E X2240X

Intro:

   F# Riff (Played four times)

e:-2---2-2---2-2-2---2---------------------|-2-----------------2---2---2---2---|
B:-0---0-0---0-0-0---2---0-0---0-0---0---0-|-0---0-0---0-0-0---0---0---0---0---|
G:-3---4-3---4-3-4-------4-3---4-3---3---3-|-3---4-3---4-3-3-------------------|
D:-4---4-4---4-4-4-------4-4---4-4---4---4-|-4---4-4---4-4-4-------------------|
A:-----------------------------------------|-----------------------------------|
E:-----------------------------------------|-----------------------------------|

F#                  E                   F#            B
Been through mass destruction once, but once was not enough
F#             E              F#               B
Said we want a second chance, all they say is tough
F#                    E             F#                   B
A world where science went too far, there's no way to survive
F#               E                       F#                    B
Why can't we get this straightened out, 'cause I want to stay alive

Break 1 (played twice):

G#5  A#5    G#5  A#5   G#5  B5  E

F#                         E                           F#               B
They burned and bombed the east and north, and there's no place left to go
F#                E               F#           B
The Sunbelt's overcrowded so lets annex Mex - ico
F#              E                 F#                B
The Peso's only worth a dime, but they got all that land.
F#            E             F#                 B
No need for a civil war, we know they'll unserstand, right?

Break 1 (played twice):

G#5  A#5    G#5  A#5   G#5  B5  E

Break 2 (hold each chord apart from last E and A5 which are strummed):

D#5  B5    C#5  A5    D#5  G5    E  A5

F# Riff:(intro - played twice)

F#             E           F#              B
Factories left unattended, crumblin to the ground
F#                    E                    F#           B
We tried to keep them running, but there's no more oil around.
F#                E                F#                 B
We used it all to fight a war that neither side could win.
F#          E                F#        B
Vietnam was little league compared to where we've been.

Break 1 (played twice):

G#5  A#5    G#5  A#5   G#5  B5  E

F#             E                      F#             B
Now we live in caves and huts, and we don't have pay TV.
F#              E                  F#          B
And everyone is signing up for the newest industry.
F#                  E            F#                B
Standard Oil's gone solar power, all try to make a buck.
F#               E                    F#               B
I'll sit around, smoke cigarettes and babble "what the fuck?"

Break 1 (played twice):

G#5  A#5    G#5  A#5   G#5  B5  E
                                That's alright now (after last E)

Break 2:

D#5  B5    C#5  A5    D#5  G5    E  A5
                                    Newest indus-

    F# Riff (Played four times)

e:-2---2-2---2-2-2---2---------------------|-2-----------------2---2---2---2---|
B:-0---0-0---0-0-0---2---0-0---0-0---0---0-|-0---0-0---0-0-0---0---0---0---0---|
G:-3---4-3---4-3-4-------4-3---4-3---3---3-|-3---4-3---4-3-3-------------------|
D:-4---4-4---4-4-4-------4-4---4-4---4---4-|-4---4-4---4-4-4-------------------|
A:-----------------------------------------|-----------------------------------|
E:-----------------------------------------|-----------------------------------|
   -try                              for the newest industry, We'll all
    sign up                          for the newest industry, We'll all
    sign up                          for the newest industry, We'll all

    F# Riff                                                  E(hold) Bb5(hold).
e:-2---2-2---2-2-2---2---------------------|-2---------------------------------|
B:-0---0-0---0-0-0---2---0-0---0-0---0---0-|-0---0-0---0-0-0---0---------------|
G:-3---4-3---4-3-4-------4-3---4-3---3---3-|-3---4-3---4-3-3---4-----3---------|
D:-4---4-4---4-4-4-------4-4---4-4---4---4-|-4---4-4---4-4-4---2-----3---------|
A:-----------------------------------------|-------------------2-----1---------|
E:-----------------------------------------|-----------------------------------|
   sign up                          for the newest industry


TP.


MONDAY WILL NEVER BE THE SAME (Bob Mould)

Piano piece transcribed for two guitars (one hitting the chords).

Chords:

F# 244XXX    C# X466XX    B X244XX    G# 466XXX

G  355XXX    D  X577XX    C X355XXX   A  577XXX


   F#                  C#
e:---------------------------------------|
B:-----0-----0-----0---2---0-----0-------|
G:-3-----3-----3-------------3-----3---1-|
D:---------------------------------------|
A:---------------------------------------|
E:---------------------------------------|

   B                   F#
e:---------------------------------------|
B:-----0-----0-----0---2---0-----0-------|
G:-3-----3-----3-------------3-----3---1-|
D:---------------------------------------|
A:---------------------------------------|
E:---------------------------------------|

   B                   F#                  G#     C#
e:--------------------------------------------------|
B:-----0-----0-----0---2---0-----0-------------2----|
G:-3-----3-----3-------------3-----3-------1------6-|
D:-------------------------------------4----------6-|
A:------------------------------------------------4-|
E:--------------------------------------------------|

   F#                  C#
e:---------------------------------------|
B:-----0-----0-----0---2---0-----0-------|
G:-3-----3-----3-------------3-----3---1-|
D:---------------------------------------|
A:---------------------------------------|
E:---------------------------------------|

    B                   F#
e:|---------------------------------------|
B:|-----0-----3-----0---2---0---0---------|
G:|-3-----3-----3-----------------3---1---|
D:|---------------------------------------|
A:|---------------------------------------|
E:|---------------------------------------|

   B                   F#                  G#     C#
e:--------------------------------------------------|
B:-----0-----0-----0---2---0-----0-------------2----|
G:-3-----3-----3-------------3-----3-------1------6-|
D:-------------------------------------4----------6-|
A:------------------------------------------------4-|
E:--------------------------------------------------|

   G               D
e:-7---8-7---8-7---10--8-7---8-7-------|
B:---------------------------------10--|
G:-------------------------------------|
D:-------------------------------------|
A:-------------------------------------|
E:-------------------------------------|

   C               G
e:-7---8-7---8-7---10--8-7---8-7-------|
B:---------------------------------10--|
G:-------------------------------------|
D:-------------------------------------|
A:-------------------------------------|
E:-------------------------------------|

   C               G                  A       D(hold)
e:-7---8-7---8-7---10--8-7---8-7----------10----|
B:---------------------------------8--10--------|
G:--------------------------------------------7-|
D:--------------------------------------------7-|
A:--------------------------------------------5-|
E:----------------------------------------------|

TP.

WHATEVER (Bob Mould)

Chords:

G 320033    Fsus2(addD) 13X033    Csus2 X3X033    Em7 022033    D XX023X

Intro:

   G(hold)
e:-3------------------------------------------------------------------------|
B:-3------------------------------------------------------------------------|
G:-0------------------------------------------------------------------------|
D:-0------------------------------------------------------------------------|
A:-2------------------------------------------------------------------------|
E:-3------------------------------------------------------------------------|

   Bass (played over guitar above):
G:--------------------------------------------------------------------------|
D:--------------------------------------------------------------------------|
A:---------------6---6---6---6-5---5---5---5-3---3---3---3------------------|
E:-3---3---3---3------------------------------------------------------------|


Guitar/bass combination:

e:-3---3---3-3-----------------3-------3---------3-------3---------3------|
B:-3---3-----3-----------------3-------3---------3-------3---------3------|
G:-0---0---0-0-----------------0-------0---------0-------0---------0------|
D:-0---0---0-0-------1---1---1-1-------0---0---0-0------------------------|
A:-2---2---2-2-------------------------------------------3---3---3-3------|
E:-3---3---3-3------------------------------------------------------------|


e:-----5---5-3-----------5---5-3-----------5---5-3-----------5---5-3------|
B:-----3---3-3-----------3---3-3-----------3---3-3-----------3---3-3------|
G:-0---0---0-0-------0---0---0-0-------0---0---0-0-------0---0---0-0------|
D:-0---0---0-0-----------0---0-0-------0---0---0-0-----------0---0-0------|
A:-------------------6-----------------------------------3----------------|
E:-3----------------------------------------------------------------------|

<----------------------- Played twice ------------------------------------>

                                                          e:-------------------|
                                                          B:-3-3---3---3---3---|
                                                          G:-----------0---0---|
                                                          D:-3-----2---0-------|
                                                          A:---------------3---|
G               Fsus2(addD)             Csus2             E:-------------------|
He lives in his imagination, with those friends of his very own
G                             Em7                 Csus2      D
He doesn't get along with the outside world, he'd rather be alone
G                    Fsus2(addD)       Csus2            (Riff-as above)
Sometimes, when it's late at night, he starts to wonder why
                                                                  D
                                                     e:---------------|
                                                     B:---------------|
                                                     G:-----------2---|
                                                     D:-----------0---|
                                                     A:-0-2---3-------|
G                      Em7              Csus2        E:---------------|
(The plans he made can never happen, so all he does is            cry).

e:-----5---5-3-----------5---5-3-----------5---5-3-----------5---5-3------|
B:-----3---3-3-----------3---3-3-----------3---3-3-----------3---3-3------|
G:-0---0---0-0-------0---0---0-0-------0---0---0-0-------0---0---0-0------|
D:-0---0---0-0-----------0---0-0-------0---0---0-0-----------0---0-0------|
A:-------------------6-----------------------------------3----------------|
E:-3----------------------------------------------------------------------|

<----------------------- Played twice ------------------------------------>


G                       Fsus2(addD)          Csus2              (Riff)
His parents, they can't understand why their son, he turned out wrong
G                 Em7                 Csus2               D
He runs away from all the pain and forgets them when he's gone
G                  Fsus2(addD)            Csus2               (Riff)
He'd rather be all by himself because his plans, they seem the best.
G                   Em7                   Csus2         (Riff) D
He finally gets the nerve one day and now life becomes a       test.


e:-----5---5-3-----------5---5-3-----------5---5-3-----------5---5-3------|
B:-----3---3-3-----------3---3-3-----------3---3-3-----------3---3-3------|
G:-0---0---0-0-------0---0---0-0-------0---0---0-0-------0---0---0-0------|
D:-0---0---0-0-----------0---0-0-------0---0---0-0-----------0---0-0------|
A:-------------------6-----------------------------------3----------------|
E:-3----------------------------------------------------------------------|
   Whatever you want whatever you do   wherever you go   whatever you say
   Whatever you want whatever you do   wherever you go   whatever you say
   Whatever you want whatever you do   wherever you go   whatever you say
   Whatever you want whatever you do   wherever you go   whatever you say


Fsus2(addD)      Csus2      G
Mom and Dad, I'm so  -  o - rry
Fsus2(addD)        Csus2      G
Mom and Dad, don't wo  -  o - rry
Fsus2(addD)         Csus2       G
I'm not the son you wanted, but what did you expect?
Fsus2(addD)           Csus2        G
I've made my world of happiness to combat your neglect.

Break:

e:-----------------------------------|-------------------------------------|
B:-----------------------------------|-------------------------------------|
G:-----0-0-------0-0---------0---0-0-|-----0-0-------0-0---------0---0-0---|
D:-8---------8---------8---8-8---8-8-|-5---------5---------5---5-5---5-5---|
A:-6---------6---------6---6-6---6-6-|-3---------3---------3---3-3---3-3---|
E:-----------------------------------|-------------------------------------|

e:-----------------------------------|-------------------------------------|
B:-----------------------------------|-------------------------------------|
G:-----0-0-------0-0---------0---0-0-|-----0-0-------0-0---------0---0-0---|
D:-3---------3---------3---3-3---3-3-|-6---------6---------6---6-6---6-6---|
A:-3---------3---------3---3-3---3-3-|-6---------6---------6---6-6---6-6---|
E:-----------------------------------|-4---------4---------4---4-4---4-4---|

<----------------------- bars above played twice -------------------------->


e:-----------------------------------|-------------------------------------|
B:-----------------------------------|-------------------------------------|
G:-----0-0-------0-0---------0---0-0-|-----0-0-------0-0---------0---0-0---|
D:-8---------8---------8---8-8---8-8-|-5---------5---------5---5-5---5-5---|
A:-6---------6---------6---6-6---6-6-|-3---------3---------3---3-3---3-3---|
E:-----------------------------------|-------------------------------------|


e:-----------------------------------|-------------------------------------|
B:-----------------------------------|-------------------------------------|
G:-----0-0-------0-0---------0---0-0-|-----0-0-------0-0---------0---0-0---|
D:-3---------3---------3---3-3---3-3-|-6---------6---------6---6-6---6-6---|
A:-3---------3---------3---3-3---3-3-|-6---------6---------6---6-6---6-6---|
E:-1---------1---------1---1-1---1-1-|-4---------4---------4---4-4---4-4---|

<----------------------- bars above played twice -------------------------->


  (hold chord)    (hold chord)    (hold chord)    (hold chord)
e:-5-p-3---------|-5-p-3---------|-5-p-3---------|-5-p-3---------|
B:-3-------------|-3-------------|-3-------------|-3-------------|
G:-0-------------|-0-------------|-0-------------|-0-------------|
D:---------------|---------------|---------------|---------------|
A:-5-------------|-5-------------|-5-------------|-5-------------|
E:-3-------------|-3-------------|-3-------------|-3-------------|


e:-5-p-3----------3-3-----5-----3---|-5-p-3----------3-3-----5-----3---|
B:-3--------------3-3-----3-----3---|-3--------------3-3-----3-----3---|
G:-0--------------0-0-----0-----0---|-0--------------0-0-----0-----0---|
D:----------------------------------|----------------------------------|
A:-5----------------------5-----5---|-5----------------------5-----5---|
E:-3----------------------3-----3---|-3----------------------3-----3---|
   Mum and dad    I'm     so -  r -   ry
   Mum and dad   don't    Wo -  r -   ry
   Mum and dad    I'm     so -  r -   ry


e:-5-p-3----------3-3-----5-----3---|-3------3---3-------3-------3---3---|
B:-3--------------3-3-----3-----3---|-3------3---3-------3-------3---3---|
G:-0--------------0-0-----0-----0---|-0------0---0-------0-------0---0---|
D:----------------------------------|------------------------------------|
A:-5----------------------5-----5---|-5------5---5-------5-------5---5---|
E:-3----------------------3-----3---|-3------3---3-------3-------3---3---|
   Mum and dad   don't    Worry       don't  worry       don't   worry

e:-----5---5-3-----------5---5-3-----------5---5-3-----------5---5-3------|
B:-----3---3-3-----------3---3-3-----------3---3-3-----------3---3-3------|
G:-0---0---0-0-------0---0---0-0-------0---0---0-0-------0---0---0-0------|
D:-0---0---0-0-----------0---0-0-------0---0---0-0-----------0---0-0------|
A:-------------------6-----------------------------------3----------------|
E:-3----------------------------------------------------------------------|
   Whatever you want whatever you do   wherever you go   whatever you say

<-------------------------- repeat twelve times to end ------------------->

TP.

THE TOOTH FAIRY AND THE PRINCESS (Bob Mould)

(Uses backwards guitar effects)

   A5                Fmaj7      Em11
e:----0--------0------------0----------0-|
B:------9--------9----------5----------7-| Played
G:------------------------5----------7---| four
D:-7--------7-----------3----------5-----| times
A:-0--------0--------0----------0--------|
E:---------------------------------------|
   Don't   give up
   Don't   give up,  Don't   give in
   Give    in
   Don't   let  up,  Don't let, Don't let

   G
e:-3-------------------------------|-3-------------------------------|
B:-3-------3-------------------3---|-3-------3-------------------3---|
G:-0---0---------0-----0-----------|-0---0---------0-----0-----------|
D:-5-----------5-----5-----5-------|-5-----------5-----5-----5-------|
A:-5-------------------------------|-5-------------------------------|
E:---------------------------------|---------------------------------|
   Don't let go                      In  your  bed  don't  get  up

   A5                Fmaj7      Em11
e:----0--------0------------0----------0-|
B:------9--------9----------5----------7-| Played
G:------------------------5----------7---| four
D:-7--------7-----------3----------5-----| times
A:-0--------0--------0----------0--------|
E:---------------------------------------|
   Don't   give up
   Don't   give up,  Don't   let  go
   Don't   let  go
   Don't   let  up,  Don't let, Don't let

   G
e:-3-------------------------------|-3-------------------------------|
B:-3-------3-------------------3---|-3-------3-------------------3---|
G:-0---0---------0-----0-----------|-0---0---------0-----0-----------|
D:-5-----------5-----5-----5-------|-5-----------5-----5-----5-------|
A:-5-------------------------------|-5-------------------------------|
E:---------------------------------|---------------------------------|
               Late  at  night,      Late at night in your bed

Repeat the verse and chorus pattern a further six times.

Substitute 'Red hot red' and 'Don't get up' for 'Don't let go' the fifth and sixth time the
chorus section (G chord) is played)

Ends with:

   A5(hold)
e:-0-------------------------------------|
B:-9-------------------------------------|
G:-9-------------------------------------|
D:-7-------------------------------------|
A:-0-------------------------------------|
E:---------------------------------------|

TP.

TURN ON THE NEWS (Grant Hart)

Chords:

F# 2443XX    A X0222X    E 0221XX    B X244XX    C# X466XX

F#5 X9 11 11 XX          A5 X 12 14 14 XX        E5 X799XX

Intro:

   F#              A   E5  E/F# E5
e:(2)------4---2--------------------|
B:(2)--2-----------2----------------|
G:-3---------------2----------------| Played
D:-4---------------2---2---2----2---| twice
A:-----------------0---2---2----2---|
E:-2-------------------0---2----0---|

   F#              A   E
e:(2)------4---2-------0---------|
B:(2)--2-----------2---0---------|
G:-3---------------2---1---------|
D:-4---------------2---2---------|
A:-----------------0---2---------|
E:-2-------------------0---------|

F#                          A
If there's one thing that I can't explain
E                       B
Is why the world has to have so much pain
F#                      A
With all the ways of communicating
E                          C#
We can't get in touch with who we're hating (who we're hating)

and now we can't get in touch with who we ha - ay - ate

        F#                A
So turn on (turn on) turn on (turn on)
     E                F#
turn on (turn on) the news
        F#                A
So turn on (turn on) turn on (turn on)
     E                C#(with riff below played over)
turn on (turn on) the news

   C# Riff:
e:---------------------------------------------------------|
B:---------------------------------------------------------|
G:-6-b(7)--8-b(9)--9-b(10)-11b(12)-11b(12)-11b(12)-11b(13)-|
D:---------------------------------------------------------|
A:---------------------------------------------------------|
E:---------------------------------------------------------|

F#                         A
I hear it every day on the radio
E                              B
Somebody shoots a guy he don't even know
F#                        A
Airplanes are falling out of the sky
E                   B
A baby is born and another one dies
F#                 A
Highways fill with refugees now
E                    B
Doctors finding out about disease
F#                    A
With all this uptight pushing and shoving
E                  C#
Keeps us away from who we're loving (who we're loving)

That keeps us away from who we should be loving

        F#                A
So turn on (turn on) turn on (turn on)
     E                F#
turn on (turn on) the news
     F#                A
Turn on (turn on) turn on (turn on)
     E                F#
turn on (turn on) the news
     F#                A
Turn on (turn on) turn on (turn on)
     E                F#
turn on (turn on) the news
        F#                A
So turn on (turn on) turn on (turn on)
     E                C#
turn on (turn on) the news

Solo Break:

   A                 E                  F#
e:----------------|------------------|------------------|
B:-2--------------|--0---------------|--2---------------|
G:-2--------------|--1---------------|--3---------------|
D:-2--------------|--2---------------|--4---------------|
A:-0--------------|--2---------------|--4---------------|
E:----------------|--0---------------|--2---------------|

   A                       E
e:-----------------------|-------------------------------|
B:-----------------------|-------------------------------|
G:-4-b(5)--4-b(5)--2---1-|-----2---4-b(5)--2---1---2---4b|
D:-----------------------|-4-----------------------------|
A:-----------------------|-------------------------------|
E:-----------------------|-------------------------------|

   F#
e:-------------------------------------|
B:-------------------------------------|
G:(5)------4--2--1-------1---2---4-b(5)|
D:-------------------4-----------------|
A:-------------------------------------|
E:-------------------------------------|

   A
e:-------------------------|
B:-------------------------|
G:-4-\-2-/-4-\-2-/-4-/-6---|
D:-------------------------|
A:-------------------------|
E:-------------------------|

   E
e:-------------------------------------------------|
B:-------------------------------------------------|
G:-6-b(8)--6---6-b(8)--6---9-b(10)-9---9-b(10)-9---|
D:-------------------------------------------------|
A:-------------------------------------------------|
E:-------------------------------------------------|

   F#
e:-------------------------------------------------------------------|
B:-----7-p-5-------7-p-5---7-p-5-------7-p-5---7-p-5-------7-p-5-----|
G:-11----------6--------------------6-------------------6----------6-|
D:-------------------------------------------------------------------|
A:-------------------------------------------------------------------|
E:-------------------------------------------------------------------|

   A
e:--------------------------------------------------------|
B:-7p5----7p5----7p5----7p5----7p5----7p5----7p5----7p5---|
G:-----6------6------6------6------6------6------6------6-|
D:--------------------------------------------------------|
A:--------------------------------------------------------|
E:--------------------------------------------------------|

  E
e:--------------------------------------------------------|
B:-7p5----7p5----7p5----7p5----7p5----7p5----7p5----7p5---|
G:-----6------6------6------6------6------6------6------6-|
D:--------------------------------------------------------|
A:--------------------------------------------------------|
E:--------------------------------------------------------|

   F#
e:--------------------------------------------------------|
B:-7p5----7p5----7p5----7p5----7p5----7p5----7p5----7p5---|
G:-----6------6------6------6------6------6------6------6-| Played
D:--------------------------------------------------------| twice
A:--------------------------------------------------------|
E:--------------------------------------------------------|

   A
e:-----------------------------------------------------------------------|
B:-10-10-10--12b(14)---10-10-10--12b(14)---10-10-10--12b(14)---14-14-12--|
G:-----------------------------------------------------------------------|
D:-----------------------------------------------------------------------|
A:-----------------------------------------------------------------------|
E:-----------------------------------------------------------------------|

   E
e:-------------------------------------|
B:-14--12-p10--12-p10--12-p10--12-h14--|
G:-------------------------------------|
D:-------------------------------------|
A:-------------------------------------|
E:-------------------------------------|

   F#
e:------------------------------------------------------2---|
B:-12-p10-\9---10-p9-\7---9-p7-\5---7-p5-\4---5-p4-\2-------|
G:----------------------------------------------------------|
D:----------------------------------------------------------|
A:----------------------------------------------------------|
E:----------------------------------------------------------|

   A
e:------------------------------------------------------------------|
B:-5-h-6-h-7-----5-h-6-h-7-p-6-p-5-----7-p-6-p-5-----7-p-6-p-5------|
G:---------------------------------------------------------------4--|
D:------------------------------------------------------------------|
A:------------------------------------------------------------------|
E:------------------------------------------------------------------|

   E
e:------------------------------------------------------------------|
B:-5-h-6-h-7-----5-h-6-h-7-p-6-p-5-----7-p-6-p-5-----7-p-6-p-5------|
G:---------------------------------------------------------------2--|
D:------------------------------------------------------------------|
A:------------------------------------------------------------------|
E:------------------------------------------------------------------|

   F#
e:---------------------------------------------------------------|
B:-7-p-5-\-4-/-5-----7-p-5-p-4-------4-h-5-h-7-------4-h-5-h-7---|
G:-------------------------------4---------------4---------------|
D:---------------------------------------------------------------|
A:---------------------------------------------------------------|
E:---------------------------------------------------------------|

   A                 E
e:-----------------|-5-------5-------5-------5-------|
B:-7---7---7---7---|-----7-------7-------7-------7---|
G:-----------------|---------------------------------|
D:-----------------|---------------------------------|
A:-----------------|---------------------------------|
E:-----------------|---------------------------------|

   F#
e:-7-p-5---5---5---7-p-5---5---5---7-p-5---5---5---7-p-5---5---5---|
B:---------7---------------7---------------7---------------7-------|
G:-----------------------------------------------------------------|
D:-----------------------------------------------------------------|
A:-----------------------------------------------------------------|
E:-----------------------------------------------------------------|

   F#(palm muted)                  A5(palm muted)
e:-------------------------------|-------------------------------|
B:-------------------------------|-------------------------------|
G:-------------------------------|-------------------------------|
D:-4---4-4-4---4-4-4---4-4-4---4-|-7---7-7-7---7-7-7---7-7-7---7-| These
A:-4---4-4-4---4-4-4---4-4-4---4-|-7---7-7-7---7-7-7---7-7-7---7-| four
E:-2---2-2-2---2-2-2---2-2-2---2-|-5---5-5-5---5-5-5---5-5-5---5-| bars

   E5(palm muted)                  F#(palm muted)
e:-------------------------------|-------------------------------| are
B:-------------------------------|-------------------------------| played
G:-------------------------------|-------------------------------| twice
D:-2---2-2-2---2-2-2---2-2-2---2-|-4---4-4-4---4-4-4---4-4-4---4-|
A:-2---2-2-2---2-2-2---2-2-2---2-|-4---4-4-4---4-4-4---4-4-4---4-|
E:-0---0-0-0---0-0-0---0-0-0---0-|-2---2-2-2---2-2-2---2-2-2---2-|

     F#                A
Turn on (turn on) turn on (turn on)
     E                F#
Turn on (turn on) the news
     F#                A
Turn on (turn on) turn on (turn on)
     E                F#
Turn on (turn on) the news
F#                              A
Turn it on (turn it on) turn it on (turn it on)
        E                   F#
Turn it on (turn it on) the news
F#                              A
Turn it on (turn it on) turn it on (turn it on)
        E                   F#
Turn it on (turn it on) the news
F#                              A
We've got to turn it on (got to turn it on)
E           F#
Turn it on (turn it on)

Then the solo below over the following:

   F#
e:-9---12--9---12--9---12--14-p12--|
B:---------------------------------|
G:---------------------------------|
D:---------------------------------|
A:---------------------------------|
E:---------------------------------|

   A                   E
e:-9---12--14-p12-p9---9---12--9---12--12-p9---|
B:---------------------------------------------|
G:---------------------------------------------|
D:---------------------------------------------|
A:---------------------------------------------|
E:---------------------------------------------|

   F#
e:-----14--12--9---12--14--14--14--12--14--9---|
B:-10------------------------------------------|
G:---------------------------------------------|
D:---------------------------------------------|
A:---------------------------------------------|
E:---------------------------------------------|

With above solo:

F#          A
Turn it on (turn it on)
E           F#
Turnit on

F#          A           E           F#

Then (without solo):

F#5    A5    E5 (played three times)

Last riff (after the final, held F#5):

e:---------------------------------------------------------------------------|
B:-7-p-5-h-7-p-5-h-7-p-5-h-7-p-5-h-7-p-5-h-7-p-5-h-7-p-5-h-7-/-9---7-p-5-\-2-|
G:---------------------------------------------------------------------------|
D:---------------------------------------------------------------------------|
A:---------------------------------------------------------------------------|
E:---------------------------------------------------------------------------|

                                  E5  F#5(hold)
e:----------------------------------------|
B:--0-h-2-p-0-----------------------------|
G:--------------2-------------------------|
D:------------------4--/----------2---4---|
A:---------------------/------/---2---4---|
E:----------------------------/---0---2---|
                      Pick scrape
TP.


REOCCURING DREAMS (Bob Mould)

The song basically consists of the riff pattern below and solos improvised over the E chord.
The solo after the first riff pattern is given as an example.

Intro:

  E(muted) (muted)  (muted)  Hold
e:-0--------0--------0--------0--------------------------------------|
B:-0--------0--------0--------0--------------------------------------|
G:-9--------9--------9--------9--------------------------------------|
D:-9--------9--------9--------9--------------------------------------|
A:-7--------7--------7--------7--------------------------------------|
E:-0--------0--------0--------0--------------------------------------|


Riff Pattern:

e:---------------------------------------------------------|
B:---------------------------------------------------------|
G:-9--13-----11-15-----9--13-----11-15-----19-13-----11-15-|
D:---------------------------------------------------------|
A:-7--11-----9--13-----7--11-----9--13-----7--11-----9--13-|
E:---------------------------------------------------------|

e:-------------------|
B:-------------------|
G:-13--16-----15--18-|
D:-------------------|
A:-11--14-----13--16-|
E:-------------------|

e:---------------------------------------------------------|
B:---------------------------------------------------------|
G:-9--13-----11-15-----9--13-----11-15-----19-13-----11-15-|
D:---------------------------------------------------------|
A:-7--11-----9--13-----7--11-----9--13-----7--11-----9--13-|
E:---------------------------------------------------------|

e:|--------------------|
B:|--------------------|
G:|-13--17-----15--19--|
D:|--------------------|
A:|-11--15-----13--17--|
E:|--------------------|

First solo:
   E
e:-0------11-b12---------------------------------------------------|
B:-0-------------10-p8--10-p8--8-----8--10-------------------------|
G:-9------------------------------11-------12-p11-12-p11-12-p11----|
D:-9------------------------------------------------------------12-|
A:-7---------------------------------------------------------------|
E:-0---------------------------------------------------------------|

                               (Hold into feedback)
e:------------------------------------------------------------|
B:------------------------------------------------------------|
G:-11----11---------------------------------------------------|
D:----12----12--12-p11-12-p11---------------------------------|
A:-----------------------------12-----------------------------|
E:------------------------------------------------------------|

Later in the song this chord pattern is played:

   E                                   D5    A5
e:-0-----------0-----------0-------------------------|
B:-0-----------0-----------0-------------------------|
G:-9-----------9-----------9-------------------------|
D:-9-----------9-----------9-----------12----7-------|
A:-7-----------7-----------7-----------12----7-------|
E:-0-----------0-----------0-----------10----5-------|
   1  2  3  4  1  2  3  4  1  2  3  4  1  2  3  4

TP.
comments
We did not receive enough feedback on this tab! Please rate:
print report bad tab
1 2 3 4 5
I want to post or [tab]
guest
You may want to rate the tab now too:
select rating
Please do not post tabs as comments. Select "correction" instead!