Oops, an error
Loading. Please wait.

No Tomorrow Tab

763 views 1 this week
no commentswrite comment
1 2 3 4 5
please rate
add to favorites launch autoscroll
font size
0
reset
Autoscroll
+/-
esc
set tempo
stop
Contributor
WARNING: You are trying to view
                                    content from Ultimate-Guitar.com
                                    in an unauthorized application,
                                    which is prohibited.

                                    Please use an official Ultimate
                                    Guitar Tabs application for iPhone,
                                    iPad or Android to access legitimate
                                    chords, guitar, bass, and drum tabs
                                    from Ultimate-Guitar.com database.

                                    Type "ultimate guitar tabs" in Apple
                                    App Store's or Android Market's
                                    search to find the application.
Titel: No Tomorrow                                   
Band: Hypocrisy
Album: A Taste of Extreme Divinity
Year: 2009

tabbed by Hypocrite 10/25/2009 
contact my via recalltohell at web.de

Tuning B E A D G b e

I tabbed this song with my 7-sting but left out the highest string.
Be aware fourth string is a g, not f#.

Hope you like this tab and feedback is welcome!
Cheers

0:00
                                                                       
Lead Guitar
               
||---------------------------------|---------------------------------|
||---------------------------------|---------------------------------|
||--8-8-8-8-8-8-8-8-8-8-8-8-8-8-6--|--8-8-8-8-8-8-8-8-8-8-8-8-8-8-9--|
||---------------------------------|---------------------------------|
||---------------------------------|---------------------------------|
||---------------------------------|---------------------------------|

Rhythm Guitar

||---------------------------------|---------------------------------|
||---------------------------------|---------------------------------|
||---------------------------------|---------------------------------|
||--6------------------------------|--9------------------------------|
||--6------------------------------|--9------------------------------|
||--4------------------------------|--7------------------------------|

Lead Guitar

||---------------------------------|---------------------------------|
||---------------------------------|---------------------------------|
||--8-8-8-8-8-8-8-8-8-8-8-8-8-8-6--|-3-3-3-3-3-3-3-3-3-3-3-3-3-3-3-3-|
||---------------------------------|---------------------------------|
||---------------------------------|---------------------------------|
||---------------------------------|---------------------------------|

Rhythm Guitar

||---------------------------------|---------------------------------|
||---------------------------------|---------------------------------|
||---------------------------------|---------------------------------|
||--2------------------------------|--4------------------------------|
||--2------------------------------|--4------------------------------|
||--0------------------------------|--2------------------------------|

0:08

Lead Guitar

||---------------------------------|---------------------------------|
||---------------------------------|---------------------------------|
||--8-8-8-8-8-8-8-8-8-8-8-8-8-8-6--|--8-8-8-8-8-8-8-8-8-8-8-8-8-8-4--|
||---------------------------------|---------------------------------|
||---------------------------------|---------------------------------|
||---------------------------------|---------------------------------|

Rhythm Guitar

||---------------------------------|---------------------------------|
||---------------------------------|---------------------------------|
||---------------------------------|---------------------------------|
||--6------------------------------|--9------------------------------|
||--6------------------------------|--9------------------------------|
||--4------------------------------|--7------------------------------|

Lead Guitar

||---------------------------------|---------------------------------|
||---------------------------------|---------------------------------|
||--3-3-3-3-3-3-3-3-3-3-3-3-3-3-4--|-3-3-3-3-3-3-3-3-3-3-3-3-3-3-3-3-|
||---------------------------------|---------------------------------|
||---------------------------------|---------------------------------|
||---------------------------------|---------------------------------|

Rhythm Guitar

||---------------------------------|---------------------------------|
||---------------------------------|---------------------------------|
||---------------------------------|---------------------------------|
||--2------------------------------|--4------------------------------|
||--2------------------------------|--4------------------------------|
||--0------------------------------|--2------------------------------|

Repeat this whole passage two times.

0:32

Rhythm Guitar
 
||---------------------------|------------------------------|
||---------------------------|------------------------------|
||---------------------------|------------------------------|
||---------------------------|------------------------------|
||--6--4--6----6--6--6--6-6--|--6--4--6--4--12--12--12--12--|
||--4--2--4----4--4--4--4-4--|--4--2--4--2--10--10--10--10--|
               .  .  .  . .  

||---------------------------|--------------------------|
||---------------------------|--------------------------|
||---------------------------|--------------------------|
||---------------------------|--------------------------|
||--6--4--6----6--6--6--6-6--|--6--4--6--4--7--7--7--7--|
||--4--2--4----4--4--4--4-4--|--4--2--4--2--5--5--5--5--|
               .  .  .  . . 

Both Guitars now

||---------------------------|------------------------------|
||---------------------------|------------------------------|
||---------------------------|------------------------------|
||---------------------------|------------------------------|
||--6--4--6----6--6--6--6-6--|--6--4--6--4--12--12--12--12--|
||--4--2--4----4--4--4--4-4--|--4--2--4--2--10--10--10--10--|
               .  .  .  . . 

||---------------------|-------------------------||
||---------------------|-------------------------||
||---------------------|------------13----/15----||
||--6------8------9----|----11-------------------||
||--4------6------7----|-----9------11----/13----||
||--4------6------7----|-----9-------------------||

||---------------------------|------------------------------|
||---------------------------|------------------------------|
||---------------------------|------------------------------|
||---------------------------|------------------------------|
||--6--4--6----6--6--6--6-6--|--6--4--6--4--12--12--12--12--|
||--4--2--4----4--4--4--4-4--|--4--2--4--2--10--10--10--10--|
               .  .  .  . .  

||---------------------------|--------------------------|
||---------------------------|--------------------------|
||---------------------------|--------------------------|
||---------------------------|--------------------------|
||--6--4--6----6--6--6--6-6--|--6--4--6--4--7--7--7--7--|
||--4--2--4----4--4--4--4-4--|--4--2--4--2--5--5--5--5--|
               .  .  .  . . 

||---------------------------|------------------------------|
||---------------------------|------------------------------|
||---------------------------|------------------------------|
||---------------------------|------------------------------|
||--6--4--6----6--6--6--6-6--|--6--4--6--4--12--12--12--12--|
||--4--2--4----4--4--4--4-4--|--4--2--4--2--10--10--10--10--|
               .  .  .  . . 

||---------------------|-------------------------||
||---------------------|-------------------------||
||---------------------|------------13----/15----||
||--6------8------9----|----11-------------------||
||--4------6------7----|-----9------11----/13----||
||--4------6------7----|-----9-------------------||


1:04

Lead Guitar
 
|--------------------------------|------------------------------|-----------------------------||
|--------------------------------|------------------------------|-----------------------------||
|-----------------------------8--|--9------8--9------9--11--11--|--11--11--11--9--9--9--9--9--||
|---11--11--11--9------9--11-----|-----11--------11-------------|-----------------------------||
|------------------11------------|------------------------------|-----------------------------||
|--------------------------------|------------------------------|-----------------------------||

Rhythm Guitar

|--------------------------------|------------------------------|-----------------------------||
|--------------------------------|------------------------------|-----------------------------||
|--------------------------------|----------------------11--11--|--11--11--11--9--9--9--9--9--||
|---11--11--11--11--11--11--11---|--11--11--11--11--11----------|-----------------------------||
|--------------------------------|------------------------------|-----------------------------||
|--------------------------------|------------------------------|-----------------------------||

Lead Guitar

|--------------------------------|------------------------------|--------------------------------||
|--------------------------------|------------------------------|--------------------------------||
|-----------------------------8--|--9------8--9------9--11--11--|--11--11--11--9--9-/13--13--13--||
|---11--11--11--9------9--11-----|-----11--------11-------------|--------------------------------||
|------------------11------------|------------------------------|--------------------------------||
|--------------------------------|------------------------------|--------------------------------||

Rhythm Guitar

|--------------------------------|------------------------------|-----------------------------||
|--------------------------------|------------------------------|-----------------------------||
|--------------------------------|----------------------11--11--|--11--11--11--9--9--9--9--9--||
|---11--11--11--11--11--11--11---|--11--11--11--11--11----------|-----------------------------||
|--------------------------------|------------------------------|-----------------------------||
|--------------------------------|------------------------------|-----------------------------||

Repeat this passsage two times

1:28

Lead Guitar
               
||---------------------------------|---------------------------------|
||---------------------------------|---------------------------------|
||--8-8-8-8-8-8-8-8-8-8-8-8-8-8-6--|--8-8-8-8-8-8-8-8-8-8-8-8-8-8-9--|
||---------------------------------|---------------------------------|
||---------------------------------|---------------------------------|
||---------------------------------|---------------------------------|

Rhythm Guitar

||---------------------------------|---------------------------------|
||---------------------------------|---------------------------------|
||---------------------------------|---------------------------------|
||--6------------------------------|--9------------------------------|
||--6------------------------------|--9------------------------------|
||--4------------------------------|--7------------------------------|

Lead Guitar

||---------------------------------|---------------------------------|
||---------------------------------|---------------------------------|
||--8-8-8-8-8-8-8-8-8-8-8-8-8-8-6--|-3-3-3-3-3-3-3-3-3-3-3-3-3-3-3-3-|
||---------------------------------|---------------------------------|
||---------------------------------|---------------------------------|
||---------------------------------|---------------------------------|

Rhythm Guitar

||---------------------------------|---------------------------------|
||---------------------------------|---------------------------------|
||---------------------------------|---------------------------------|
||--2------------------------------|--4------------------------------|
||--2------------------------------|--4------------------------------|
||--0------------------------------|--2------------------------------|

0:08

Lead Guitar

||---------------------------------|---------------------------------|
||---------------------------------|---------------------------------|
||--8-8-8-8-8-8-8-8-8-8-8-8-8-8-6--|--8-8-8-8-8-8-8-8-8-8-8-8-8-8-4--|
||---------------------------------|---------------------------------|
||---------------------------------|---------------------------------|
||---------------------------------|---------------------------------|

Rhythm Guitar

||---------------------------------|---------------------------------|
||---------------------------------|---------------------------------|
||---------------------------------|---------------------------------|
||--6------------------------------|--9------------------------------|
||--6------------------------------|--9------------------------------|
||--4------------------------------|--7------------------------------|

Lead Guitar

||---------------------------------|---------------------------------|
||---------------------------------|---------------------------------|
||--3-3-3-3-3-3-3-3-3-3-3-3-3-3-4--|-3-3-3-3-3-3-3-3-3-3-3-3-3-3-3-3-|
||---------------------------------|---------------------------------|
||---------------------------------|---------------------------------|
||---------------------------------|---------------------------------|

Rhythm Guitar

||---------------------------------|---------------------------------|
||---------------------------------|---------------------------------|
||---------------------------------|---------------------------------|
||--2------------------------------|--4------------------------------|
||--2------------------------------|--4------------------------------|
||--0------------------------------|--2------------------------------|

Repeat this whole passage two times, again.

2:00
 
Solo Part
   
||-----------------------|--------------------|-----------------------|
||-----------------------|--------------------|-----------------------|
||--/8-------------8--9--|--8-----------------|--/8-------------8--9--|
||------------6----------|-----------8--------|------------6----------|
||-----------------------|--------------------|-----------------------|
||-----------------------|--------------------|-----------------------|


     
||--------------------|----------------------|---------------------|
||-----------7--------|--/8--------6---------|---------------------|
||--8-----------------|-----------------9----|--8--------6----4----|
||--------------------|----------------------|---------------------|
||--------------------|----------------------|---------------------|
||--------------------|----------------------|---------------------|


  
||---------------------|--------------------|------------------------|
||---------------------|--------------------|------------------------|
||--3--------4----6----|--8-----------------|--/8~-------------8--9--|
||---------------------|-----------8--------|-------------6----------|
||---------------------|--------------------|------------------------|
||---------------------|--------------------|------------------------|

        
||--------------------|-----------------------|---------------------|
||--------------------|-----------------------|-----------7~--------|
||--8-----------------|--/8-------------8--9--|--8------------------|
||-----------8--------|------------6----------|---------------------|
||--------------------|-----------------------|---------------------|
||--------------------|-----------------------|---------------------|

    
||----------------------|---------------------|---------------------|
||--/8--------6---------|---------------------|---------------------|
||-----------------9----|--8--------6----4----|--3--------4----6----|
||----------------------|---------------------|---------------------|
||----------------------|---------------------|---------------------|
||----------------------|---------------------|---------------------|

  
||---------------------|
||-----------/7--------|
||--8------------------|
||---------------------|
||---------------------|
||---------------------|

2:32

Both Guitars

||---------------------------|------------------------------|
||---------------------------|------------------------------|
||---------------------------|------------------------------|
||---------------------------|------------------------------|
||--6--4--6----6--6--6--6-6--|--6--4--6--4--12--12--12--12--|
||--4--2--4----4--4--4--4-4--|--4--2--4--2--10--10--10--10--|
               .  .  .  . .  

||---------------------------|--------------------------|
||---------------------------|--------------------------|
||---------------------------|--------------------------|
||---------------------------|--------------------------|
||--6--4--6----6--6--6--6-6--|--6--4--6--4--7--7--7--7--|
||--4--2--4----4--4--4--4-4--|--4--2--4--2--5--5--5--5--|
               .  .  .  . . 

||---------------------------|------------------------------|
||---------------------------|------------------------------|
||---------------------------|------------------------------|
||---------------------------|------------------------------|
||--6--4--6----6--6--6--6-6--|--6--4--6--4--12--12--12--12--|
||--4--2--4----4--4--4--4-4--|--4--2--4--2--10--10--10--10--|
               .  .  .  . . 

||---------------------|-------------------------||
||---------------------|-------------------------||
||---------------------|------------13----/15----||
||--6------8------9----|----11-------------------||
||--4------6------7----|-----9------11----/13----||
||--4------6------7----|-----9-------------------||

2:48

Lead Guitar
 
|--------------------------------|------------------------------|-----------------------------||
|--------------------------------|------------------------------|-----------------------------||
|-----------------------------8--|--9------8--9------9--11--11--|--11--11--11--9--9--9--9--9--||
|---11--11--11--9------9--11-----|-----11--------11-------------|-----------------------------||
|------------------11------------|------------------------------|-----------------------------||
|--------------------------------|------------------------------|-----------------------------||

Rhythm Guitar

|--------------------------------|------------------------------|-----------------------------||
|--------------------------------|------------------------------|-----------------------------||
|--------------------------------|----------------------11--11--|--11--11--11--9--9--9--9--9--||
|---11--11--11--11--11--11--11---|--11--11--11--11--11----------|-----------------------------||
|--------------------------------|------------------------------|-----------------------------||
|--------------------------------|------------------------------|-----------------------------||

Lead Guitar

|--------------------------------|------------------------------|--------------------------------||
|--------------------------------|------------------------------|--------------------------------||
|-----------------------------8--|--9------8--9------9--11--11--|--11--11--11--9--9-/13--13--13--||
|---11--11--11--9------9--11-----|-----11--------11-------------|--------------------------------||
|------------------11------------|------------------------------|--------------------------------||
|--------------------------------|------------------------------|--------------------------------||

Rhythm Guitar

|--------------------------------|------------------------------|-----------------------------||
|--------------------------------|------------------------------|-----------------------------||
|--------------------------------|----------------------11--11--|--11--11--11--9--9--9--9--9--||
|---11--11--11--11--11--11--11---|--11--11--11--11--11----------|-----------------------------||
|--------------------------------|------------------------------|-----------------------------||
|--------------------------------|------------------------------|-----------------------------||

Repeat this passsage two times

3:12

Lead Guitar
               
||---------------------------------|---------------------------------|
||---------------------------------|---------------------------------|
||--8-8-8-8-8-8-8-8-8-8-8-8-8-8-6--|--8-8-8-8-8-8-8-8-8-8-8-8-8-8-9--|
||---------------------------------|---------------------------------|
||---------------------------------|---------------------------------|
||---------------------------------|---------------------------------|

Rhythm Guitar

||---------------------------------|---------------------------------|
||---------------------------------|---------------------------------|
||---------------------------------|---------------------------------|
||--6------------------------------|--9------------------------------|
||--6------------------------------|--9------------------------------|
||--4------------------------------|--7------------------------------|

Lead Guitar

||---------------------------------|---------------------------------|
||---------------------------------|---------------------------------|
||--8-8-8-8-8-8-8-8-8-8-8-8-8-8-6--|-3-3-3-3-3-3-3-3-3-3-3-3-3-3-3-3-|
||---------------------------------|---------------------------------|
||---------------------------------|---------------------------------|
||---------------------------------|---------------------------------|

Rhythm Guitar

||---------------------------------|---------------------------------|
||---------------------------------|---------------------------------|
||---------------------------------|---------------------------------|
||--2------------------------------|--4------------------------------|
||--2------------------------------|--4------------------------------|
||--0------------------------------|--2------------------------------|

0:08

Lead Guitar

||---------------------------------|---------------------------------|
||---------------------------------|---------------------------------|
||--8-8-8-8-8-8-8-8-8-8-8-8-8-8-6--|--8-8-8-8-8-8-8-8-8-8-8-8-8-8-4--|
||---------------------------------|---------------------------------|
||---------------------------------|---------------------------------|
||---------------------------------|---------------------------------|

Rhythm Guitar

||---------------------------------|---------------------------------|
||---------------------------------|---------------------------------|
||---------------------------------|---------------------------------|
||--6------------------------------|--9------------------------------|
||--6------------------------------|--9------------------------------|
||--4------------------------------|--7------------------------------|

Lead Guitar

||---------------------------------|---------------------------------|
||---------------------------------|---------------------------------|
||--3-3-3-3-3-3-3-3-3-3-3-3-3-3-4--|-3-3-3-3-3-3-3-3-3-3-3-3-3-3-3-3-|
||---------------------------------|---------------------------------|
||---------------------------------|---------------------------------|
||---------------------------------|---------------------------------|

Rhythm Guitar

||---------------------------------|---------------------------------|
||---------------------------------|---------------------------------|
||---------------------------------|---------------------------------|
||--2------------------------------|--4------------------------------|
||--2------------------------------|--4------------------------------|
||--0------------------------------|--2------------------------------|

Repeat this whole passage four times until fade-out.

End.
comments
We did not receive enough feedback on this tab! Please rate:
print report bad tab
1 2 3 4 5
I want to post or [tab]
guest
You may want to rate the tab now too:
select rating
Please do not post tabs as comments. Select "correction" instead!