Oops, an error
Loading. Please wait.

Heir To The Throne Tab

ver1
ver1

Whole song

Interactive

More versions @911Tabs.com
11,330 views 3 this week
2 commentsread comments
1 2 3 4 5
excellent!
x 6
add to favorites launch autoscroll
font size
0
reset
Autoscroll
+/-
esc
set tempo
stop
Contributor
WARNING: You are trying to view
                                    content from Ultimate-Guitar.com
                                    in an unauthorized application,
                                    which is prohibited.

                                    Please use an official Ultimate
                                    Guitar Tabs application for iPhone,
                                    iPad or Android to access legitimate
                                    chords, guitar, bass, and drum tabs
                                    from Ultimate-Guitar.com database.

                                    Type "ultimate guitar tabs" in Apple
                                    App Store's or Android Market's
                                    search to find the application.
This is a tab for the best song by the Michigan band, I AM ABOMINATION. It is 100% 
(I know because the guitarest wrote them out). The tuning is drop C. Enjoy, 
Comment, & Rate! Myspace.com/Iamabominationmusic


S  S  S  S  S  S  S  S  S  S  S  S  S  S  S  S
D||--------------------------------------------------|
A||--------------------------------------------------|
F||-----------------------------15-17-15-17-15----15-|
C||--15-17-18-17-18-17-15-17-18----------------18----|
G||--------------------------------------------------|
C||--------------------------------------------------|


   S  S  S  S  S  S  S  S  S  S  S  S  Q
--------------------------20-16--------------|
--------16-18-20-18-16----------18-----------|
--17-18----------------17----------17-16b----|
---------------------------------------------|
---------------------------------------------|
---------------------------------------------|


   |-----3-----|
   Q     Q     Q     E  E  E   E
--------------------13--------16--|
--------------13------------------|
--------13------------------------|
--15------------------------------|
----------------------------------|
----------------------------------|


                           |---3---|   |---3---|
   S  S  S  S  S  S  S  S  E   E   E   E   E   E
--15-16-15----------------------------------------|
-----------18-------------------------------------|
--------------17------------------------------15--|
-----------------18---------------15--13--17------|
--------------------20-15-13--16------------------|
--------------------------------------------------|


    |-----3-----|
    Q     Q     Q     E  E  E   E
---------------------13--------16--|
---------------13------------------|
---------13------------------------|
--/15------------------------------|
-----------------------------------|
-----------------------------------|


   S  S  S  S  S  S  S  S  S  S  S  S  E  S S
--15-16-20-16-15------------------------------|
-----------------18---------------------------|
--------------------17-15-13-17-15-13---------|
--------------------------------------17------|
----------------------------------------------|
----------------------------------------------|


   |-----3-----|
   Q     Q     Q     E  E  E   E
--------------------13--------16--|
--------------13------------------|
--------13------------------------|
--15------------------------------|
----------------------------------|
----------------------------------|


                           |---3---|   |---3---|
   S  S  S  S  S  S  S  S  E   E   E   E   E   E
--15-16-15----------------------------------------|
-----------18-------------------------------------|
--------------17------------------------------15--|
-----------------18---------------15--13--17------|
--------------------20-15-13--16------------------|
--------------------------------------------------|


    |-----3-----|
    Q     Q     Q     E  E  E   E
---------------------13--------16--|
---------------13------------------|
---------13------------------------|
--/15------------------------------|
-----------------------------------|
-----------------------------------|


   S  S  S  S  S  S  S  S  S  S  S  S  E  S S
--15-16-20-16-15------------------------------|
-----------------18---------------------------|
--------------------17-15-13-17-15-13---------|
--------------------------------------17------|
----------------------------------------------|
----------------------------------------------|


   S S  S  S  S  S  S  S S  S S  S S  E   S
----------------15-16-20---18---16---15---L-|
-------------18-----------------------------|
----------17--------------------------------|
-------18-----------------------------------|
--20----------------------------------------|
--------------------------------------------|


   S  S  S  S  S  S  S  S  S  S  S  S  S  S  E
--20-16----------------20-18-16-15--------------|
--------18----------18-------------16-----------|
-----------17-16-17-------------------15-17-15--|
------------------------------------------------|
------------------------------------------------|
------------------------------------------------|


   S S  S  S  S  S  S  S S  S S  S S  E   S
----------------15-16-20---18---16---15---L-|
-------------18-----------------------------|
----------17--------------------------------|
-------18-----------------------------------|
--20----------------------------------------|
--------------------------------------------|


    |---3---|   |---3---|   |---3---|
    E   E   E   E   E   E   E   E   E   E  E
--/21--20--18---------------------------------|
---------------21--20--18--17-----------------|
-------------------------------18--17---------|
---------------------------------------17-----|
----------------------------------------------|
----------------------------------------------|


   S S  S  S  S  S  S  S S  S S  S S  E   S
----------------15-16-20---18---16---15---L-|
-------------18-----------------------------|
----------17--------------------------------|
-------18-----------------------------------|
--20----------------------------------------|
--------------------------------------------|


   S  S  S  S  S  S  S  S  S  S  S  S  S  S  E
--20-16----------------20-18-16-15--------------|
--------18----------18-------------16-----------|
-----------17-16-17-------------------15-17-15--|
------------------------------------------------|
------------------------------------------------|
------------------------------------------------|


   S S  S  S  S  S  S  S S  S S  S S  E   S
----------------15-16-20---18---16---15---L-|
-------------18-----------------------------|
----------17--------------------------------|
-------18-----------------------------------|
--20----------------------------------------|
--------------------------------------------|


   S  S  S  S  S  S  S  S  S  S  S  S  S  S  S  S     W
--15-12----------------12-15-18-15-------------18-|--16~----------------|
--------14----------14-------------17-------20----|---------------------|
-----------15-12-15-------------------18-21-------|---------------------|
--------------------------------------------------|---------------------|
--------------------------------------------------|---------------------|
--------------------------------------------------|---------------------|


                      H        Q    E  E     E  E  E  E  H
-------------------|----------------------|-----------------------|
-------------------|----------------------|-----------------------|
-------------------|----------------0--0--|--0--0--0--0--0--------|
-------------------|--3--------L----6--6--|--6--6--6--6--9--------|
-------------------|--3--------L----------|-----------------------|
-------------------|--3--------L----------|-----------------------|


  Q    E  S S E  E  E  E     E  E  E  E  E  Q     E
--------------------------|--------------------------|
--------------------------|--------------------------|
--------------------------|--------------5-----------|
--3----L------3-----------|--------3-----5-----------|
--3----L------3-----------|--------3-----3-----------|
--3----L--3-3-3-----------|-----1--3--1-----6b----L--|


                              |----3----|    |----3----|
  Q    E  S S E  E  E  S S    Q    Q    Q    Q    Q    Q
---------------------------|--------------------------------|
---------------------------|--------------------------------|
---------------------------|--------------------------------|
--3----L------3------------|--2----2----2----2----2----2----|
--3----L------3------------|--3----3----3----3----3----3----|
--3----L--3-3-3--------1-1-|--2----2----2----2----2----2----|


  Q    E  S S E  E  E  E     E  E  E  E  E  Q     E
--------------------------|--------------------------|
--------------------------|--------------------------|
--------------------------|--------------5-----------|
--3----L------3-----------|--------3-----5-----------|
--3----L------3-----------|--------3-----3--2b----L--|
--3----L--3-3-3-----------|-----1--3--1--------------|


                              |----3----|
  Q    E  S S E  E  E  S S    Q    Q    Q      E   E   Q
---------------------------|--------------------------------|
---------------------------|--------------------------------|
---------------------------|--------------------------------|
--3----L------3------------|--2----2----2---------10--------|
--3----L------3------------|--3----3----3----/11------11----|
--3----L--3-3-3--------1-1-|--2----2----2-------------------|


  Q    S S E  E  E  E  E     E  E  E  E  E  E  E  E     Q    S S E  E  Q    E
--------------------------|--------------------------|-------------------------|
--------------------------|--------------------------|-------------------------|
-----------------0--0--0--|--3--5--5--5--3--5--5--5--|-----------------0-------|
--3--------3-----6--6--6--|--6--6--6--6--6--6--6--6--|--3--------3-----6-------|
--3--------3--------------|--------------------------|--3--------3-------------|
--3----3-3-3--------------|--------------------------|--3----3-3-3----------1--|


  E  E  E  E  E  E  E  E     Q    S S E  E  E  E  E
--------------------------|--------------------------|
--------------------------|--------------------------|
--------------------------|-----------------0--0--0--|
--2-----2-----2-----2-----|--3--------3-----6--6--6--|
--3-----3-----3-----3-----|--3--------3--------------|
--2-----2-----2-----2-----|--3----3-3-3--------------|


  E  E  E  E  E  E  E  E     Q    S S E  E  Q    E     E  E  E  E  E  E  E  E
--------------------------|-------------------------|--------------------------|
--------------------------|-------------------------|--------------------------|
--3--5--5--5--3--5--5--5--|-----------------0-------|--------------------------|
--6--6--6--6--6--6--6--6--|--3--------3-----6-------|--2-----2-----2-----2-----|
--------------------------|--3--------3-------------|--3-----3-----3-----3-----|
--------------------------|--3----3-3-3----------1--|--2-----2-----2-----2-----|


    E  E  E  E  E  E  E  E     E  E  E  E  E  E  E  E
|---------------------------|--------------------------|
|---------------------------|--------------------------|
|*--------------------------|--------------------------|
|*--8--8--8--8--8--8--8--8--|--8--8--8--8--8--8--8--8--|
|---8--8--8--8--8--8--8--8--|--8--8--8--8--8--8--8--8--|
|---8--8--8--8--8--8--8--8--|--8--8--8--8--8--8--8--8--|


  E  E  E  E  E  E  E  E     E  E  E  E  E  E  E  E
--------------------------|--------------------------|
--------------------------|--------------------------|
--------------------------|--------------------------|
--5--5--5--5--5--5--5--5--|--5--5--5--5--5--5--5--5--|
--2--2--2--2--2--2--2--2--|--2--2--2--2--2--2--2--2--|
--------------------------|--------------------------|


  E  E  E  E  E  E  E  E     E  E  E  E  E  E  E  E
--------------------------|--------------------------|
--------------------------|--------------------------|
--------------------------|--------------------------|
--3--3--3--3--3--3--3--3--|--------------------------|
--3--3--3--3--3--3--3--3--|--3--3--3--3--1--1--1--1--|
--3--3--3--3--3--3--3--3--|--6--6--6--6--5--5--5--5--|


  E  E  E  E  E  E  E  E     E  E  E  E  E  E  E  E
--------------------------|---------------------------||
--------------------------|---------------------------||
--------------------------|--------------------------*||
--2--2--2--2--2--2--2--2--|--2--2--2--2--2--2--2--2--*||
--3--3--3--3--3--3--3--3--|--3--3--3--3--3--3--3--3---||
--2--2--2--2--2--2--2--2--|--2--2--2--2--2--2--2--2---||


                                                              |-----3-----|
  E   S  S  S  S Q     S  S  S  S E     E   S  S  S  S  S  S  Q     Q     Q
-----16-15------------20-16-15-------|-----20-16-------------------------------|
-----------18------------------18----|-----------18----------------------------|
--------------17---------------------|--------------17-------------------20----|
-------------------------------------|-----------------18----------18----------|
-------------------------------------|--------------------20-15----------------|
-------------------------------------|-----------------------------------------|


   H         Q    Q       E  E  E  E  E  E  E  E     E  E  E  E  E  E  E  E
-----------------------|--------------------------|-----------------------------|
-----------------------|--------------------------|-----------------------------|
--22..------------------|--------------------------|----------------------------|
-----------------------|--3--3--3--3--3--3--3--3--|--3--3--3--3--3--3--3--3-----|
-----------------------|--3--3--3--3--3--3--3--3--|--3--3--3--3--3--3--3--3-----|
-----------------------|--3--3--3--3--3--3--3--3--|--3--3--3--3--3--3--3--3-----|


  E  E  E  E  E  E  E  E     E  E  E  E  E  E  E  E     E  Q    E  E  Q    E
--------------------------|--------------------------|------------------------|
--------------------------|--------------------------|------------------------|
--------------------------|--------------------------|------------------------|
--5--5--5--5--5--5--5--5--|--5--5--5--5--5--5--5--5--|------------------------|
--2--2--2--2--2--2--2--2--|--2--2--2--2--2--2--2--2--|--3--3----3--3--3----3--|
--------------------------|--------------------------|--6--6----6--6--6----6--|


  E  Q    E  E  Q    E     Q    E  E  E  E  Q       E  E  E  E  E  E  E  E
------------------------|------------------------|--------------------------|
------------------------|------------------------|--------------------------|
------------------------|------------------------|--------------------------|
------------------------|--2----2--2--2--2--2----|--2--2--2--2--2--2--2--2--|
--3--3----3--3--3----3--|--3----3--3--3--3--3----|--3--3--3--3--3--3--3--3--|
--6--6----6--6--6----6--|--2----2--2--2--2--2----|--2--2--2--2--2--2--2--2--|


  E  E  E  E  E  E  E  E     E  E  E  E  E  E  E  E
--------------------------|--------------------------|
--------------------------|--------------------------|
--------------------------|--------------------------|
--3--3--3--3--3--3--3--3--|--3--3--3--3--3--3--3--3--|
--3--3--3--3--3--3--3--3--|--3--3--3--3--3--3--3--3--|
--3--3--3--3--3--3--3--3--|--3--3--3--3--3--3--3--3--|


  E  E  E  E  E  E  E  E     E  E  E  E  E  E  E  E     E  Q    E  E  Q    E
--------------------------|--------------------------|------------------------|
--------------------------|--------------------------|------------------------|
--------------------------|--------------------------|------------------------|
--5--5--5--5--5--5--5--5--|--5--5--5--5--5--5--5--5--|------------------------|
--2--2--2--2--2--2--2--2--|--2--2--2--2--2--2--2--2--|--3--3----3--3--3----3--|
--------------------------|--------------------------|--6--6----6--6--6----6--|


  E  Q    E  E  Q    E     Q    E  E  E  E  Q       E  E  E  E  E  E  E  E
------------------------|------------------------|--------------------------|
------------------------|------------------------|--------------------------|
------------------------|------------------------|--------------------------|
------------------------|--2----2--2--2--2--2----|--2--2--2--2--2--2--2--2--|
--3--3----3--3--3----3--|--3----3--3--3--3--3----|--3--3--3--3--3--3--3--3--|
--6--6----6--6--6----6--|--2----2--2--2--2--2----|--2--2--2--2--2--2--2--2--|


   S  S  S  S  S  S  S  S  S  S  S  S  S  S  S  S
--16-15----------------------------15-16-20-21-20-|
--------18----------------------18----------------|
-----------17----------------17-------------------|
--------------18----------18----------------------|
-----------------20-15-20-------------------------|
--------------------------------------------------|


   S  S  S  S  S  S  S  S  S  S  S  S  S S S S    Q    E  S S E  E  E  E
--16-15-------------------------16-18-19-------|--------------------------|
--------18-------------16-18-19----------------|--------------------------|
-----------17-15-17-18-------------------------|--------------------------|
-----------------------------------------------|--3----L------3-----------|
-----------------------------------------------|--3----L------3-----------|
-----------------------------------------------|--3----L--3-3-3-----------|


  E  E  E  E  E  Q     E     Q    E  S S E  E  E  S S
--------------------------|---------------------------|
--------------------------|---------------------------|
--------------5-----------|---------------------------|
--------3-----5-----------|--3----L------3------------|
--------3-----3-----------|--3----L------3------------|
-----1--3--1-----6b----L--|--3----L--3-3-3--------1-1-|


  |----3----|    |----3----|
  Q    Q    Q    Q    Q    Q       Q    E  S S E  E  E  E
--------------------------------|--------------------------|
--------------------------------|--------------------------|
--------------------------------|--------------------------|
--2----2----2----2----2----2----|--3----L------3-----------|
--3----3----3----3----3----3----|--3----L------3-----------|
--2----2----2----2----2----2----|--3----L--3-3-3-----------|


  E  E  E  E  E  Q     E     Q    E  S S E  E  E  S S
--------------------------|---------------------------|
--------------------------|---------------------------|
--------------5-----------|---------------------------|
--------3-----5-----------|--3----L------3------------|
--------3-----3--2b----L--|--3----L------3------------|
-----1--3--1--------------|--3----L--3-3-3--------1-1-|


                                              |--3--|
  E  E  E  E  E  E  E  E       E  H        E  E  E  E
--------------------------||---------------------------|
--------------------------||---------------------------|
--------------------------||*--------------------------|
--2-----2-----2-----2-----||*-----3--------L-----------|
--3-----3-----3-----3-----||------3--------L-----------|
--2-----2-----2-----2-----||---3--3--------L--5--6--6--|


  |--3--|                                    |--3--|
  E  E  E  Q    E  Q    E     E  H        E  E  E  E
---------------------------|--------------------------|
---------------------------|--------------------------|
---------------------------|--------------------------|
-----------5----L--6----L--|-----3--------L-----------|
-----------2----L--6----L--|-----3--------L-----------|
--5--6--6----------6----L--|--3--3--------L--5--6--6--|


  |--3--|                                   |--3--|
  E  E  E  Q    Q    Q       E  H        E  E  E  E
--------------------------|--------------------------|
--------------------------|--------------------------|
--------------------------|--------------------------|
-----------5----6----2----|-----3--------L-----------|
-----------2----6----3----|-----3--------L-----------|
--5--6--6-------6----2----|--3--3--------L--5--6--6--|


  |--3--|                                    |--3--|
  E  E  E  Q    E  Q    E     E  H        E  E  E  E
---------------------------|--------------------------|
---------------------------|--------------------------|
----------------L----------|--------------------------|
-----------5----L--6----L--|-----3--------L-----------|
-----------2----L--6----L--|-----3--------L-----------|
--5--6--6----------6----L--|--3--3--------L--5--6--6--|


  |--3--|
  E  E  E  Q    Q    Q         Q    Q    Q    Q       Q    Q    Q    E  E
---------------------------||----------------------|-----------------------|
---------------------------||----------------------|-----------------------|
--------------------------*||----------------------|-----------------------|
-----------5----6----2----*||--3-------------------|--------------------1--|
-----------2----6----3-----||--3-------------------|--------------------1--|
--5--6--6-------6----2-----||--3-------------------|--------------------1--|


  Q    Q    Q    Q       E  E  E  E  E  E  E  E     E  E  E  E  E  E  E  E
----------------------|--------------------------|--------------------------|
----------------------|--------------------------|--------------------------|
----------------------|--0--0--0--0--0--0--0--0--|--------------------------|
--3-------------------|--6--6--6--6--6--6--6--6--|--3--3--3--3--3--3--3--3--|
--3-------------------|--------------------------|--3--3--3--3--3--3--3--3--|
--3-------------------|--------------------------|--3--3--3--3--3--3--3--3--|


  E  E  E  E  E  E  E  E     E  E  E  E  E  E  E  E
--------------------------|--------------------------|
--------------------------|--------------------------|
--------------------------|--------------------------|
--3--3--3--3--3--3--3--3--|--5--5--5--5--5--5--5--5--|
--3--3--3--3--3--3--3--3--|--2--2--2--2--2--2--2--2--|
--3--3--3--3--3--3--3--3--|--------------------------|


  E  E  E  E  E  E  E  E     E  Q    E  E  Q    E     E  Q    E  E  Q    E
--------------------------|------------------------|------------------------|
--------------------------|------------------------|------------------------|
--------------------------|------------------------|------------------------|
--5--5--5--5--5--5--5--5--|------------------------|------------------------|
--2--2--2--2--2--2--2--2--|--3--3----3--3--3----3--|--3--3----3--3--3----3--|
--------------------------|--6--6----6--6--6----6--|--6--6----6--6--6----6--|


  Q    E  E  E  E  Q       E  E  E  E  E  E  E  E     E  E  E  E  E  E  E  E
------------------------|--------------------------|--------------------------|
------------------------|--------------------------|--------------------------|
------------------------|--------------------------|--------------------------|
--2----2--2--2--2--2----|--2--2--2--2--2--2--2--2--|--3--3--3--3--3--3--3--3--|
--3----3--3--3--3--3----|--3--3--3--3--3--3--3--3--|--3--3--3--3--3--3--3--3--|
--2----2--2--2--2--2----|--2--2--2--2--2--2--2--2--|--3--3--3--3--3--3--3--3--|


  E  E  E  E  E  E  E  E     E  E  E  E  E  E  E  E
--------------------------|--------------------------|
--------------------------|--------------------------|
--------------------------|--------------------------|
--3--3--3--3--3--3--3--3--|--5--5--5--5--5--5--5--5--|
--3--3--3--3--3--3--3--3--|--2--2--2--2--2--2--2--2--|
--3--3--3--3--3--3--3--3--|--------------------------|


  E  E  E  E  E  E  E  E     E  Q    E  E  Q    E     E  Q    E  E  Q    E
--------------------------|------------------------|------------------------|
--------------------------|------------------------|------------------------|
--------------------------|------------------------|------------------------|
--5--5--5--5--5--5--5--5--|------------------------|------------------------|
--2--2--2--2--2--2--2--2--|--3--3----3--3--3----3--|--3--3----3--3--3----3--|
--------------------------|--6--6----6--6--6----6--|--6--6----6--6--6----6--|


  Q    E  E  E  E  Q       E  E  E  E  E  E  E  E     W
------------------------|--------------------------|-------------------|
------------------------|--------------------------|-------------------|
------------------------|--------------------------|-------------------|
--2----2--2--2--2--2----|--2--2--2--2--2--2--2--2--|--3----------------|
--3----3--3--3--3--3----|--3--3--3--3--3--3--3--3--|--3----------------|
--2----2--2--2--2--2----|--2--2--2--2--2--2--2--2--|--3----------------|


  W                   W                   W
-------------------|-------------------|-------------------|
-------------------|-------------------|-------------------|
-------------------|-------------------|-------------------|
--L----------------|--3----------------|--L----------------|
--L----------------|--3----------------|--L----------------|
--L----------------|--3----------------|--L----------------|


   S  S  S  S  S  S  S  S  S  S  S  S  S  S  S  S
--------------------------------------------------|
--------------------------------------------------|
--16-17-16-13----13-16-13-16-17-16-13----13-16-13-|
--------------15----------------------15----------|
--------------------------------------------------|
--------------------------------------------------|


   S  S  S  S  S  S  S  S  S  S  S  S  S  S  S  S
-----------------------------------15-16-15----15-|
--------------------------16-17-18----------18----|
--16-17-16-13----13-16-17-------------------------|
--------------15----------------------------------|
--------------------------------------------------|
--------------------------------------------------|


   S  S  S  S  S  S  S  S  S  S  S  S  S  S  S  S
--19-20-19-16----16-19-16-19-20-19-16----16-19-16-|
--------------18----------------------18----------|
--------------------------------------------------|
--------------------------------------------------|
--------------------------------------------------|
--------------------------------------------------|


   S  S  S  S  S  S  S  S  S  S  S  S  S  S  S  S
--20-16----------16-20-16-19-15----------15-16-15-|
--------18----18----------------17----17----------|
-----------17----------------------16-------------|
--------------------------------------------------|
--------------------------------------------------|
--------------------------------------------------|


   Q     E    Q     E  E    E      E   E  E   Q      E   E   E
-------------------------------|-----------------------------------|
--18-----L--/16----18----------|-----------------------------------|
--------------------------..15--|---L--13-----15b-----L--15--13----|
-------------------------------|-----------------------------------|
-------------------------------|-----------------------------------|
-------------------------------|-----------------------------------|


   Q     S  S  S  S  Q    S  S  S  S     Q    S  S  S  S  H
-------------------------------------|--13------13-15-16-15b--------||
--------------------13------13-14-16-|------------------------------||
--12-----L-12-13-15------------------|------------------------------||
-------------------------------------|------------------------------||
-------------------------------------|------------------------------||
-------------------------------------|------------------------------||


Duration Legend
---------------
W - whole
H - half
Q - quarter
E - 8th
S - 16th
T - 32nd
X - 64th
. - note dotted
|-n-|  - n-tuplets


Tablature Legend
----------------
L - tied note
x - dead note
g - grace note
(n) - ghost note
> - accentuded note
NH - natural harmonic
AH - artificial harmonic
TH - tapped harmonic
SH - semi harmonic
PH - pitch harmonic
h - hammer on
p - pull off
b - bend
br - bendRelease
pb - preBend
pbr - preBendRelease
brb - bendReleaseBend
..n/ - tremolo bar dip
..n - tremolo bar dive
-/n - tremolo bar Release up
/n.. - tremolo bar inverted dip
/n - tremolo bar return
-..n - tremolo bar Release down
S - shift slide
s - legato slide
/ -  slide into from below or out of upwards
.. -  slide into from above or out of downwards
~ - vibrato
W - wide vibrato
tr - trill
TP - tremolo picking
T - tapping
S - slap
P - pop
< - fade in
^ - brush up
v - brush down
comments
print report bad tab
2 comments total.
+1 reply
iH8CarAccidents wrote on March 24 2009, 09:58 am

Wow. I can't believe someone actually tabbed this. Awesome band. They deserve to get some attention.

0 reply
BillieJoeFreak: wrote on July 20 2009, 10:28 pm

If I remember correctly, the actual guitarist for the band wrote this tab out because they needed to find another guitarist to tour with. Great song by a great band. Keep up the great work IAA.

I want to post or [tab]
guest
You may want to rate the tab now too:
select rating
Please do not post tabs as comments. Select "correction" instead!