Oops, an error
Loading. Please wait.

Only A Prime Can Beat The Fallen Bass Tab

184 views 1 this week
2 commentsread comments
1 2 3 4 5
please rate
add to favorites launch autoscroll
font size
0
reset
Autoscroll
+/-
esc
set tempo
stop
Contributor
Difficulty
Tuning
intermediate
C G C F A D
WARNING: You are trying to view
                                    content from Ultimate-Guitar.com
                                    in an unauthorized application,
                                    which is prohibited.

                                    Please use an official Ultimate
                                    Guitar Tabs application for iPhone,
                                    iPad or Android to access legitimate
                                    chords, guitar, bass, and drum tabs
                                    from Ultimate-Guitar.com database.

                                    Type "ultimate guitar tabs" in Apple
                                    App Store's or Android Market's
                                    search to find the application.
Key: * = A note with a * after it mean that note is "not" rung out. It is also 
consider a "silent" spot. 

All notes in this tab "without" a * after it ARE rung out.

 / = Bass slide down.
 \= Bass slide up.

F  :----------------|----------------|----------------|----------------|
C  :----------------|----------------|----------------|----------------|
G  :----------------|----------------|7-7-7---8-8-8-7-|--------------7-|
C  :----------------|0-0-0-0-0-0-0-7-|------8---------|5-5-5-5-5-5-5---|

F  :----------------|----------------|----------------|----------------|
C  :----------------|----------------|5-5-5-5---------|----------------|
G  :8-8-8-5-4-4-4-4-|5-4-7-7-7-7-5-4-|--------5-4-----|1-0---------1-0-|
C  :----------------|----------------|------------5-5-|----2-2-2-2-----|

F  :----------------|----------------|----------------|----------------|
C  :----------------|----------------|----------------|----------------|
G  :----------------|----------------|7-7-7---8-8-8-7-|--------------7-|
C  :3-3-3-3-2-3-2-2-|0-0-0-0-0-0-0-7-|------8---------|5-5-5-5-5-5-5---|

F  :----------------|----------------|----------------|----------------|
C  :----------------|----------------|5-5-5-5---------|----------------|
G  :8-8-8-5-4-4-4-4-|5-4-7-7-7-7-5-4-|--------5-4-----|1-0---------1-0-|
C  :----------------|----------------|------------5-5-|----2-2-2-2-----|

F  :-----------------|-----------------|----------------|
C  :-----------------|-----------------|----------------|
G  :-----------------|-----------------|----------------|
C  :3-3-3-3-2-3-2-2/-|12---------------|0-------0*------|

F  :--------------------|------------------|------------------|
C  :--------------------|------------------|------------------|
G  :--------------------|----------5-----5-|*---------5-----5-|
C  :0*0-0-0*0*--0-0-0*0*|--0-0-0*0*--0*0*--|--0-0-0*0*--0*0*--|

F  :------------------|------------------|7-7-7*6-6-6*------------|
C  :----------5-----5-|*---------7-----7-|------------8-8-8*7-7-7*|
G  :*-----------------|------------------|------------------------|
C  :--5-5-5*5*--5*5*--|--7-7-7*7*--7*7*--|------------------------|

F  :----------------------|--------------------|------------------|
C  :5-5-5*7-7-7*5-5-5*----|--------------------|------------------|
G  :------------------7---|--------------------|----------5-----5-|
C  :----------------------|0*0-0-0*0*--0-0-0*0*|--0-0-0*0*--0*0*--|

F  :------------------|------------------|------------------|
C  :------------------|----------5-----5-|*---------7-----7-|
G  :*---------5-----5-|*-----------------|------------------|
C  :--0-0-0*0*--0*0*--|--5-5-5*5*--5*5*--|--7-7-7*7*--7*7*--|

F  :7-7-7*6-6-6*------------|----------------------|--------------------|
C  :------------8-8-8*7-7-7*|5-5-5*7-7-7*5-5-5*----|--2-5-2-------------|
G  :------------------------|------------------7---|--------5*--4-5-4-0*|
C  :------------------------|----------------------|0*------------------|

F  :------------------|--------------------|------------------|
C  :------------------|--7-7-7-------------|------------------|
G  :--4-5-4-0-4-------|--------8-7-10-10-8-|*-5-5-5-----7-7-4-|
C  :------------5-3-2-|*-------------------|--------8-7-------|

F  :------------------------|----------------|--------------------|
C  :------------------------|----------------|--2-5-2-------------|
G  :5-5-5*4-4-4*------------|----------------|--------5*--4-5-4-0*|
C  :------------8-8-8*7-7-7*|0--*----0-*-0-*-|0*------------------|

F  :------------------|--------------------|------------------|
C  :------------------|--7-7-7-------------|------------------|
G  :--4-5-4-0-4-------|--------8-7-10-10-8-|*-5-5-5-----7-7-4-|
C  :------------5-3-2-|*-------------------|--------8-7-------|

F  :------------------------|-----------------------|---------------------|
C  :------------------------|-----------------------|---------------------|
G  :5-5-5*4-4-4*------------|-----------------------|-----------------7---|
C  :------------8-8-8*7-7-7*|--0*0-0-0-0-0*7*7-7-7-7|7*8*8-8-8-8-11-------|

F  :----------------------|-------------------|-------------------|
C  :----------------------|-------------------|-------------------|
G  :----------------------|--4----------------|-------------------|
C  :0-0-0-0-0*--0*--0-0-0*|----3-2-*---0-0-0-0|0*--0*--0-0-0*--0-0|

F  :------------------|---------------------|----------------------|
C  :------------------|---------------------|----------------------|
G  :--------4---5-*-7-|4--------------------|----------------------|
C  :0-0-0*----2-------|--5-*-0-0-0-0-0*--0-0|0-0-0-0-0---0---0-0-0-|

F  :-------------------|-------------------|------------------|
C  :-------------------|-------------------|------------------|
G  :--4----------------|-------------------|--------4---5-*-7-|
C  :----3-2-*---0-0-0-0|0*--0*--0-0-0*--0-0|0-0-0*----2-------|

F  :---------------------|----------------|----------------------|
C  :---------------------|----------------|----------------------|
G  :4--------------------|----------------|----------------------|
C  :--5-*-0-0-0-0-0*--0-0|2-------5-------|0-0-0-0-0*--0*--0-0-0*|

F  :----------------|--------------------|--------------------|
C  :----------------|--------------------|--------------------|
G  :----------------|--------------------|--------------------|
C  :----------0*0*0*|----0*--0-0-0-0-0*--|----0*--0-0-0-0-0*--|

F  :----------------|----------------------|------------------|
C  :----------------|----------------------|------------------|
G  :----------------|----------------------|------------------|
C  :--0*0*0*----0*--|0-0-0-0-0*--0*--0-0-0*|--------0*0-0*0-0*|

F  :--------------------|--------------------|-----------------------|
C  :--------------------|--------------------|-----------------------|
G  :--------------------|--------------------|-----------------------|
C  :--0-0-0*0*0-0-0*0*--|----0*--0-0-0-0-0*--|--0-0-0-0-0*--0-0-0-0*-|

F  :----------------|----------------|----------------------|
C  :----------------|----------------|----------------------|
G  :----------------|4-4-4-4-7-7-7-7-|----------------------|
C  :8-8-8-8-8-8-8-8-|----------------|0*0-0*0-0*0-0-0-0-0*--|

F  :----------------|----------------|------------------|----------------|
C  :----------------|----------------|------------------|----------------|
G  :----------------|----------------|------------------|--1---1-1---1---|
C  :----------------|0-*-0-0-*-0-*-0-|0-*-0-*-0-0-0-0-0-|*---*-----*---*-|

F  :----------------|----------------|------------------|----------------|
C  :----------------|----------------|------------------|----------------|
G  :0-0-*-1---1-----|----------------|------------------|----------------|
C  :--------*---2-*-|0-*-0-0-*-0-*-0-|0-*-0-*-0-0-0-0-0-|8-8-8-8-8-8-8-8-|

F  :----------------|------------------|----------------------|
C  :----------------|------------------|----------------------|
G  :4-4-4-4-7-7-7-7-|------------------|----------------------|
C  :----------------|0*0-0-0*0*--0*--0*|0-0-0*--0*0-0-0*0-0-0*|

F  :--------------------|------------------|------------------|
C  :--------------------|------------------|------------------|
G  :--------------------|------------------|------------------|
C  :0-0-0*--0*--0-0-0*--|--0*--0*0-0-0*----|0*0-0-0*0*--0*--0*|

F  :----------------------|----------------|----------------|
C  :----------------------|----------------|----------------|
G  :----------------------|----------------|4-4-4-4-7-7-7-7-|
C  :0-0-0*--0*0-0-0*0-0-0*|8-8-8-8-8-8-8-8-|----------------|

F  :------------------|----------------------|--------------------|
C  :------------------|----------------------|--------------------|
G  :------------------|----------------------|--------------------|
C  :0*0-0-0*0*--0*--0*|0-0-0*--0*0-0-0*0-0-0*|0-0-0*--0*--0-0-0*--|

F  :------------------|------------------|----------------------|
C  :------------------|------------------|----------------------|
G  :------------------|------------------|----------------------|
C  :--0*--0*0-0-0*----|0*0-0-0*0*--0*--0*|0-0-0*--0*0-0-0*0-0-0*|

F  :--------------------|--------------------|------------------|
C  :--------------------|--------------------|------------------|
G  :--------------------|--------------------|------------------|
C  :0-0-0*--0*--0-0-0*--|--0*--0*0-0-12/-----|1*1-1-1*1*--1*--1*|

F  :----------------------|--------------------|-------------------|
C  :----------------------|--------------------|-------------------|
G  :----------------------|--------------------|-------------------|
C  :1-1-1*--1*1-1-1*1-1-1*|1-1-1*--1*--1-1-1*--|--1*--1*1-1-1\-----|

F  :------------------|----------------------|--------------------|
C  :------------------|----------------------|--------------------|
G  :------------------|----------------------|--------------------|
C  :0*0-0-0*0*--0*--0*|0-0-0*--0*0-0-0*0-0-0*|0-0-0*--0*--0-0-0*--|

F  :------------------|7---------------|----------------|----------------|
C  :------------------|0---------------|----------------|----------------|
G  :------------------|5---------------|----------------|----------------|
C  :--0*--0*0-0-0*----|0---------------|----------------|----------------|

F  :-----------------|7---------------|----------------|----------------|
C  :-----------------|0---------------|----------------|----------------|
G  :-----------------|5---------------|----------------|----------------|
C  :--------10-------|0---------------|----------------|----------------|

F  :----------------|----------------|----------------|
C  :----------------|----------------|----------------|
G  :----------------|8-8-8-8-8-8-8-8-|8-8-8-8-8-8-8-8-|
C  :--------*-------|----------------|----------------|

F  :------------------------|----------------------|----------------|
C  :10-10-10-10-10-10-10-10-|10-10-10-10-10-10-7-7-|7---------------|
G  :------------------------|----------------------|--8-8-8-8-8-8-8-|
C  :------------------------|----------------------|----------------|

F  :----------------|----------------|----------------|----------------|
C  :----------------|----------------|----------------|----------------|
G  :8-8-8-8-7-7-7-7-|5-5-5-5-5-5-5-5-|5-5-5-5-5-5-5-5-|8-8-8-8-8-8-8-8-|
C  :----------------|----------------|----------------|----------------|

F  :----------------|------------------------|----------------------|
C  :----------------|10-10-10-10-10-10-10-10-|10-10-10-10-10-10-7-7-|
G  :8-8-8-8-8-8-8-8-|------------------------|----------------------|
C  :----------------|------------------------|----------------------|

F  :----------------|----------------|----------------|----------------|
C  :7---------------|----------------|----------------|----------------|
G  :--8-8-8-8-8-8-8-|8-8-8-8-7-7-7-7-|5-5-5-5-5-5-5-5-|5-7-7-7-7-7-7-7-|
C  :----------------|----------------|----------------|----------------|

F  :--------------------|-----------------|------------------|
C  :--------------------|-----------------|------------------|
G  :--------------------|-----------------|------------------|
C  :0*0*0*0*--0-0-0-0-0*|----0*0*0*0*--0-0|0-0-0*----0*0*0*0*|

F  :---------------------|------------------|--------------------|
C  :---------------------|------------------|--------------------|
G  :---------------------|------------------|--------------------|
C  :--0-0-0-0-0*--0*--0-0|0-0-0*----0*0*0*0*|--0-0-0-0-0*----0*0*|

F  :--------------------|-----------------|------------------|
C  :--------------------|-----------------|------------------|
G  :--------------------|-----------------|------------------|
C  :0*0*--0-0-0-0-0*----|0*0*0*0*--0*--0-0|0-0-0*----0*0*0*0*|

F  :--------------------|--------------------|----------------|
C  :--------------------|--------------------|----------------|
G  :--------------------|--------------------|----------5*----|
C  :--0-0-0-0-0*----0*0*|0*0*--0-0-0-0-0*----|0*0*0*0*--------|

F  :--------------------|-----------------|------------------|
C  :--------------------|-----------------|------------------|
G  :--------------------|-----------------|------------------|
C  :0*0*0*0*--0-0-0-0-0*|----0*0*0*0*--0-0|0-0-0*----0*0*0*0*|

F  :---------------------|--------------------|-----------------|
C  :---------------------|--------------------|-----------------|
G  :---------------------|--------------------|-----------------|
C  :--0-0-0-0-0*--0*--0-0|0*0*0*0*--0-0-0-0-0*|----0*0*0*0*--0-0|

F  :------------------|---------------------|------------------|
C  :------------------|---------------------|------------------|
G  :------------------|---------------------|------------------|
C  :0-0-0*----0*0*0*0*|--0-0-0-0-0*--0*--0-0|0-0-0*----0*0*0*0*|

F  :--------------------|--------------------|-----------------|
C  :--------------------|--------------------|-----------------|
G  :--------------------|--------------------|-----------------|
C  :--0-0-0-0-0*----0*0*|0*0*--0-0-0-0-0*----|0*0*0*0*--0*--0-0|

F  :------------------|--------------------|--------------------|
C  :------------------|--------------------|--------------------|
G  :------------------|--------------------|--------------------|
C  :0-0-0*----0*0*0*0*|--0-0-0-0-0*----0*0*|0*0*--0-0-0-0-0*----|

F  :----------------|--------------------|-----------------|
C  :----------------|--------------------|-----------------|
G  :----------5*----|--------------------|-----------------|
C  :0*0*0*0*--------|0*0*0*0*--0-0-0-0-0*|----0*0*0*0*--0-0|

F  :------------------|---------------------|----------------|
C  :------------------|---------------------|----------------|
G  :------------------|---------------------|----------------|
C  :0-0-0*----0*0*0*0*|--0-0-0-0-0*--0*--0-0|1---------------|

F  :----------------|----------------|----------------------|
C  :----------------|----------------|----------------------|
G  :----------------|----------------|----------------------|
C  :----------------|1---1---1---1---|----1-1-1-1----1-1-1-1|

F  :----------------|----------------|----------------------|
C  :----------------|----------------|----------------------|
G  :----------------|----------------|----------------------|
C  :----------------|1---1---1---1---|----1-1-1-1----1-1-1-1|

F  :----------------|----------------|----------------|----------------|
C  :----------------|----------------|----------------|----------------|
G  :----------------|----------------|----------------|----------------|
C  :----------------|1---1---1---1---|--------0*--0*--|0*--------------|
comments
We did not receive enough feedback on this tab! Please rate:
print report bad tab
1 2 3 4 5
2 comments total.
+1 reply
Greed18 wrote on April 11 2011, 02:05 pm

You Guys are Epic!!! i seen your show at the championship on march 28th
is there any tabs for the guitar? >.

0 reply
Ybbor wrote on April 12 2011, 11:21 am

There will be bro. But for now, I (Bassist) have just been posting stuff. The guitarist haven't gotten to it yet! =] In a couple of days we are posting play along video's on our youtube page. Make sure you check them out!

I want to post or [tab]
guest
You may want to rate the tab now too:
select rating
Please do not post tabs as comments. Select "correction" instead!