Oops, an error
Loading. Please wait.

A New Disaster Tab

ver2
ver2

Whole song

More versions @911Tabs.com
3,071 views 6 this week
2 commentsread comments
1 2 3 4 5
excellent!
x 3
add to favorites launch autoscroll
font size
0
reset
Autoscroll
+/-
esc
set tempo
stop
Difficulty
novice
WARNING: You are trying to view
                                    content from Ultimate-Guitar.com
                                    in an unauthorized application,
                                    which is prohibited.

                                    Please use an official Ultimate
                                    Guitar Tabs application for iPhone,
                                    iPad or Android to access legitimate
                                    chords, guitar, bass, and drum tabs
                                    from Ultimate-Guitar.com database.

                                    Type "ultimate guitar tabs" in Apple
                                    App Store's or Android Market's
                                    search to find the application.
-------------------------------------------------------------------------------
                        A NEW DISASTER - I Am The Avalanche
-------------------------------------------------------------------------------

Great song by I Am The Avalanche, the tabs I saw were wrong so I thought I'd
have a go... :) I've tested this tab several times and it seems perfect to me!

Lyrics are at the bottom of the page... enjoi :D


Tabbed by: angelsairwaves


Tuning: Standard Tuning (E, A, D, G, B, e)


| /  slide up
| ~  vibrato
| x  Mute note


 * INTRO / RIFF A *



   Gtr 1
e|---------------------------------------------------------------------------|
B|---------------------------------------------------------------------------|
G|---------------------------------------------------------------------------|
D|---8-8-8-8-4-4-4-4-6-6-6-6-7-7-7-7--8-8-8-8-4-4-4-4-6-6-6-6-7-7-7-7--------|
A|---x-x-x-x-x-x-x-x-x-x-x-x-x-x-x-x--x-x-x-x-x-x-x-x-x-x-x-x-x-x-x-x--------|
E|---6-6-6-6-2-2-2-2-4-4-4-4-5-5-5-5--6-6-6-6-2-2-2-2-4-4-4-4-5-5-5-5--------|
 |
 | Gtr 2
e|---------------------------------------------------------------------------|
B|---------------------------------------------------------------------------|
G|---------------------------------------------------------------------------|
B|---------------------------------------------------------------------------|
A|---------------------------------------------------------------------------|
E|---------------------------------------------------------------------------|
 

   Gtr 1
e|---------------------------------------------------------------------------|
B|---------------------------------------------------------------------------|
G|---------------------------------------------------------------------------|
D|---8-8-8-8-4-4-4-4-6-6-6-6-7-7-7-7--8-8-8-8-4-4-4-4-6-6-6-6-7-7-7-7--------|
A|---x-x-x-x-x-x-x-x-x-x-x-x-x-x-x-x--x-x-x-x-x-x-x-x-x-x-x-x-x-x-x-x--------|
E|---6-6-6-6-2-2-2-2-4-4-4-4-5-5-5-5--6-6-6-6-2-2-2-2-4-4-4-4-5-5-5-5--------|
 |
 | Gtr 2
e|---------------------------------------------------------------------------|
B|---------------------------------------------------------------------------|
G|---------------------------------------------------------------------------|
D|---8-8-8-8-4-4-4-4-6-6-6-6-7-7-7-7--8-8-8-8-4-4-4-4-6-6-6-6-7-7-7-7--------|
A|---8-8-8-8-4-4-4-4-6-6-6-6-7-7-7-7--8-8-8-8-4-4-4-4-6-6-6-6-7-7-7-7--------|
E|---6-6-6-6-2-2-2-2-4-4-4-4-5-5-5-5--6-6-6-6-2-2-2-2-4-4-4-4-5-5-5-5--------|



 * VERSE *



   Gtr 1 (can be played in 5ths or octaves)
e|---------------------------------------------------------------------------|
B|---------------------------------------------------------------------------|
G|---------------------------------------------------------------------------|
D|---------------------------------------------------------------------------|
A|---8-8-x-8-x-8-8-x-8-8-8-4-4-x-4-x-4-4-x-4-4-4-----------------------------|
E|---6-6-x-6-x-6-6-x-6-6-6-2-2-x-2-x-2-2-x-2-2-2-----------------------------|
 |
 | Gtr 2
e|---------------------------------------------------------------------------|
B|---------------------------------------------------------------------------|
G|---------------------------------------------------------------------------|
D|---------------------------------------------------------------------------|
A|---------------------------------------------------------------------------|
E|---------------------------------------------------------------------------|


   Gtr 1
e|---------------------------------------------------------------------------|
B|---------------------------------------------------------------------------|
G|---------------------------------------------------------------------------|
D|---------------------------------------------------------------------------|
A|---8-8-x-8-x-8-8-x-8-8-8-6-6-x-6-x-6-6-x-6-6-6-----------------------------|
E|---6-6-x-6-x-6-6-x-6-6-6-4-4-x-4-x-4-4-x-4-4-4-----------------------------|
 |
 | Gtr 2 
e|---------------------------------------------------------------------------|
B|---------------------------------------------------------------------------|
G|---------------------------------------------------------------------------|
D|---------------------------------------------------------------------------|
A|---------------------------------------------------------------------------|
E|---------------------------------------------------------------------------|


   Gtr 1
e|---------------------------------------------------------------------------|
B|---------------------------------------------------------------------------|
G|---------------------------------------------------------------------------|
D|---------------------------------------------------------------------------|
A|---8-8-x-8-x-8-8-x-8-8-8-4-4-x-4-x-4-4-x-4-4-4-----------------------------|
E|---6-6-x-6-x-6-6-x-6-6-6-2-2-x-2-x-2-2-x-2-2-2-----------------------------|
 |
 | Gtr 2
e|---------------------------------------------------------------------------|
B|---------------------------------------------------------------------------|
G|---------------------------------------------------------------------------|
D|---8-8-x-8-x-8-8-x-8-8-8-4-4-x-4-x-4-4-x-4-4-4-----------------------------|
A|---8-8-x-8-x-8-8-x-8-8-8-4-4-x-4-x-4-4-x-4-4-4-----------------------------|
E|---6-6-x-6-x-6-6-x-6-6-6-2-2-x-2-x-2-2-x-2-2-2-----------------------------|


   Gtr 1
e|---------------------------------------------------------------------------|
B|---------------------------------------------------------------------------|
G|---------------------------------------------------------------------------|
D|---------------------------------------------------------------------------|
A|---8-8-x-8-x-8-8-x-8-8-8-6-6-x-6-x-6-6-6-6-6-6-----------------------------|
E|---6-6-x-6-x-6-6-x-6-6-6-4-4-x-4-x-4-4-4-4-4-4-----------------------------|
 |
 | Gtr 2 
e|---------------------------------------------------------------------------|
B|---------------------------------------------------------------------------|
G|---------------------------------------------------------------------------|
D|---8-8-x-8-x-8-8-x-8-8-8-6-6-x-6-x-6-6-6-6-6-6-----------------------------|
A|---8-8-x-8-x-8-8-x-8-8-8-6-6-x-6-x-6-6-6-6-6-6-----------------------------|
E|---6-6-x-6-x-6-6-x-6-6-6-4-4-x-4-x-4-4-4-4-4-4-----------------------------|



 * PRE CHORUS *



   Gtr 1 + 2
e|---------------------------------------------------------------------------|
B|---------------------------------------------------------------------------|
G|---------------------------------------------------------------------------|
D|---4-4-4-4-4-4-4-4-4-4-4-4-4-4-4-4--3-3-3-3-3-3-3-3-3-3-3-3-3-3-3-3--------|
A|---4-4-4-4-4-4-4-4-4-4-4-4-4-4-4-4--3-3-3-3-3-3-3-3-3-3-3-3-3-3-3-3--------|
E|---2-2-2-2-2-2-2-2-2-2-2-2-2-2-2-2--1-1-1-1-1-1-1-1-1-1-1-1-1-1-1-1--------|



 * CHORUS *



   Gtr 1 + 2
e|---------------------------------------------------------------------------|
B|---------------------------------------------------------------------------|
G|---3-3-3-3-3-3-3-3-3-3-3-3-3-3-3-3--6-6-6-6-6-6-6-6-6-6-6-6-6-6-6-6--------|
D|---3-3-3-3-3-3-3-3-3-3-3-3-3-3-3-3--6-6-6-6-6-6-6-6-6-6-6-6-6-6-6-6--------|
A|---1-1-1-1-1-1-1-1-1-1-1-1-1-1-1-1--4-4-4-4-4-4-4-4-4-4-4-4-4-4-4-4--------|
E|---------------------------------------------------------------------------|


   Gtr 1 + 2
e|---------------------------------------------------------------------------|
B|---------------------------------------------------------------------------|
G|---------------------------------------------------------------------------|
D|---6-6-6-6-6-6-6-6-6-6-6-6-6-6-6-6--4-4-4-4-4-4-4-4-4-4-4-4-4-4-4-4--------|
A|---6-6-6-6-6-6-6-6-6-6-6-6-6-6-6-6--4-4-4-4-4-4-4-4-4-4-4-4-4-4-4-4--------|
E|---4-4-4-4-4-4-4-4-4-4-4-4-4-4-4-4--2-2-2-2-2-2-2-2-2-2-2-2-2-2-2-2--------|


   Gtr 1 + 2
e|---------------------------------------------------------------------------|
B|---------------------------------------------------------------------------|
G|---3-3-3-3-3-3-3-3-3-3-3-3-3-3-3-3--6-6-6-6-6-6-6-6-6-6-6-6-6-6-6-6--------|
D|---3-3-3-3-3-3-3-3-3-3-3-3-3-3-3-3--6-6-6-6-6-6-6-6-6-6-6-6-6-6-6-6--------|
A|---1-1-1-1-1-1-1-1-1-1-1-1-1-1-1-1--4-4-4-4-4-4-4-4-4-4-4-4-4-4-4-4--------|
E|---------------------------------------------------------------------------|


   Gtr 1 + 2
e|---------------------------------------------------------------------------|
B|---------------------------------------------------------------------------|
G|---------------------------------------------------------------------------|
D|---3-3-3-3-3-3-3-3-3-3-3-3-3-3-3-3--3-3-3-3-3-3-3-3-3-3-3-3-3-3-3-3--------|
A|---3-3-3-3-3-3-3-3-3-3-3-3-3-3-3-3--3-3-3-3-3-3-3-3-3-3-3-3-3-3-3-3--------|
E|---1-1-1-1-1-1-1-1-1-1-1-1-1-1-1-1--1-1-1-1-1-1-1-1-1-1-1-1-1-1-1-1--------|



 * RIFF A *


  
   Gtr 1
e|---------------------------------------------------------------------------|
B|---------------------------------------------------------------------------|
G|---------------------------------------------------------------------------|
D|---8-8-8-8-4-4-4-4-6-6-6-6-7-7-7-7--8-8-8-8-4-4-4-4-6-6-6-6-7-7-7-7--------|
A|---x-x-x-x-x-x-x-x-x-x-x-x-x-x-x-x--x-x-x-x-x-x-x-x-x-x-x-x-x-x-x-x--------|
E|---6-6-6-6-2-2-2-2-4-4-4-4-5-5-5-5--6-6-6-6-2-2-2-2-4-4-4-4-5-5-5-5--------|
 |
 | Gtr 2
e|---------------------------------------------------------------------------|
B|---------------------------------------------------------------------------|
G|---------------------------------------------------------------------------|
D|---8-8-8-8-4-4-4-4-6-6-6-6-7-7-7-7--8-8-8-8-4-4-4-4-6-6-6-6-7-7-7-7--------|
A|---8-8-8-8-4-4-4-4-6-6-6-6-7-7-7-7--8-8-8-8-4-4-4-4-6-6-6-6-7-7-7-7--------|
E|---6-6-6-6-2-2-2-2-4-4-4-4-5-5-5-5--6-6-6-6-2-2-2-2-4-4-4-4-5-5-5-5--------|



 * VERSE 2 *



   Gtr 1
e|---------------------------------------------------------------------------|
B|---------------------------------------------------------------------------|
G|---------------------------------------------------------------------------|
D|---------------------------------------------------------------------------|
A|---8-8-x-8-x-8-8-x-8-8-8-4-4-x-4-x-4-4-x-4-4-4-----------------------------|
E|---6-6-x-6-x-6-6-x-6-6-6-2-2-x-2-x-2-2-x-2-2-2-----------------------------|
 |
 | Gtr 2
e|---------------------------------------------------------------------------|
B|---------------------------------------------------------------------------|
G|---------------------------------------------------------------------------|
D|---------------------------------------------------------------------------|
A|---------------------------------------------------------------------------|
E|---------------------------------------------------------------------------|


   Gtr 1
e|---------------------------------------------------------------------------|
B|---------------------------------------------------------------------------|
G|---------------------------------------------------------------------------|
D|---------------------------------------------------------------------------|
A|---8-8-x-8-x-8-8-x-8-8-8-6-6-x-6-x-6-6-x-6-6-6-----------------------------|
E|---6-6-x-6-x-6-6-x-6-6-6-4-4-x-4-x-4-4-x-4-4-4-----------------------------|
 |
 | Gtr 2 (let ring throughout)
e|---------------------------------------------------------------------------|
B|---2-----------------------------------------------------------------------|
G|------3--------------------------------------------------------------------|
D|---------------------------------------------------------------------------|
A|---------------------------------------------------------------------------|
E|---------------------------------------------------------------------------|


   Gtr 1
e|---------------------------------------------------------------------------|
B|---------------------------------------------------------------------------|
G|---------------------------------------------------------------------------|
D|---------------------------------------------------------------------------|
A|---8-8-x-8-x-8-8-x-8-8-8-4-4-x-4-x-4-4-x-4-4-4-----------------------------|
E|---6-6-x-6-x-6-6-x-6-6-6-2-2-x-2-x-2-2-x-2-2-2-----------------------------|
 |
 | Gtr 2
e|---------------------------------------------------------------------------|
B|---------------------------------------------------------------------------|
G|---------------------------------------------------------------------------|
D|---------------------------------------------------------------------------|
A|---------------------------------------------------------------------------|
E|---------------------------------------------------------------------------|


   Gtr 1
e|---------------------------------------------------------------------------|
B|---------------------------------------------------------------------------|
G|---------------------------------------------------------------------------|
D|---------------------------------------------------------------------------|
A|---8-8-x-8-x-8-8-x-8-8-8-6-6-x-6-x-6-6-x-6-6-6-----------------------------|
E|---6-6-x-6-x-6-6-x-6-6-6-4-4-x-4-x-4-4-x-4-4-4-----------------------------|
 |
 | Gtr 2 (let ring throughout)
e|---------------------------------------------------------------------------|
B|---2-----------------------------------------------------------------------|
G|------3--------------------------------------------------------------------|
D|---------------------------------------------------------------------------|
A|---------------------------------------------------------------------------|
E|---------------------------------------------------------------------------|


   Gtr 1
e|---------------------------------------------------------------------------|
B|---------------------------------------------------------------------------|
G|---------------------------------------------------------------------------|
D|---------------------------------------------------------------------------|
A|---8-8-x-8-x-8-8-x-8-8-8-4-4-x-4-x-4-4-x-4-4-4-----------------------------|
E|---6-6-x-6-x-6-6-x-6-6-6-2-2-x-2-x-2-2-x-2-2-2-----------------------------|
 |
 | Gtr 2
e|---------------------------------------------------------------------------|
B|---------------------------------------------------------------------------|
G|---------------------------------------------------------------------------|
D|---8-8-x-8-x-8-8-x-8-8-8-4-4-x-4-x-4-4-x-4-4-4-----------------------------|
A|---8-8-x-8-x-8-8-x-8-8-8-4-4-x-4-x-4-4-x-4-4-4-----------------------------|
E|---6-6-x-6-x-6-6-x-6-6-6-2-2-x-2-x-2-2-x-2-2-2-----------------------------|


   Gtr 1
e|---------------------------------------------------------------------------|
B|---------------------------------------------------------------------------|
G|---------------------------------------------------------------------------|
D|---------------------------------------------------------------------------|
A|---8-8-x-8-x-8-8-x-8-8-8-6-6-x-6-x-6-6-4-6-6-6-----------------------------|
E|---6-6-x-6-x-6-6-x-6-6-6-4-4-x-4-x-4-4-4-4-4-4-----------------------------|
 |
 | Gtr 2 
e|---------------------------------------------------------------------------|
B|---------------------------------------------------------------------------|
G|---------------------------------------------------------------------------|
D|---8-8-x-8-x-8-8-x-8-8-8-6-6-x-6-x-6-6-6-6-6-6-----------------------------|
A|---8-8-x-8-x-8-8-x-8-8-8-6-6-x-6-x-6-6-6-6-6-6-----------------------------|
E|---6-6-x-6-x-6-6-x-6-6-6-4-4-x-4-x-4-4-4-4-4-4-----------------------------|



 * PRE CHORUS *



   Gtr 1 + 2
e|---------------------------------------------------------------------------|
B|---------------------------------------------------------------------------|
G|---------------------------------------------------------------------------|
D|---4-4-4-4-4-4-4-4-4-4-4-4-4-4-4-4--3-3-3-3-3-3-3-3-3-3-3-3-3-3-3-3--------|
A|---4-4-4-4-4-4-4-4-4-4-4-4-4-4-4-4--3-3-3-3-3-3-3-3-3-3-3-3-3-3-3-3--------|
E|---2-2-2-2-2-2-2-2-2-2-2-2-2-2-2-2--1-1-1-1-1-1-1-1-1-1-1-1-1-1-1-1--------|



 * CHORUS *



   Gtr 1 + 2
e|---------------------------------------------------------------------------|
B|---------------------------------------------------------------------------|
G|---3-3-3-3-3-3-3-3-3-3-3-3-3-3-3-3--6-6-6-6-6-6-6-6-6-6-6-6-6-6-6-6--------|
D|---3-3-3-3-3-3-3-3-3-3-3-3-3-3-3-3--6-6-6-6-6-6-6-6-6-6-6-6-6-6-6-6--------|
A|---1-1-1-1-1-1-1-1-1-1-1-1-1-1-1-1--4-4-4-4-4-4-4-4-4-4-4-4-4-4-4-4--------|
E|---------------------------------------------------------------------------|


   Gtr 1 + 2
e|---------------------------------------------------------------------------|
B|---------------------------------------------------------------------------|
G|---------------------------------------------------------------------------|
D|---6-6-6-6-6-6-6-6-6-6-6-6-6-6-6-6--4-4-4-4-4-4-4-4-4-4-4-4-4-4-4-4--------|
A|---6-6-6-6-6-6-6-6-6-6-6-6-6-6-6-6--4-4-4-4-4-4-4-4-4-4-4-4-4-4-4-4--------|
E|---4-4-4-4-4-4-4-4-4-4-4-4-4-4-4-4--2-2-2-2-2-2-2-2-2-2-2-2-2-2-2-2--------|


   Gtr 1 + 2
e|---------------------------------------------------------------------------|
B|---------------------------------------------------------------------------|
G|---3-3-3-3-3-3-3-3-3-3-3-3-3-3-3-3--6-6-6-6-6-6-6-6-6-6-6-6-6-6-6-6--------|
D|---3-3-3-3-3-3-3-3-3-3-3-3-3-3-3-3--6-6-6-6-6-6-6-6-6-6-6-6-6-6-6-6--------|
A|---1-1-1-1-1-1-1-1-1-1-1-1-1-1-1-1--4-4-4-4-4-4-4-4-4-4-4-4-4-4-4-4--------|
E|---------------------------------------------------------------------------|


   Gtr 1 + 2
e|---------------------------------------------------------------------------|
B|---------------------------------------------------------------------------|
G|---------------------------------------------------------------------------|
D|---3-3-3-3-3-3-3-3-3-3-3-3-3-3-3-3--3-3-3-3-3-3-3-3-3-3-3-3-3-3-3-3--------|
A|---3-3-3-3-3-3-3-3-3-3-3-3-3-3-3-3--3-3-3-3-3-3-3-3-3-3-3-3-3-3-3-3--------|
E|---1-1-1-1-1-1-1-1-1-1-1-1-1-1-1-1--1-1-1-1-1-1-1-1-1-1-1-1-1-1-1-1--------|



* BRIDGE *



   Gtr 1
e|---------------------------------------------------------------------------|
B|---------------------------------------------------------------------------|
G|---------------------------------------------------------------------------|
e|---------------------------------------------------------------------------|
B|---------------------------------------------------------------------------|
G|---------------------------------------------------------------------------|
 |
 | Gtr 2
e|---------------------------------------------------------------------------|
B|---------------------------------------------------------------------------|
G|---6-6-6-6-6-6-6-6-6-6-6-6-6-6-6-6-----------------------------------------|
D|---6-6-6-6-6-6-6-6-6-6-6-6-6-6-6-6--4-4-4-4-4-4-4-4-4-4-4-4-4-4-4-4--------|
A|---4-4-4-4-4-4-4-4-4-4-4-4-4-4-4-4--4-4-4-4-4-4-4-4-4-4-4-4-4-4-4-4--------|
E|------------------------------------2-2-2-2-2-2-2-2-2-2-2-2-2-2-2-2--------|


   Gtr 1
e|---------------------------------------------------------------------------|
B|---------------------------------------------------------------------------|
G|---------------------------------------------------------------------------|
e|---------------------------------------------------------------------------|
B|---------------------------------------------------------------------------|
G|---------------------------------------------------------------------------|
 |
 | Gtr 2
e|---------------------------------------------------------------------------|
B|---------------------------------------------------------------------------|
G|---4-4-4-4-4-4-4-4-4-4-4-4-4-4-4-4-----------------------------------------|
D|---4-4-4-4-4-4-4-4-4-4-4-4-4-4-4-4--7-7-7-7-7-7-7-7-7-7-7-7-7-7-7-7--------|
A|---2-2-2-2-2-2-2-2-2-2-2-2-2-2-2-2--7-7-7-7-7-7-7-7-7-7-7-7-7-7-7-7--------|
E|------------------------------------5-5-5-5-5-5-5-5-5-5-5-5-5-5-5-5--------|


   Gtr 1
e|---------------------------------------------------------------------------|
B|---------------------------------------------------------------------------|
G|---------------------------------------------------------------------------|
e|------------------------------------------------------4-4-4-5-5-5-5--------|
B|----6---4--2---4--2---4--2----------------------------x-x-x-x-x-x-x--------|
G|-----------------------------4---3--------------------2-2-2-3-3-3-3--------|
 |
 | Gtr 2
e|---------------------------------------------------------------------------|
B|---------------------------------------------------------------------------|
G|---4-4-4-4-4-4-4-4-4-4-4-4-4-----------------------------------------------|
D|---4-4-4-4-4-4-4-4-4-4-4-4-4-6-6-5~~------------------4-4-4-5-5-5-5--------|
A|---2-2-2-2-2-2-2-2-2-2-2-2-2-6-6-5~~------------------4-4-4-5-5-5-5--------|
E|-----------------------------4-4-3~~------------------2-2-2-3-3-3-3--------|



* RIFF A *



   Gtr 1
e|---------------------------------------------------------------------------|
B|---------------------------------------------------------------------------|
G|---------------------------------------------------------------------------|
D|---8-8-8-8-4-4-4-4-6-6-6-6-7-7-7-7--8-8-8-8-4-4-4-4-6-6-6-6-7-7-7-7--------|
A|---x-x-x-x-x-x-x-x-x-x-x-x-x-x-x-x--x-x-x-x-x-x-x-x-x-x-x-x-x-x-x-x--------|
E|---6-6-6-6-2-2-2-2-4-4-4-4-5-5-5-5--6-6-6-6-2-2-2-2-4-4-4-4-5-5-5-5--------|
 |
 | Gtr 2
e|---------------------------------------------------------------------------|
B|---------------------------------------------------------------------------|
G|---------------------------------------------------------------------------|
D|---8-----------------------------------------------------------------------|
A|---8-----------------------------------------------------------------------|
E|---6-----------------------------------------------------------------------|

   Gtr 1
e|---------------------------------------------------------------------------|
B|---------------------------------------------------------------------------|
G|---------------------------------------------------------------------------|
D|---8-8-8-8-4-4-4-4-6-6-6-6-7-7-7-7--8-8-8-8-4-4-4-4-6-6-6-6-7-7-7-7--------|
A|---x-x-x-x-x-x-x-x-x-x-x-x-x-x-x-x--x-x-x-x-x-x-x-x-x-x-x-x-x-x-x-x--------|
E|---6-6-6-6-2-2-2-2-4-4-4-4-5-5-5-5--6-6-6-6-2-2-2-2-4-4-4-4-5-5-5-5--------|
 |
 | Gtr 2
e|---------------------------------------------------------------------------|
B|---------------------------------------------------------------------------|
G|---------------------------------------------------------------------------|
D|---8-8-8-8-4-4-4-4-6-6-6-6-7-7-7-7--8-8-8-8-4-4-4-4-6-6-6-6-7-7-7-7--------|
A|---8-8-8-8-4-4-4-4-6-6-6-6-7-7-7-7--8-8-8-8-4-4-4-4-6-6-6-6-7-7-7-7--------|
E|---6-6-6-6-2-2-2-2-4-4-4-4-5-5-5-5--6-6-6-6-2-2-2-2-4-4-4-4-5-5-5-5--------|

  Gtr 1
e|---------------------------------------------------------------------------|
B|---------------------------------------------------------------------------|
G|=========================  F E E D  B A C K  ==============================|
D|---------------------------------------------------------------------------|
A|---------------------------------------------------------------------------|
E|---------------------------------------------------------------------------|
 |
 | Gtr 2
e|---------------------------------------------------------------------------|
B|---------------------------------------------------------------------------|
G|---------------------------------------------------------------------------|
D|---8-8-8-8-4-4-4-4-6-6-6-6-7-7-7-7--8-8-8-8-4-4-4-4-6-6-6-6-7-7-7-7--------|
A|---8-8-8-8-4-4-4-4-6-6-6-6-7-7-7-7--8-8-8-8-4-4-4-4-6-6-6-6-7-7-7-7--------|
E|---6-6-6-6-2-2-2-2-4-4-4-4-5-5-5-5--6-6-6-6-2-2-2-2-4-4-4-4-5-5-5-5--------|

 

* CHORUS *



   Gtr 1 + 2
e|---------------------------------------------------------------------------|
B|---------------------------------------------------------------------------|
G|---3-3-3-3-3-3-3-3-3-3-3-3-3-3-3-3--6-6-6-6-6-6-6-6-6-6-6-6-6-6-6-6--------|
D|---3-3-3-3-3-3-3-3-3-3-3-3-3-3-3-3--6-6-6-6-6-6-6-6-6-6-6-6-6-6-6-6--------|
A|---1-1-1-1-1-1-1-1-1-1-1-1-1-1-1-1--4-4-4-4-4-4-4-4-4-4-4-4-4-4-4-4--------|
E|---------------------------------------------------------------------------|


   Gtr 1 + 2
e|---------------------------------------------------------------------------|
B|---------------------------------------------------------------------------|
G|---------------------------------------------------------------------------|
D|---6-6-6-6-6-6-6-6-6-6-6-6-6-6-6-6--4-4-4-4-4-4-4-4-4-4-4-4-4-4-4-4--------|
A|---6-6-6-6-6-6-6-6-6-6-6-6-6-6-6-6--4-4-4-4-4-4-4-4-4-4-4-4-4-4-4-4--------|
E|---4-4-4-4-4-4-4-4-4-4-4-4-4-4-4-4--2-2-2-2-2-2-2-2-2-2-2-2-2-2-2-2--------|


   Gtr 1 + 2
e|---------------------------------------------------------------------------|
B|---------------------------------------------------------------------------|
G|---3-3-3-3-3-3-3-3-3-3-3-3-3-3-3-3--6-6-6-6-6-6-6-6-6-6-6-6-6-6-6-6--------|
D|---3-3-3-3-3-3-3-3-3-3-3-3-3-3-3-3--6-6-6-6-6-6-6-6-6-6-6-6-6-6-6-6--------|
A|---1-1-1-1-1-1-1-1-1-1-1-1-1-1-1-1--4-4-4-4-4-4-4-4-4-4-4-4-4-4-4-4--------|
E|---------------------------------------------------------------------------|


   Gtr 1 + 2
e|---------------------------------------------------------------------------|
B|---------------------------------------------------------------------------|
G|---------------------------------------------------------------------------|
D|---3-3-3-3-3-3-3-3-3-3-3-3-3-3-3-3--3-3-3-3-3-3-3-3-3-3-3-3-3-3-3-3--------|
A|---3-3-3-3-3-3-3-3-3-3-3-3-3-3-3-3--3-3-3-3-3-3-3-3-3-3-3-3-3-3-3-3--------|
E|---1-1-1-1-1-1-1-1-1-1-1-1-1-1-1-1--1-1-1-1-1-1-1-1-1-1-1-1-1-1-1-1--------|


 repeat chorus   


   Gtr 1 + 2
e|---------------------------------------------------------------------------|
B|---------------------------------------------------------------------------|
G|---3-3-3-3-3-3-3-3-3-3-3-3-3-3-3-3--6-6-6-6-6-6-6-6-6-6-6-6-6-6-6-6--------|
D|---3-3-3-3-3-3-3-3-3-3-3-3-3-3-3-3--6-6-6-6-6-6-6-6-6-6-6-6-6-6-6-6--------|
A|---1-1-1-1-1-1-1-1-1-1-1-1-1-1-1-1--4-4-4-4-4-4-4-4-4-4-4-4-4-4-4-4--------|
E|---------------------------------------------------------------------------|


   Gtr 1 + 2
e|---------------------------------------------------------------------------|
B|---------------------------------------------------------------------------|
G|---------------------------------------------------------------------------|
D|---6-6-6-6-6-6-6-6-6-6-6-6-6-6-6-6--4-4-x-4-4-x-4-4-x-4-4-x-4-4-4-4--------|
A|---6-6-6-6-6-6-6-6-6-6-6-6-6-6-6-6--4-4-x-4-4-x-4-4-x-4-4-x-4-4-4-4--------|
E|---4-4-4-4-4-4-4-4-4-4-4-4-4-4-4-4--2-2-x-2-2-x-2-2-x-2-2-x-2-2-2-2--------|


   Gtr 1 + 2
e|---------------------------------------------------------------------------|
B|---------------------------------------------------------------------------|
G|---3-3-3-3-3-3-3-3-3-3-3-3-3-3-3-3--6-6-6-6-6-6-6-6-6-6-6-6-6-6-6-6--------|
D|---3-3-3-3-3-3-3-3-3-3-3-3-3-3-3-3--6-6-6-6-6-6-6-6-6-6-6-6-6-6-6-6--------|
A|---1-1-1-1-1-1-1-1-1-1-1-1-1-1-1-1--4-4-4-4-4-4-4-4-4-4-4-4-4-4-4-4--------|
E|---------------------------------------------------------------------------|


   Gtr 1 + 2
e|---------------------------------------------------------------------------|
B|---------------------------------------------------------------------------|
G|---------------------------------------------------------------------------|
D|---3-3-3-3-3-3-3-3-3-3-3-3-3-3-3-3--3-3-3-3-3-3-3-3-3-3-3-3-3-3-3-3--------|
A|---3-3-3-3-3-3-3-3-3-3-3-3-3-3-3-3--3-3-3-3-3-3-3-3-3-3-3-3-3-3-3-3--------|
E|---1-1-1-1-1-1-1-1-1-1-1-1-1-1-1-1--1-1-1-1-1-1-1-1-1-1-1-1-1-1-1-1--------|


   Gtr 1 + 2
e|---------------------------------------------------------------------------|
B|---------------------------------------------------------------------------|
G|---------------------------------------------------------------------------|
D|--/8~----------------------------------------------------------------------|
A|--/8~----------------------------------------------------------------------|
E|--/6~----------------------------------------------------------------------|
        ring out


 * LYRICS *


Don't be that way,'cause I might be on that next train, if I get around to it.

Well Oh no, oh no. I'm so fucking undependable, but you have to admit its part of my charm.

Or at least I thought it was, oh forget I said it.


I'm ready for, the next train wreck, a new disaster, 'cause I'm getting cold.

I'm falling down, and playing dead. 


Don't play that game, 'cause I can't be held responsible, for any sort of injuries, I don't wanna hear it.

Well she said, she said, you're so fucking irresistable, as she lowers her head into her hands.

I guess it happened again.


I'm ready for, the next train wreck, a new disaster, 'cause I'm getting cold.

I'm falling down, and playing dead.


I'm ready for, the next train wreck, a new disaster, 'cause I'm getting cold.

I'm falling down, and playing dead.


A hurricane, a tornado, a forest fire, a falling piano.

From out the window, where ever she goes, pure disaster surely follows.

===============================================================================

              All music and lyrics tabbed by angelsairwaves
              
Feel free to use this parts of this tab in your own, as long as you mention me.

===============================================================================
comments
We did not receive enough feedback on this tab! Please rate:
1 2 3 4 5
2 comments total.
+1 reply
dontlookdownkid wrote on May 3 2006, 08:22 pm

pretty good tab but it's really simple...first off, the tuning is half a step down, the real chords for the intro, verse, and chorus are like this

Intro
e-------------------------
b-------------------------
g-------------------------
d-4-4-4-4-4-4-------------
a-5-5-5-2-2-2-4-4-4-5-5-5-
E-7-7-7-3-3-3-5-5-5-6-6-6-

Verse
e-----------------------------------------------
b-----------------------------------------------
g------------------------4-4-----4-4------------
d-4-4-----4-4-4-4----4-4-x-x-----x-x-4-4--4-4-4-
a-5-5-----5-5-5-5----5-5-2-2-----2-2-2-2--2-2-2-
E-7-7---7-7-7-7-7--7-7-7-3-3---3-3-3-3-3--3-3-3-
. . .
e-----------------------------------------------
b-----------------------------------------------
g-----------------------------------------------
d-4-4-----4-4-4-4----4-4------------------------
a-5-5-----5-5-5-5----5-5-4-4-----4-4-4-4--4-4-4-
E-7-7---7-7-7-7-7--7-7-7-5-5---5-5-5-5-5--5-5-5-
. . .

Pre Chorus
e-----------------
b-----------------
g-4>>>>>>---------
d-5>>>>>>---------
a-5>>>>>>-4>>>>>>-
E-3>>>>>>-2>>>>>>-
.

Chorus Chords
e--------2----------------------
b-3------3-------2--------------
g-4------2-------2-------4------
d-4------0-------2-------5------
a-2------0-------0-------5------
E------------------------3------

e--------2----------------------
b-3------3----------------------
g-4------2-------3-------3------
d-4------0-------4-------4------
a-2------0-------4-------4------
E----------------2-------2------


I'll find out the rest of the rythm and the lead because this is just what i figured out really fast

-1 reply
RockinTheIbanez wrote on June 29 2007, 09:53 pm

Alright, dontlookdownkid, what you put down is complete shit. This song is played with octaves and powerchords, and the kid who tabbed it out has it perfectly. Keep your dumbass opinions to yourself.

I want to post or [tab]
guest
You may want to rate the tab now too:
select rating
Please do not post tabs as comments. Select "correction" instead!