Oops, an error
Loading. Please wait.
ver1
ver1

Whole song

Interactive

More versions @911Tabs.com
9,616 views 16 this week
no commentswrite comment
1 2 3 4 5
excellent!
x 4
Autoscroll
+/-
esc
set tempo
stop
Contributor
Difficulty
intermediate
WARNING: You are trying to view
                                    content from Ultimate-Guitar.com
                                    in an unauthorized application,
                                    which is prohibited.

                                    Please use an official Ultimate
                                    Guitar Tabs application for iPhone,
                                    iPad or Android to access legitimate
                                    chords, guitar, bass, and drum tabs
                                    from Ultimate-Guitar.com database.

                                    Type "ultimate guitar tabs" in Apple
                                    App Store's or Android Market's
                                    search to find the application.
666 - I Killed the Prom Queen

Tuning.
1:C#
2:G#
3:E
4:B
5:F#
6:B 

It starts off in a 6 by 4 beat FYI

Tremo pick this part.

C#  |------------------------------------------------------------|
G#  |------------------------------------------------------------| Play
E   |------------------------------------------------------------| x 2
B   |-9-------------9-------------10-------------12--------------|
F#  |---10-9-7-9-10---10-9-7-9-10----10-9-7-9-10----10-9-7-9-6---|
B   |------------------------------------------------------------|

C#  |------------------------------------------------------------|
G#  |------------------------------------------------------------| Play
E   |------------------------------------------------------------| x 2
B   |-7-----------7------------8------------10-------------------|
F#  |---8-7-5-7-8---8-7-5-7-8----8-7-5-7-8-----8-7-5-7-4---------|
B   |------------------------------------------------------------|

Stop tremo picking.

C#  |------------------------------------------------------------|
G#  |------------------------------------------------------------|
E   |------------------------------------------------------------| Play
B   |------------------------------------------------------------| x 2
F#  |-00-00-0-0-00--00-0-0-00-00-0-00-0-0-00-0-------------------|
B   |-00-00-0-0-00--00-0-0-00-00-0-00-0-0-00-0-------------------|

time signature changes here to a 4 by 4 and tempo

Hold this open strum for about 12 beats.
C#  |------------------------------------------------------------|
G#  |------------------------------------------------------------|
E   |------------------------------------------------------------| 
B   |--0---------------------------------------------------------|
F#  |--0---------------------------------------------------------|
B   |--0---------------------------------------------------------|



C#  |------------------------------------------------------------|
G#  |------------------------------------------------------------|
E   |------------------------------------------------------------| 
B   |----------------------------0----------------3---------1----|
F#  |----------------------------0----------------3---------1----|
B   |----------------------------0----------------3---------1----|



C#|-----------------------------------------------------------------------|
G#|-----------------------------------------------------------------------|
E |-----------------------------------------------------------------------| 
B |---------------------------------------------------------8-10h12p10-8--|
F#|-5--3---5--3h5--7---5---7----5h7--8---7---8-7h8--8-10-12------------12-|
B |--0---0---0-------0---0---0---------0---0------------------------------|
				
C#  |------------------------------------------------------------|
G#  |------------------------------------------------------------|
E   |-------------------------------------------------------9999-| 
B   |------------------------------------------------------------|
F#  |-5--3---5---3h5--7---5---7---5h7--------------8888-----7777-|
B   |--0---0---0--------0---0---0------8-8-8-8-0000-----0000-----|
				Play both x2



C#  |----------------------------------------------------------------------|
G#  |----------------------------------------------------------------------|
E   |----------------------------------------------------------------------| 
B   |-----------------------------------------------------8-10h12p10-8-----|
F#  |-5---3h5---3h5--7---5h7---5h7--8---7h8---7h8-8-10-12--------------12--|
B   |---0-----0--------0-----0--------0-----0------------------------------|

C#  |------------------------------------------------------------|
G#  |------------------------------------------------------------|
E   |------------------------------------------------------------| 
B   |------------------------------------------------------------|
F#  |-5---3h5---3h5--7-5h7---5h7-------------8888-----7777-------|
B   |---0-----0------------0-----8-8-8-8-0000-----0000-----------|
				Play both bars 2x

Then 
C#  |------------------------------------------------------------|
G#  |------------------------------------------------------------|
E   |------------------------------------------------------------| 
B   |------------------------------------------------------------|
F#  |-----8888-----7777------------------------------------------|
B   |-0000-----0000----------------------------------------------|




C#  |------------------------------------------------------------|
G#  |------------------------------------------------------------|
E   |------------------------------------------------------------| 
B   |------------------------------------------------------------|
F#  |-0-0-------000-0-0--0-0-0----5---8---7---3------------------|
B   |-0-0--0000-000-0-0--0-0-0--0---0---0---0--------------------|

C#  |------------------------------------------------------------|
G#  |------------------------------------------------------------|
E   |------------------------------------------------------------| 
B   |------------------------------------------------------------|
F#  |-0-0-------000-0-0--0-0-0---8---8---7---7-------------------|
B   |-0-0--0000-000-0-0--0-0-0--0--0---0---0---------------------|

C#  |------------------------------------------------------------|
G#  |------------------------------------------------------------|
E   |------------------------------------------------------------| 
B   |------------------------------------------------------------|
F#  |-0-0-------000-0-0--0-0-0----5---8---7---3------------------|
B   |-0-0--0000-000-0-0--0-0-0--0---0---0---0--------------------|

C#  |------------------------------------------------------------|
G#  |------------------------------------------------------------|
E   |------------------------------------------------------------| 
B   |------------------------------------------------------------|
F#  |-0-0-------000-0-0--0-0-0---8---8---7---7-------------------|
B   |-0-0--0000-000-0-0--0-0-0--0--0---0---0---------------------|

C#  |------------------------------------------------------------|
G#  |------------------------------------------------------------|
E   |------------------------------------------------------------| 
B   |-1-1-------11--1-1--1-1-1-----------------------------------|
F#  |-1-1--1111-111-1-1--1-1-1---5---8---7---3-------------------|
B   |-0-0--0000-000-0-0--0-0-0--0--0---0---0---------------------|

C#  |------------------------------------------------------------|
G#  |------------------------------------------------------------|
E   |------------------------------------------------------------| 
B   |-1-1-------11--1-1--1-1-1-----------------------------------|
F#  |-1-1--1111-111-1-1--1-1-1---8---8---7---7-------------------|
B   |-0-0--0000-000-0-0--0-0-0--0--0---0---0---------------------|

C#  |------------------------------------------------------------|
G#  |------------------------------------------------------------|
E   |------------------------------------------------------------| 
B   |-1-1-------11--1-1--1-1-1-----------------------------------|
F#  |-1-1--1111-111-1-1--1-1-1---5---8---7---3-------------------|
B   |-0-0--0000-000-0-0--0-0-0--0--0---0---0---------------------|

C#  |------------------------------------------------------------|
G#  |------------------------------------------------------------|
E   |------------------------------------------------------------| 
B   |-1-1-------11--1-1--1-1-1-----------------------------------|
F#  |-1-1--1111-111-1-1--1-1-1---8---8---7---7-------------------|
B   |-0-0--0000-000-0-0--0-0-0--0--0---0---0---------------------|


C#  |---------------------------------|
G#  |---------------------------------|
E   |---------------------------------| 
B   |---------------------------------|
F#  |-1--1--0--0----------------------|
B   |--0--0--0--0---------------------|


C#|-------------------------------------------------------------------------|
G#|-------------------------------------------------------------------------|
E |-------------------------------------------------------------------------| 
B |-------------------------------------------------------------------------|
F#|--8---8---7---7---1---1---0---0---8---8---7---7s10---12---13---12h13p12--|
B |-0---0---0---0---0---0---0---0---0---0---0---0------0----0----0----------|

C#|-------------------------------------------------------------------------|
G#|-------------------------------------------------------------------------|
E |-------------------------------------------------------------------------| 
B |-------------------------------------------------------------------------|
F#|---8---8---7---7---1---1---0---0---8---8---7---7s10---12---13---12h13p12-|
B |-0---0---0---0---0---0---0---0---0---0---0---0------0----0----0----------|


C# |------------------------------------------------------------------------|
G# |------------------------------------------------------------------------|
E  |------------------------------------------------------------------------| 
B  |------------------------------------------------------8-10h12p10-8------|
F#|-5--3---5--3h5--7---5---7----5h7--8---7---8-7h8--8-10-12--------------12-|
B |--0---0---0-------0---0---0---------0---0----------------------=---------|

C#|-------------------------------------------------------------------------|
G#|-------------------------------------------------------------------------|
E |-------------------------------------------------------------------------| 
B |---------------------------------------------------------8-10h12p10-8----|
F#|-5--3---5--3h5--7---5---7----5h7--8---7---8-7h8--8-10-12--------------12-|
B |--0---0---0-------0---0---0---------0---0--------------------------------|

C#|-------------------------------------------------------------------------|
G#|-------------------------------------------------------------------------|
E|--------------------------------------------------------------------------| 
B|---------------------------------------------------------8-10h12p10-8-----|
F#|-5--3---5--3h5--7---5---7----5h7--8---7---8-7h8--8-10-12--------------12-|
B |--0---0---0-------0---0---0---------0---0-------------=------------------|

C#  |------------------------------------------------------------|
G#  |------------------------------------------------------------|
E   |-------------------------------------------------------9999-| 
B   |------------------------------------------------------------|
F#  |-5--3---5---3h5--7---5---7---5h7--------------8888-----7777-|
B   |--0---0---0--------0---0---0------8-8-8-8-0000-----0000-----|



C#|------------------------------------------------------------------------|
G#|------------------------------------------------------------------------|
E |------------------------------------------------------------------------| 
B |---------------------------------------------------------8-10h12p10-8---|
F#|-5--3---5--3h5--7---5---7----5h7--8---7---8-7h8--8-10-12--------------12|
B |--0---0---0-------0---0---0---------0---0-------------------------------|

C#  |------------------------------------------------------------|
G#  |------------------------------------------------------------|
E   |-------------------------------------------------------9999-| 
B   |------------------------------------------------------------|
F#  |-5--3---5---3h5--7---5---7---5h7--------------8888-----7777-|
B   |--0---0---0--------0---0---0------8-8-8-8-0000-----0000-----|

C#  |------------------------------------------------------------|
G#  |------------------------------------------------------------|
E   |------------------------------------------------------------| 
B   |------------------------------------------------------------|
F#  |-----8888-----7777------------------------------------------|
B   |-0000-----0000----------------------------------------------|


C#  |------------------------------------------------------------|
G#  |------------------------------------------------------------|
E   |---------------------------7---------5-------7--------10--x-| 
B   |-0--------------------------------------------------------x-|
F#  |-0-------------------------5---------3-------5--------8---x-|
B   |-0----------------------------------------------------------|


C#  |------------------------------------------------------------|
G#  |------------------------------------------------------------|
E   |------------------------------------------------------------| 
B   |------77777777---------------88887777-----------------------|
F#  |-------------------8888-7777--------------------------------|
B   |-0000----------000------------------------------------------|

C#  |------------------------------------------------------------|
G#  |------------------------------------------------------------|
E   |------------------------------------------------------------| 
B   |-------77777777--------------88887777-----------------------|
F#  |----------------888877777888--------------------------------|
B   |--0000------------------------------------------------------|

C#  |------------------------------------------------------------|
G#  |------------------------------------------------------------|
E   |------------------------------------------------------------| 
B   |------77777777---------------88887777-----------------------|
F#  |-------------------8888-7777--------------------------------|
B   |-0000----------000------------------------------------------|

C#  |------------------------------------------------------------|
G#  |------------------------------------------------------------|
E   |------------------------------------------------------------| 
B   |------------------------------------------------------------|
F#  |-5-----3-5---7------5-7-------------------------------------|
B   |---000----------000-----------------------------------------|


C#  |------------------------------------------------------------|
G#  |------------------------------------------------------------|
E   |------------------------------------------------------------| 
B   |------77777777---------------88887777-----------------------|
F#  |-------------------8888-7777--------------------------------|
B   |-0000----------000------------------------------------------|

C#  |------------------------------------------------------------|
G#  |------------------------------------------------------------|
E   |------------------------------------------------------------| 
B   |-------77777777--------------88887777-----------------------|
F#  |----------------888877777888--------------------------------|
B   |--0000------------------------------------------------------|

C#  |------------------------------------------------------------|
G#  |------------------------------------------------------------|
E   |------------------------------------------------------------| 
B   |------77777777---------------88887777-----------------------|
F#  |-------------------8888-7777--------------------------------|
B   |-0000----------000------------------------------------------|

C#  |------------------------------------------------------------|
G#  |------------------------------------------------------------|
E   |------------------------------------------------------------| 
B   |------------------------------------------------------------|
F#  |-5-----3-5---7------5-7-------------------------------------|
B   |---000----------000-----------------------------------------|


Ending.

C#  |------------------------------------------------------------|
G#  |------------------------------------------------------------|
E   |---7-------5-----7------------10----------------------------|  Play 
B   |-------------------------------------------8-10h12p10-8-----|  x 7
F#  |---5-------3-----5-------------8-----------------------12---| as it 
B   |------------------------------------------------------------| fades out

End.


comments
print report bad tab
I want to post or [tab]
guest
You may want to rate the tab now too:
select rating
Please do not post tabs as comments. Select "correction" instead!