Oops, an error
Loading. Please wait.

Say Goodbye Tab

ver1
ver1

Whole song

More versions @911Tabs.com
33,707 views 18 this week
7 commentsread comments
1 2 3 4 5
accurate
x 14
Autoscroll
+/-
esc
set tempo
stop
Contributor
WARNING: You are trying to view
                                    content from Ultimate-Guitar.com
                                    in an unauthorized application,
                                    which is prohibited.

                                    Please use an official Ultimate
                                    Guitar Tabs application for iPhone,
                                    iPad or Android to access legitimate
                                    chords, guitar, bass, and drum tabs
                                    from Ultimate-Guitar.com database.

                                    Type "ultimate guitar tabs" in Apple
                                    App Store's or Android Market's
                                    search to find the application.
Say Goodbye                                   
I Killed The Prom Queen




Tuning: B F# B E G# C#



              E  E  E  E  E  E  S S  S  S    E  S H.           S  
C#||-------|------------------------------|----------------------|
G#||-------|------------------------------|----------------------|
E ||-------|------------------------------|----------------------|
B ||-------|------------------------------|-------0------------L-|
F#||-------|--0-------------------8-10-12-|--0----0------------L-|
B ||-------|--0---------------------------|--0----0------------L-|


                           PM   PM   PM   PM   PM   PM        
  H         H           E  S  S S  S S  S S  S S  S S  S S S  
---------------------|---------------------------------------|
---------------------|---------------------------------------|
---------------------|---------------------------------------|
--8--------10--------|---------------------------------------|
--8--------10--------|--------5----3----5----8----7----5-7-8-|
--8--------10--------|--0--0----0----0----0----0----0--------|


     PM   PM   PM   PM   PM   PM                                               
  E  S  S S  S S  S S  S S  S S   S S S    E  S S  S S  S S  E  S  S S  S S S  
----------------------------------------|-------------------------------------|
----------------------------------------|-------------------------------------|
----------------------------------------|-------------------------------------|
----------------------------------------|------------7---------------7--------|
--------5----3----5----8----7----10-8-7-|-----7-8-10---10-8-----8-10---10-8-7-|
--0--0----0----0----0----0----0---------|--8----------------10----------------|


     PM   PM   PM   PM   PM   PM        
  E  S  S S  S S  S S  S S  S S  S S S  
---------------------------------------|
---------------------------------------|
---------------------------------------|
---------------------------------------|
--------5----3----5----8----7----5-7-8-|
--0--0----0----0----0----0----0--------|


     PM   PM   PM   PM   PM   PM                                               
  E  S  S S  S S  S S  S S  S S   S S S    E  S S  S S  S S  E  S  S S  S S S  
----------------------------------------|-------------------------------------|
----------------------------------------|-------------------------------------|
----------------------------------------|-------------------------------------|
----------------------------------------|------------7---------------7--------|
--------5----3----5----8----7----10-8-7-|-----7-8-10---10-8-----8-10---10-8-7-|
--0--0----0----0----0----0----0---------|--8----------------10----------------|


     PM   PM   PM   PM    PM    PM          
  E  S  S S  S S  S S   S S   S S  S  S  S  
-------------------------------------------|
-------------------------------------------|
-------------------------------------------|
-------------------------------------------|
--------8----7----8----12----10----8-10-12-|
--0--0----0----0----0-----0-----0----------|


     PM   PM   PM   PM    PM    PM                                          
  E  S  S S  S S  S S   S S   S S  S S  S    E  S S S S S S E  S S S S S S  
------------------------------------------|--------------------------------|
------------------------------------------|--------------------------------|
------------------------------------------|-----------5------------5-------|
-----------------------------------8-7----|-----5-7-8---8-7----7-8---8-7-5-|
--------8----7----8----12----10--------10-|--5--------------7--------------|
--0--0----0----0----0-----0-----0---------|--------------------------------|


     PM   PM   PM   PM    PM    PM          
  E  S  S S  S S  S S   S S   S S  S  S  S  
-------------------------------------------|
-------------------------------------------|
-------------------------------------------|
-------------------------------------------|
--------8----7----8----12----10----8-10-12-|
--0--0----0----0----0-----0-----0----------|


     PM   PM   PM   PM    PM    PM                                          
  E  S  S S  S S  S S   S S   S S  S S  S    E  S S S S S S E  S S S S S S  
------------------------------------------|--------------------------------|
------------------------------------------|--------------------------------|
------------------------------------------|-----------5------------5-------|
-----------------------------------8-7----|-----5-7-8---8-7----7-8---8-7-5-|
--------8----7----8----12----10--------10-|--5--------------7--------------|
--0--0----0----0----0-----0-----0---------|--------------------------------|


     PM                       PM PM       PM                       PM PM  
  E  S  S S S S S S S S S S S S  S     E  S  S S S S S S S S S S S S  S   
------------------------------------|------------------------------------|
------------------------------------|------------------------------------|
--------7-7-7-7-7-7-7-7-7-7-7-------|--------7-7-7-7-7-7-7-7-7-7-7-------|
------------------------------------|------------------------------------|
--0--0--5-5-5-5-5-5-5-5-5-5-5-0--0--|--0--0--5-5-5-5-5-5-5-5-5-5-5-0--0--|
--0--0------------------------0--0--|--0--0------------------------0--0--|


     PM    PM    PM   PM    PM    PM          
  E  S   S S   S S  S S   S S   S S  S  S  S  
---------------------------------------------|
---------------------------------------------|
---------------------------------------------|
--------12----10----8------------------------|
--8----------------------12----10----8-10-12-|
--8--8-----8-----8----8-----8-----8----------|


     PM   PM     PM    PM   PM     PM       PM                       PM PM  
  E  S  S S  S S S  E  S  S S  S S S     E  S  S S S S S S S S S S S S  S   
--------------------------------------|------------------------------------|
--------------------------------------|------------------------------------|
--------------------------------------|--------7-7-7-7-7-7-7-7-7-7-7-------|
--------8----7-8----------7----5-7----|------------------------------------|
--5-----------------3-----------------|--0--0--5-5-5-5-5-5-5-5-5-5-5-0--0--|
--5--5----5------5--3--3----3------3--|--0--0------------------------0--0--|


     PM                       PM PM  
  E  S  S S S S S S S S S S S S  S   
------------------------------------|
------------------------------------|
--------7-7-7-7-7-7-7-7-7-7-7-------|
------------------------------------|
--0--0--5-5-5-5-5-5-5-5-5-5-5-0--0--|
--0--0------------------------0--0--|


     PM    PM    PM   PM    PM    PM          
  E  S   S S   S S  S S   S S   S S  S  S  S  
---------------------------------------------|
---------------------------------------------|
---------------------------------------------|
--------12----10----8------------------------|
--8----------------------12----10----8-10-12-|
--8--8-----8-----8----8-----8-----8----------|


     PM   PM     PM    PM   PM     PM                                    
  E  S  S S  S S S  E  S  S S  S S S     E  S S S S S S S S S S S S S S  
--------------------------------------|---------------------------------|
--------------------------------------|---------------------------------|
--------------------------------------|---------------------------------|
--------8----7-8----------7----5-7----|--0--0-0-0-0-0-0-0-0-0-0-0-0-0-0-|
--5-----------------3-----------------|--0--0-0-0-0-0-0-0-0-0-0-0-0-0-0-|
--5--5----5------5--3--3----3------3--|--0--0-0-0-0-0-0-0-0-0-0-0-0-0-0-|


  E  S S S S S S S S S S S S S S    E  S S S S S S S S S S S S S S  
---------------------------------|---------------------------------|
---------------------------------|---------------------------------|
---------------------------------|---------------------------------|
--0--0-0-0-0-0-0-0-0-0-0-0-0-0-0-|--3--3-3-3-3-3-3-3-3-3-3-3-3-3-3-|
--0--0-0-0-0-0-0-0-0-0-0-0-0-0-0-|--3--3-3-3-3-3-3-3-3-3-3-3-3-3-3-|
--0--0-0-0-0-0-0-0-0-0-0-0-0-0-0-|--3--3-3-3-3-3-3-3-3-3-3-3-3-3-3-|


  E  S S S S S S S S S S S S S S    E  S S S S S S  S S S S S S  E   
---------------------------------|----------------------------------|
---------------------------------|----------------------------------|
---------------------------------|----------------------------------|
--8--8-8-8-8-8-8-8-8-8-8-8-8-8-8-|-----5-7---8-7--------7-----------|
--8--8-8-8-8-8-8-8-8-8-8-8-8-8-8-|-----------------10-------8---10--|
--8--8-8-8-8-8-8-8-8-8-8-8-8-8-8-|--7------7-----7----7---7---7-----|


  E  S S S S S S S S S S S S S S    E  S S S S S S S S S S S S S S  
---------------------------------|---------------------------------|
---------------------------------|---------------------------------|
---------------------------------|---------------------------------|
--0--0-0-0-0-0-0-0-0-0-0-0-0-0-0-|--3--3-3-3-3-3-3-3-3-3-3-3-3-3-3-|
--0--0-0-0-0-0-0-0-0-0-0-0-0-0-0-|--3--3-3-3-3-3-3-3-3-3-3-3-3-3-3-|
--0--0-0-0-0-0-0-0-0-0-0-0-0-0-0-|--3--3-3-3-3-3-3-3-3-3-3-3-3-3-3-|


  E  S S S S S S S S S S S S S S    E  S S S S S S  S S S S S S  E   
---------------------------------|----------------------------------|
---------------------------------|----------------------------------|
---------------------------------|----------------------------------|
--8--8-8-8-8-8-8-8-8-8-8-8-8-8-8-|-----5-7---8-7--------7-----------|
--8--8-8-8-8-8-8-8-8-8-8-8-8-8-8-|-----------------10-------8---10--|
--8--8-8-8-8-8-8-8-8-8-8-8-8-8-8-|--7------7-----7----7---7---7-----|


    PM PM                     PM PM PM PM PM PM       PM PM               
  S S  S  S S S S S S S S S S T  T  T  T  T  T     E  S  S  H.            
------------------------------------------------|------------------------|
------------------------------------------------|------------------------|
------------------------------------------------|------------------------|
------------------------------------------------|------------------------|
--L-0--0----------------------0--0--0--0--0--0--|--0--0--0---------------|
----0--0----------------------0--0--0--0--0--0--|--0--0--0---------------|


  E  S S  S S  S S  E  S  S S  S S S  
-------------------------------------|
-------------------------------------|
-------------------------------------|
------------7---------------7--------|
-----7-8-10---10-8-----8-10---10-8-7-|
--8----------------10----------------|


     PM PM                   PM PM PM PM PM PM       PM PM               
  E  S  S  S S S S S S S S S T  T  T  T  T  T     E  S  S  H.            
-----------------------------------------------|------------------------|
-----------------------------------------------|------------------------|
-----------------------------------------------|------------------------|
-----------------------------------------------|------------------------|
--0--0--0--------------------0--0--0--0--0--0--|--0--0--0---------------|
--0--0--0--------------------0--0--0--0--0--0--|--0--0--0---------------|


  E  S S  S S  S S  E  S  S S  S S S  
-------------------------------------|
-------------------------------------|
-------------------------------------|
------------7---------------7--------|
-----7-8-10---10-8-----8-10---10-8-7-|
--8----------------10----------------|


     PM   PM   PM   PM    PM    PM          
  E  S  S S  S S  S S   S S   S S  S  S  S  
-------------------------------------------|
-------------------------------------------|
-------------------------------------------|
-------------------------------------------|
--------8----7----8----12----10----8-10-12-|
--0--0----0----0----0-----0-----0----------|


     PM   PM   PM   PM    PM    PM                                          
  E  S  S S  S S  S S   S S   S S  S S  S    E  S S S S S S E  S S S S S S  
------------------------------------------|--------------------------------|
------------------------------------------|--------------------------------|
------------------------------------------|-----------5------------5-------|
-----------------------------------8-7----|-----5-7-8---8-7----7-8---8-7-5-|
--------8----7----8----12----10--------10-|--5--------------7--------------|
--0--0----0----0----0-----0-----0---------|--------------------------------|


     PM   PM   PM   PM    PM    PM          
  E  S  S S  S S  S S   S S   S S  S  S  S  
-------------------------------------------|
-------------------------------------------|
-------------------------------------------|
-------------------------------------------|
--------8----7----8----12----10----8-10-12-|
--0--0----0----0----0-----0-----0----------|


     PM   PM   PM   PM    PM    PM                                          
  E  S  S S  S S  S S   S S   S S  S S  S    E  S S S S S S E  S S S S S S  
------------------------------------------|--------------------------------|
------------------------------------------|--------------------------------|
------------------------------------------|-----------5------------5-------|
-----------------------------------8-7----|-----5-7-8---8-7----7-8---8-7-5-|
--------8----7----8----12----10--------10-|--5--------------7--------------|
--0--0----0----0----0-----0-----0---------|--------------------------------|


  E  S S S S S S E  S S S S S S    E  H.           E   
--------------------------------|---------------------|
--------------------------------|---------------------|
-----------5------------5-------|---------------------|
-----5-7-8---8-7----7-8---8-7-5-|---------------------|
--5--------------7--------------|--0------------------|
--------------------------------|--0------------------|


    PM PM PM PM    PM PM PM PM PM PM PM PM       
  S T  T  S  S  E  T  T  S  S  T  T  S  S  Q     
------------------------------------------------|
------------------------------------------------|
------------------------------------------------|
------------------------------------------------|
----0--0--0--0--0--0--0--0--0--0--0--0--0--0----|
----0--0--0--0--0--0--0--0--0--0--0--0--0--0----|


    PM PM PM PM    PM PM PM PM PM PM PM PM       
  S T  T  S  S  E  T  T  S  S  T  T  S  S  Q     
------------------------------------------------|
------------------------------------------------|
------------------------------------------------|
------------------------------------------------|
--L-0--0--0--0--0--0--0--0--0--0--0--0--0--0----|
--L-0--0--0--0--0--0--0--0--0--0--0--0--0--0----|


    PM PM PM PM    PM PM PM PM PM PM PM PM       
  S T  T  S  S  E  T  T  S  S  T  T  S  S  Q     
------------------------------------------------|
------------------------------------------------|
------------------------------------------------|
------------------------------------------------|
--L-0--0--0--0--0--0--0--0--0--0--0--0--0--0----|
--L-0--0--0--0--0--0--0--0--0--0--0--0--0--0----|


    PM PM PM PM    PM PM PM PM  PMPM PM  PM            
  S T  T  S  S  E  T  T  S  S   S S  S   S T T  T T S  
------------------------------------------------------|
------------------------------------------------------|
--------------------------------------------------7-9-|
-------------------------------------------7-8-10-----|
--L-8--8--8--8--8--8--8--8--8--10-7--8--10------------|
--L-8--8--8--8--8--8--8--8--8--10---------------------|


    PM PM PM PM    PM PM PM PM PM PM PM PM PM        
  S T  T  S  S  E  T  T  S  S  T  T  S  S  S  S. S.  
----------------------------------------------------|
----------------------------------------------------|
--L-------------------------------------------------|
----------------------------------------------------|
----0--0--0--0--0--0--0--0--0--0--0--0--0--0--5--7--|
----0--0--0--0--0--0--0--0--0--0--0--0--0--0--------|


    PM PM PM PM    PM PM PM PM PM PM PM PM PM        
  S T  T  S  S  E  T  T  S  S  T  T  S  S  S   S.S.  
----------------------------------------------------|
----------------------------------------------------|
----------------------------------------------------|
----------------------------------------------------|
--8-0--0--0--0--0--0--0--0--0--0--0--0--0--0--10-8--|
----0--0--0--0--0--0--0--0--0--0--0--0--0--0--------|


    PM PM PM PM    PM PM PM PM PM PM PM PM PM        
  S T  T  S  S  E  T  T  S  S  T  T  S  S  S  S. S.  
----------------------------------------------------|
----------------------------------------------------|
----------------------------------------------------|
----------------------------------------------------|
--7-0--0--0--0--0--0--0--0--0--0--0--0--0--0--5--7--|
----0--0--0--0--0--0--0--0--0--0--0--0--0--0--------|


    PM PM PM PM    PM PM PM PM                       
  S T  T  S  S  E  T  T  S  S   T  T  S S  S  S S S  
----------------------------------------------------|
----------------------------------------------------|
----------------------------------------------------|
-------------------------------10-12-10-8-----------|
--8-8--8--8--8--8--8--8--8--8-------------12-10-8-7-|
----8--8--8--8--8--8--8--8--8-----------------------|


  E  S S S S S S S S S S S S S S    E  S S S S S S S S S S S S S S  
---------------------------------|---------------------------------|
---------------------------------|---------------------------------|
---------------------------------|---------------------------------|
--0--0-0-0-0-0-0-0-0-0-0-0-0-0-0-|--3--3-3-3-3-3-3-3-3-3-3-3-3-3-3-|
--0--0-0-0-0-0-0-0-0-0-0-0-0-0-0-|--3--3-3-3-3-3-3-3-3-3-3-3-3-3-3-|
--0--0-0-0-0-0-0-0-0-0-0-0-0-0-0-|--3--3-3-3-3-3-3-3-3-3-3-3-3-3-3-|


                                           PM     PM        PM   PM      
  E  S S S S S S S S S S S S S S    E  S S S  S S S   S S S S  S S   E   
---------------------------------|--------------------------------------|
---------------------------------|--------------------------------------|
---------------------------------|--------------------------------------|
--8--8-8-8-8-8-8-8-8-8-8-8-8-8-8-|-----5-7----8-7---------7-------------|
--8--8-8-8-8-8-8-8-8-8-8-8-8-8-8-|-------------------10--------8----10--|
--8--8-8-8-8-8-8-8-8-8-8-8-8-8-8-|--7------7------7-----7---7----7------|


  E  S S S S S S S S S S S S S S    E  S S S S S S S S S S S S S S  
---------------------------------|---------------------------------|
---------------------------------|---------------------------------|
---------------------------------|---------------------------------|
--0--0-0-0-0-0-0-0-0-0-0-0-0-0-0-|--3--3-3-3-3-3-3-3-3-3-3-3-3-3-3-|
--0--0-0-0-0-0-0-0-0-0-0-0-0-0-0-|--3--3-3-3-3-3-3-3-3-3-3-3-3-3-3-|
--0--0-0-0-0-0-0-0-0-0-0-0-0-0-0-|--3--3-3-3-3-3-3-3-3-3-3-3-3-3-3-|


                                           PM     PM    PM   PM   PM      
  E  S S S S S S S S S S S S S S    E  S S S  S S S   S S  S S  S S   E   
---------------------------------|---------------------------------------|
---------------------------------|---------------------------------------|
---------------------------------|---------------------------------------|
--8--8-8-8-8-8-8-8-8-8-8-8-8-8-8-|-----5-7----8-7----------7-------------|
--8--8-8-8-8-8-8-8-8-8-8-8-8-8-8-|-------------------10---------8----10--|
--8--8-8-8-8-8-8-8-8-8-8-8-8-8-8-|--7------7------7-----7----7----7------|


    PM PM   PM   PM   PM   PM   PM   PM    
  S S  S  S S  S S  S S  S S  S S  S S  S  
------------------------------------------|
------------------------------------------|
------------------------------------------|
----------7----8----5----7---------5------|
--L---------------------------8---------7-|
----0--0----0----0----0----0----0----0----|


  PM   PM   PM   PM   PM   PM   PM           
  S  S S  S S  S S  S S  S S  S S  T  T S S  
--------------------------------------------|
--------------------------------------------|
--------------------------------------------|
----------5----7----8----7----5-------------|
-----8-----------------------------8-10-8-7-|
--0----0----0----0----0----0----0-----------|


    PM PM   PM   PM   PM   PM   PM   PM    
  S S  S  S S  S S  S S  S S  S S  S S  S  
------------------------------------------|
------------------------------------------|
------------------------------------------|
----------7----8----5----7---------5------|
--L---------------------------8---------7-|
----0--0----0----0----0----0----0----0----|


  PM   PM   PM   PM    PM PM  PMPM PM  PM   
  S  S S  S S  S S  E  S  S   S S  S   S S  
-------------------------------------------|
-----------------------------------------8-|
--------------------------------7--9--10---|
----------5----7----8--7--8--10------------|
-----8-------------------------------------|
--0----0----0----0-------------------------|


    PM PM   PM   PM   PM   PM   PM   PM    
  S S  S  S S  S S  S S  S S  S S  S S  S  
------------------------------------------|
--L---------------------------------------|
------------------------------------------|
----------7----8----5----7---------5------|
------------------------------8---------7-|
----0--0----0----0----0----0----0----0----|


  PM   PM   PM   PM   PM   PM   PM           
  S  S S  S S  S S  S S  S S  S S  T  T S S  
--------------------------------------------|
--------------------------------------------|
--------------------------------------------|
----------5----7----8----7----5-------------|
-----8-----------------------------8-10-8-7-|
--0----0----0----0----0----0----0-----------|


    PM PM   PM   PM   PM   PM   PM   PM    
  S S  S  S S  S S  S S  S S  S S  S S  S  
------------------------------------------|
------------------------------------------|
------------------------------------------|
----------7----8----5----7---------5------|
--L---------------------------8---------7-|
----0--0----0----0----0----0----0----0----|


  PM   PM   PM   PM    PM PM  PMPM PM  PM       PM                  
  S  S S  S S  S S  E  S  S   S S  S   S S    S S  H.           E   
-------------------------------------------|-----------------------|
-----------------------------------------8-|--L--------------------|
--------------------------------7--9--10---|-----------------------|
----------5----7----8--7--8--10------------|-----------------------|
-----8-------------------------------------|----0--0------------0--|
--0----0----0----0-------------------------|----0--0------------0--|


  PM PM                      PM                    PM PM                  
  S  S  H.           E     S S  H.           E     S  S  H.           E   
------------------------|-----------------------|------------------------|
------------------------|-----------------------|------------------------|
------------------------|-----------------------|------------------------|
------------------------|-----------------------|------------------------|
--0--0--0------------L--|--L-0--0------------0--|--0--0--0------------L--|
--0--0--0------------L--|--L-0--0------------0--|--0--0--0------------L--|


  S Q    Q    E  S Q       E  S S S S S S S S S S S S S S  
------------------------|---------------------------------|
------------------------|---------------------------------|
------------------------|---------------------------------|
----0----0----0---------|--3--3-3-3-3-3-3-3-3-3-3-3-3-3-3-|
--L-0----0----0---------|--3--3-3-3-3-3-3-3-3-3-3-3-3-3-3-|
--L-0----0----0---------|--3--3-3-3-3-3-3-3-3-3-3-3-3-3-3-|


                                           PM     PM    PM   PM   PM      
  E  S S S S S S S S S S S S S S    E  S S S  S S S   S S  S S  S S   E   
---------------------------------|---------------------------------------|
---------------------------------|---------------------------------------|
---------------------------------|---------------------------------------|
--8--8-8-8-8-8-8-8-8-8-8-8-8-8-8-|-----5-7----8-7----------7-------------|
--8--8-8-8-8-8-8-8-8-8-8-8-8-8-8-|-------------------10---------8----10--|
--8--8-8-8-8-8-8-8-8-8-8-8-8-8-8-|--7------7------7-----7----7----7------|


  E  S S S S S S S S S S S S S S    E  S S S S S S S S S S S S S S  
---------------------------------|---------------------------------|
---------------------------------|---------------------------------|
---------------------------------|---------------------------------|
--0--0-0-0-0-0-0-0-0-0-0-0-0-0-0-|--3--3-3-3-3-3-3-3-3-3-3-3-3-3-3-|
--0--0-0-0-0-0-0-0-0-0-0-0-0-0-0-|--3--3-3-3-3-3-3-3-3-3-3-3-3-3-3-|
--0--0-0-0-0-0-0-0-0-0-0-0-0-0-0-|--3--3-3-3-3-3-3-3-3-3-3-3-3-3-3-|


                                           PM     PM    PM   PM   PM      
  E  S S S S S S S S S S S S S S    E  S S S  S S S   S S  S S  S S   E   
---------------------------------|---------------------------------------|
---------------------------------|---------------------------------------|
---------------------------------|---------------------------------------|
--8--8-8-8-8-8-8-8-8-8-8-8-8-8-8-|-----5-7----8-7----------7-------------|
--8--8-8-8-8-8-8-8-8-8-8-8-8-8-8-|-------------------10---------8----10--|
--8--8-8-8-8-8-8-8-8-8-8-8-8-8-8-|--7------7------7-----7----7----7------|


     PM   PM   PM   PM   PM   PM   PM    
  E  S  S S  S S  S S  S S  S S  S S  S  
----------------------------------------|
----------------------------------------|
----------------------------------------|
----------------------------------------|
--------5----5----5----5----5----5----5-|
--0--0----0----0----0----0----0----0----|


     PM   PM   PM   PM   PM   PM   PM    
  E  S  S S  S S  S S  S S  S S  S S  S  
----------------------------------------|
----------------------------------------|
----------------------------------------|
--------2----2----2----2----2----2----2-|
----------------------------------------|
--2--2----2----2----2----2----2----2----|


     PM   PM   PM   PM   PM   PM                 PM     PM    PM   PM   PM      
  E  S  S S  S S  S S  S S  S S  S S S    E  S S S  S S S   S S  S S  S S   E   
---------------------------------------|---------------------------------------|
---------------------------------------|---------------------------------------|
---------------------------------------|---------------------------------------|
--------8----8----8----8----8----8-8-8-|-----5-7----8-7----------7-------------|
---------------------------------------|-------------------10---------8----10--|
--8--8----8----8----8----8----8--------|--7------7------7-----7----7----7------|


     PM   PM   PM   PM   PM   PM   PM    
  E  S  S S  S S  S S  S S  S S  S S  S  
----------------------------------------|
----------------------------------------|
----------------------------------------|
----------------------------------------|
--------5----5----5----5----5----5----5-|
--0--0----0----0----0----0----0----0----|


     PM   PM   PM   PM   PM   PM   PM    
  E  S  S S  S S  S S  S S  S S  S S  S  
----------------------------------------|
----------------------------------------|
----------------------------------------|
--------2----2----2----2----2----2----2-|
----------------------------------------|
--2--2----2----2----2----2----2----2----|


     PM   PM   PM   PM   PM   PM                 PM     PM    PM   PM   PM      
  E  S  S S  S S  S S  S S  S S  S S S    E  S S S  S S S   S S  S S  S S   E   
---------------------------------------|---------------------------------------|
---------------------------------------|---------------------------------------|
---------------------------------------|---------------------------------------|
--------8----8----8----8----8----8-8-8-|-----5-7----8-7----------7-------------|
---------------------------------------|-------------------10---------8----10--|
--8--8----8----8----8----8----8--------|--7------7------7-----7----7----7------|


         PM     PM    PM   PM   PM                          
  E  S S S  S S S   S S  S S  S S   E     W                 
---------------------------------------|-------------------|
---------------------------------------|-------------------|
---------------------------------------|-------------------|
-----5-7----8-7----------7-------------|-------------------|
-------------------10---------8----10--|--L----------------|
--7------7------7-----7----7----7------|-------------------|


    PM PM   PM   PM   PM   PM   PM   PM    
  S S  S  S S  S S  S S  S S  S S  S S  S  
------------------------------------------|
--L---------------------------------------|
------------------------------------------|
----------7----8----5----7---------5------|
--L---------------------------8---------7-|
----0--0----0----0----0----0----0----0----|


  PM   PM   PM   PM   PM   PM   PM           
  S  S S  S S  S S  S S  S S  S S  T  T S S  
--------------------------------------------|
--------------------------------------------|
--------------------------------------------|
----------5----7----8----7----5-------------|
-----8-----------------------------8-10-8-7-|
--0----0----0----0----0----0----0-----------|


    PM PM   PM   PM   PM   PM   PM   PM    
  S S  S  S S  S S  S S  S S  S S  S S  S  
------------------------------------------|
------------------------------------------|
------------------------------------------|
----------7----8----5----7---------5------|
--L---------------------------8---------7-|
----0--0----0----0----0----0----0----0----|


  PM   PM   PM   PM    PM PM     PM PM                                  
  S  S S  S S  S S  E  S  S  S S S  S  S    S S H.           E          
-----------------------------------------|----------------------|-----||
-----------------------------------------|----------------------|-----||
-----------------------------------------|----------------------|-----||
----------5----7----8--------------------|----------------------|-----||
-----8-----------------0--0------1--1----|----0-----------------|-----||
--0----0----0----0-----0--0------1--1----|----0-----------------|-----||




Duration Legend
---------------
W - whole
H - half
Q - quarter
E - 8th
S - 16th
T - 32nd
X - 64th
. - note dotted
|-n-|  - n-tuplets


Tablature Legend
----------------
L - tied note
x - dead note
g - grace note
(n) - ghost note
> - accentuded note
NH - natural harmonic
AH - artificial harmonic
TH - tapped harmonic
SH - semi harmonic
PH - pitch harmonic
h - hammer on
p - pull off
b - bend
br - bendRelease
pb - preBend
pbr - preBendRelease
brb - bendReleaseBend
\n/ - tremolo bar dip
\n - tremolo bar dive
-/n - tremolo bar Release up
/n\ - tremolo bar inverted dip
/n - tremolo bar return
-\n - tremolo bar Release down
S - shift slide
s - legato slide
/ -  slide into from below or out of upwards
\ -  slide into from above or out of downwards
~ - vibrato
W - wide vibrato
tr - trill
TP - tremolo picking
T - tapping
S - slap
P - pop
< - fade in
^ - brush up
v - brush down
comments
print report bad tab
7 comments total. Showing first comments.
+1 reply
alex z wrote on July 26 2007, 07:03 am

SWEET HI 5

+1 reply
bleedoutblack wrote on October 27 2007, 09:02 am

i love this tab

+1 reply
metalmonkey23 wrote on January 7 2008, 06:48 pm

i love this song nice tab good job.

I want to post or [tab]
guest
You may want to rate the tab now too:
select rating
Please do not post tabs as comments. Select "correction" instead!