Oops, an error
Loading. Please wait.

Thirty One Sevens Tab

ver1
ver1

Whole song

Interactive

More versions @911Tabs.com
2,577 views 24 this week
no commentswrite comment
1 2 3 4 5
excellent!
x 6
Autoscroll
+/-
esc
set tempo
stop
Contributor
Difficulty
Tuning
intermediate
B F# B E G# C#
WARNING: You are trying to view
                                    content from Ultimate-Guitar.com
                                    in an unauthorized application,
                                    which is prohibited.

                                    Please use an official Ultimate
                                    Guitar Tabs application for iPhone,
                                    iPad or Android to access legitimate
                                    chords, guitar, bass, and drum tabs
                                    from Ultimate-Guitar.com database.

                                    Type "ultimate guitar tabs" in Apple
                                    App Store's or Android Market's
                                    search to find the application.
C#|---------------------------------------------------------------|
G#|------------------------------------------13-------------------|
E |------14----------------14----14-------------------------------|
B |-12------15-14-12-14-15----12----15-14-15----------------------|
F#|---------------------------------------------------------------|
B |---------------------------------------------------------------|



C#|---------------------------------------------------------------|
G#|------------------------------------------13-15----------------|
E |------14----------------14----14-------------------------------|
B |-12------15-14-12-14-15----12----15-14-15----------------------|
F#|---------------------------------------------------------------|
B |---------------------------------------------------------------|



C#|---------------------------------------------------------------|
G#|---------------------------------------------------------------|
E |---------------------------5---7-------------------------------|
B |-0---0000000~--000~--000-----------0000000~--000~--000---10----|
F#|-0---0000000~--000~--000---3---5---0000000~--000~--000---10----|
B |-0---0000000~--000~--000-----------0000000~--000~--000---10----|
        xxxxxxx   xxx   xxx           xxxxxxx   xxx   xxx


C#|---------------------------------------------------------------|
G#|------------------------------------------13-------------------|
E |------14----------------14----14-------------------------------|
B |-12------15-14-12-14-15----12----15-14-15----------------------|
F#|---------------------------------------------------------------|
B |---------------------------------------------------------------|



C#|---------------------------------------------------------------|
G#|------------------------------------------13-15----------------|
E |------14----------------14----14-------------------------------|
B |-12------15-14-12-14-15----12----15-14-15----------------------|
F#|---------------------------------------------------------------|
B |---------------------------------------------------------------|



C#|---------------------------------------------------------------|
G#|---------------------------------------------------------------|
E |---------------------------5---7-------------------------------|
B |-0---0000000~--000~--000-----------0000000~--000~--000-7-5-----|
F#|-0---0000000~--000~--000---3---5---0000000~--000~--000-----7---|
B |-0---0000000~--000~--000-----------0000000~--000~--000---------|
        xxxxxxx   xxx   xxx           xxxxxxx   xxx   xxx

   x2
C#|---------------------------------------------------------------|
G#|---------------------------------------------------------------|
E |-----------------------------------10--------------------------|
B |---------------------------------7-----------------------------|
F#|-8h12p8--------12---10---8---7----------8h12p8--------12---10--|
B |--------10-0-0----0----0---0---0------7--------10-0-0----0-----|
                x    x    x   x   x x                  x    x


C#|---------------------------------------------------------------|
G#|---------------------------------------------------------------|
E |----------------------------------------------------10---------|
B |-88888---55555------------------------------------7------------|
F#|-88888---55555---8h12p8--------13-12-10---8---7----------------|
B |-88888---55555----------10-0-0----------0---0---0------7-------|
    xxxx    xxxx                x          x   x   x x


C#|---------------------------------------------------------------|
G#|---------------------------------------------------------------|
E |------------------------------------------9--------------------|
B |-----------------------8888----------5555----------------------|
F#|-8h12p8--------12---10-8888-7h10p7p0-5555-7--------------------|
B |--------10-0-0----0----8888----------5555----------------------|
                x    x    xxxx          xxxx


C#|---------------------------------------------------------------|
G#|---------------------------------------------------------------|
E |---------------------------------------------------------------|
B |---------------0-0-0---0-0-0---0-0-0---------------------------|
F#|-8h12p8--------0-0-0---0-0-0---0-0-0-8h12p8--------------------|
B |--------10-0---0-0-0---0-0-0---0-0-0--------10-0---------------|
                  x x x   x x x   x x x


C#|---------------------------------------------------------------|
G#|---------------------------------------------------------------|
E |---------------------------------------------------------------|
B |-0-0-0---0-0-0-0-00-00---------------0-0-0---0-0-0---0-0-0-----|
F#|-0-0-0---0-0-0-0-00-00-8h12p8--------0-0-0---0-0-0---0-0-0-----|
B |-0-0-0---0-0-0-0-00-00--------10-0---0-0-0---0-0-0---0-0-0-----|
    x x x   x x x x xx xx               x x x   x x x   x x x


C#|---------------------------------------------------------------|
G#|---------------------------------------------------------------|
E |---------------------------------------------------------------|
B |---------------0-0-0-------------------------------------------|
F#|-8h12p8--------0-0-0-------------------------------------------|
B |--------10-0---0-0-0-8888777755553333--------------------------|
                  x x x 


C#|----------------------------------------17---------------------|
G#|---------------------------------------------------------------|
E |-14h17p14--------17---15---14---12---14----14------------------|
B |----------15-0-0----0----0----0----0---------------------------|
F#|---------------------------------------------------------------|
B |---------------------------------------------------------------|
                  x    x    x    x    x


C#|---------------------------------------------------------------|
G#|---------------------------------------------------------------|
E |-14h17p14--------17---15---14---12---10---15-------------------|
B |----------15-0-0----0----0----0----0----0----------------------|
F#|---------------------------------------------------------------|
B |---------------------------------------------------------------|
                  x    x    x    x    x    x

C#|----------------------------------------17---------------------|
G#|---------------------------------------------------------------|
E |-14h17p14--------17---15---14---12---14----14------------------|
B |----------15-0-0----0----0----0----0---------------------------|
F#|---------------------------------------------------------------|
B |---------------------------------------------------------------|
                  x    x    x    x    x


C#|---------------------------------------------------------------|
G#|---------------------------------------------------------------|
E |-14h17p14--------17---15---14---12---10---12---14---15---------|
B |----------15-0-0----0----0----0----0----0----x8---x4---x4------|
F#|------------------------------------------10---12---13---------|
B |---------------------------------------------------------------|
                  x    x    x    x    x    x


C#|---------------------------------------------------------------|
G#|---------------------------------------------------------------|
E |---------------------------------------------------------------|
B |-8---8-----8/77-5---5------------------------------------------|
F#|-8---8-x11-8/77-5---5-x14--------------------------------------|
B |-8---8-----8/77-5---5------------------------------------------|
                x


C#|---------------------------------------------------------------|
G#|------------------------------------------13-15----------------|
E |------14----------------14----14-------------------------------|
B |-12------15-14-12-14-15----12----15-14-15----------------------|
F#|---------------------------------------------------------------|
B |---------------------------------------------------------------|



C#|---------------------------------------------------------------|
G#|------------------------------------------13-15----------------|
E |------14----------------14----14-------------------------------|
B |-12------15-14-12-14-15----12----15-14-15----------------------|
F#|---------------------------------------------------------------|
B |---------------------------------------------------------------|



C#|---------------------------------------------------------------|
G#|---------------------------------------------------------------|
E |---------------------------------------------------------------|
B |-8---8-----8/77-5---5------------------------------------------|
F#|-8---8-x11-8/77-5---5-x14--------------------------------------|
B |-8---8-----8/77-5---5------------------------------------------|
                x


C#|---------------------------------------------------------------|
G#|------------------------------------------13-15----------------|
E |------14----------------14----14-------------------------------|
B |-12------15-14-12-14-15----12----15-14-15----------------------|
F#|---------------------------------------------------------------|
B |---------------------------------------------------------------|



C#|---------------------------------------------------------------|
G#|---------------------------------------------------------------|
E |------14----------------14----14----------14-12----------------|
B |-12------15-14-12-14-15----12----15-14-15-------14-------------|
F#|---------------------------------------------------------------|
B |---------------------------------------------------------------|


   x2
C#|---------------------------------------------------------------|
G#|---------------------------------------------------------------|
E |-----------------------------------10--------------------------|
B |---------------------------------7-----------------------------|
F#|-8h12p8--------12---10---8---7----------8h12p8--------12---10--|
B |--------10-0-0----0----0---0---0------7--------10-0-0----0-----|
                x    x    x   x   x x                  x    x


C#|---------------------------------------------------------------|
G#|---------------------------------------------------------------|
E |----------------------------------------------------10---------|
B |-88888---55555------------------------------------7------------|
F#|-88888---55555---8h12p8--------13-12-10---8---7----------------|
B |-88888---55555----------10-0-0----------0---0---0------7-------|
    xxxx    xxxx                x          x   x   x x


C#|---------------------------------------------------------------|
G#|---------------------------------------------------------------|
E |------------------------------------------9--------------------|
B |-----------------------8888----------5555----------------------|
F#|-8h12p8--------12---10-8888-7h10p7p0-5555-7--------------------|
B |--------10-0-0----0----8888----------5555----------------------|
                x    x    xxxx          xxxx

   x2
C#|---------------------------------------------------------------|
G#|---------------------------------------------------------------|
E |---------------------------------------------------------------|
B |---------------------------------------------------------------|
F#|-5-----5-----5---5-----5-----5---12-----12-----12--------------|
B |---0-0---0-0---0---0-0---0-0---0----8-8----8-8----8------------|



C#|---------------------------------------------------------------|
G#|---------------------------------------------------------------|
E |---------------------------------------------------------------|
B |---------------------------------------------------------------|
F#|-7-----7-----7-------------------------------------------------|
B |---5-5---5-5---5-----------------------------------------------|



C#|---------------------------------------------------------------|
G#|---------------------------------------------------------------|
E |-7-----10----14-----10----9-----7-----10----14-----17-----19---|
B |---x8-----x8----x8-----x4---x4----x8-----x8----x8-----x4-----x4|
F#|-5-----8-----12-----8-----7-----5-----8-----12-----15-----17---|
B |---------------------------------------------------------------|



C#|---------------------------------------------------------------|
G#|---------------------------------------------------------------|
E |---------------------------------------------------------------|
B |-2---2-2222-22-----------------2---2-2222-22-2-0-2-5-4-0-------|
F#|-2---2-2222-22-----------------2---2-2222-22-2-0-2-5-4-0-------|
B |-2---2-2222-22-9-9-9-7-7-4-4h5-2---2-2222-22-2-0-2-5-4-0-------|
        x xxxx xx                     x xxxx xx   x x x x x


C#|---------------------------------------------------------------|
G#|---------------------------------------------------------------|
E |---------------------------------------------------------------|
B |-2---2-2222-22-----------------2---2-2222-22-2-0-2-2-----------|
F#|-2---2-2222-22-----------------2---2-2222-22-2-0-2-2-----------|
B |-2---2-2222-22-9-9-9-7-7-4-4h5-2---2-2222-22-2-0-2-2-----------|
        x xxxx xx                     x xxxx xx   x x


C#|---------------------------------------------------------------|
G#|---------------------------------------------------------------|
E |---------------------------------------------------------------|
B |-2222-22-2222-22-----------------2222-22-2222-22-2-0-2-5-4-0---|
F#|-2222-22-2222-22-----------------2222-22-2222-22-2-0-2-5-4-0---|
B |-2222-22-2222-22-5-5-5-4-4-0-0h2-2222-22-2222-22-2-0-2-5-4-0---|
    xxxx xx xxxx xx                 xxxx xx xxxx xx   x x x x x


C#|---------------------------------------------------------------|
G#|---------------------------------------------------------------|
E |---------------------------------------------------------------|
B |-2222-22-2222-22-----------------2222-22-2222-22-2-0-2-5-4-2---|
F#|-2222-22-2222-22-----------------2222-22-2222-22-2-0-2-5-4-2---|
B |-2222-22-2222-22-5-5-5-4-4-0-0h2-2222-22-2222-22-2-0-2-5-4-2---|
    xxxx xx xxxx xx                 xxxx xx xxxx xx   x x x x x


C#|---------------------------------------------------------------|
G#|---------------------------------------------------------------|
E |---------------------------------------------------------------|
B |-0~-----------------------------0-0-0-0-0-0-0-0-0-0-0-0--------|
F#|-0~-----------------------------0-0-0-0-0-0-0-0-0-0-0-0--------|
B |-0~---------------------------0-0-0-0-0-0-0-0-0-0-0-0-0--------|
                                   x x x x x x x x x x x

   x2
C#|---------------------------------------------------------------|
G#|---------------------------------------------------------------|
E |---------------------------------------------------------------|
B |-8---8-----8/77-5---5------------------------------------------|
F#|-8---8-x11-8/77-5---5-x14--------------------------------------|
B |-8---8-----8/77-5---5------------------------------------------|
                x


C#|---------------------------------------------------------------|
G#|------------------------------------------13-15----------------|
E |------14----------------14----14-------------------------------|
B |-12------15-14-12-14-15----12----15-14-15----------------------|
F#|---------------------------------------------------------------|
B |---------------------------------------------------------------|



C#|---------------------------------------------------------------|
G#|------------------------------------------13-15----------------|
E |------14----------------14----14-------------------------------|
B |-12------15-14-12-14-15----12----15-14-15----------------------|
F#|---------------------------------------------------------------|
B |---------------------------------------------------------------|



C#|---------------------------------------------------------------|
G#|---------------------------------------------------------------|
E |---------------------------------------------------------------|
B |-8---8-----8/77-5---5-----5/33-0---0-----5/33-0---0-----0-10-0-|
F#|-8---8-x11-8/77-5---5-x11-5/33-0---0-x11-5/33-0---0-x11-0-10-0-|
B |-8---8-----8/77-5---5-----5/33-0---0-----5/33-0---0-----0-10-0-|
                 x              x              x           x    x


C#|---------------------------------------------------------------|
G#|---------------------------------------------------------------|
E |---------------------------------------------------------------|
B |-8---8-----8/77-5---5-----5/33-0-------------------------------|
F#|-8---8-x11-8/77-5---5-x11-5/33-0-------------------------------|
B |-8---8-----8/77-5---5-----5/33-0-------------------------------|
                 x              x
comments
print report bad tab
I want to post or [tab]
guest
You may want to rate the tab now too:
select rating
Please do not post tabs as comments. Select "correction" instead!