Oops, an error
Loading. Please wait.

One More Astronaut Bass Tab

1,535 views 3 this week
no commentswrite comment
1 2 3 4 5
excellent!
x 1
Autoscroll
+/-
esc
set tempo
stop
WARNING: You are trying to view
                                    content from Ultimate-Guitar.com
                                    in an unauthorized application,
                                    which is prohibited.

                                    Please use an official Ultimate
                                    Guitar Tabs application for iPhone,
                                    iPad or Android to access legitimate
                                    chords, guitar, bass, and drum tabs
                                    from Ultimate-Guitar.com database.

                                    Type "ultimate guitar tabs" in Apple
                                    App Store's or Android Market's
                                    search to find the application.
I Mother Earth - One More Astronaut
Bassist - Bruce Gordon

Tuning= EADG (Standard)


s= slap
m= mute

Intro (0:22)
G|--------------------------------------------------------------------------------------------7-9-|
D|------------------------------------------------------------------------------------------9-----|
A|----------------------5h7-------------7-7bp5----------------------------5h7---------------------|
E|0---------------0h5h7------------------------7p5p0---------------0h5h7--------------------------|

Intro (0:32)
G|------------------------------------------------------------------------------------------------|
D|------------------------------------------------------------------------------------------------|
A|---7----7-7-----------5h7-7----7-7----7-7p5----5h7----7-7---------------5h7-7----7-7--7p5-------|
E|0----0------0---0h5h7-------0------0---------7-----0------0--0-0-0h5h7--------0-----------7p5-3-|

Verse (0:42) "One more astronaut in..."
G|------------------------------------------------------------------------------------------------|
D|------------------------------------------------------------------------------------------------|
A|---7----7-7-----------5h7-7----7-7----7-7p5----5h7----7-7---------------5h7-7----7--7------7--7-|
E|0----0------0---0h5h7-------0------0---------7-----0------0--0-0-0h5h7--------0--------0--------|

Verse (0:53) "Feeling cold..."
G|-------------------------------------------|
D|----------------------------------6--------|
A|---7----7---5h7----------7----7--------7---|
E|0-----0---0-------0---0----0----0----------|

Verse (0:58) "Thinking around the clock of..."
G|------------------------------------------------------------------------------------------------|
D|------------------------------------------------------------------------------------------------|
A|---7----7-7-----------5h7-7----7-7----7-7p5----5h7----7-7---------------5h7-7----7--7------7--7-|
E|0----0------0---0h5h7-------0------0---------7-----0------0--0-0-0h5h7--------0--------0--------|

Verse (1:08) "Growing old..."
G|-------------------------------------------|
D|----------------------------------6--------|
A|---7----7---5h7----------7----7--------7---|
E|0-----0---0-------0---0----0----0----------|

Pre-Chorus (1:13)
G|-------------------------------- --- --- -- -----|
D|-------------------------------- --- --- -- -----|
A|---7----7---5h7----------7------ --- --- -- -----|
E|0-----0---0-------0---0----0///12--12--12-12\(0)|

Chorus (1:18) "Headspace..."
G|--------------------------------------------------------|
D|--------------------------------------------------------|
A|s--s--m-m-m-7-------7--7-s--s--m-m-m-7-------7--7p5-----|
E|0--0--0-0-0---0-0-0------0--0--0-0-0---0-0-0--------7p5-|

Chrous (1:23) "Close my eyes..."
G|-------------------------------------------------------|
D|-------------------------------------------------------|
A|---------------------3--5--8--8-8p5-5--5--5--5--5(2)--|
E|3--3--3--3--3--5-----------------------------------1---|

Chrous (1:28) "Headspace..."
G|--------------------------------------------------------|
D|--------------------------------------------------------|
A|s--s--m-m-m-7-------7--7-s--s--m-m-m-7-------7--7p5-----|
E|0--0--0-0-0---0-0-0------0--0--0-0-0---0-0-0--------7p5-|

Chorus (1:33) "Left behind..."
G|-------------------------------------------------------|
D|-------------------------------------------------------|
A|---------------------3--5--8--8-8p5-5--5--5--5--5(2)--|
E|3--3--3--3--3--5-----------------------------------1---|

Chorus (1:38) "Back home..."
G|---------------------------------------------------------------------------------|
D|---------------------------------------------------------------------------------|
A|s--s--m-m-m----------m-m-m-s--s--m-m-m----------m-m-m-s--s--m-m-m----------m-m-m-|
E|0--0--0-0-0-0---0-0--0-0-0-0--0--0-0-0-0---0-0--0-0-0-0--0--0-0-0-0---0-0--0-0-0-|

Chorus End(1:47) "Back home..."
G|----------------------------|
D|----------------------------|
A|s---------------------------|
E|0--0///12--12--12--12-12-12-|

Interlude (1:49)
G|-------------------------------------------------|
D|-------------------------------------------------|
A|----------------------5h7-------------7-7bp5-----|
E|0---------------0h5h7------------------------7p5p|

Verse (1:54) "It gets so lonely..."
G|------------------------------------------------------------------------------------------------|
D|------------------------------------------------------------------------------------------------|
A|---7----7-7-----------5h7-7----7-7----7-7p5----5h7----7-7---------------5h7-7----7--7------7--7-|
E|0----0------0---0h5h7-------0------0---------7-----0------0--0-0-0h5h7--------0--------0--------|

Verse (2:04) "Known and loved..."
G|-------------------------------------------|
D|----------------------------------6--------|
A|---7----7---5h7----------7----7--------7---|
E|0-----0---0-------0---0----0----0----------|

Verse (2:09) "True, true decline of the..."
G|------------------------------------------------------------------------------------------------|
D|------------------------------------------------------------------------------------------------|
A|---7----7-7-----------5h7-7----7-7----7-7p5----5h7----7-7---------------5h7-7----7--7------7--7-|
E|0----0------0---0h5h7-------0------0---------7-----0------0--0-0-0h5h7--------0--------0--------|

Verse (2:19) "Rolls along..."
G|-------------------------------------------|
D|----------------------------------6--------|
A|---7----7---5h7----------7----7--------7---|
E|0-----0---0-------0---0----0----0----------|

Pre-chours (2:24)
G|--------------------------------------------|
D|---------------------------------0h2--------|
A|---7----7---5h7----------7---2h3------2-0---|
E|0-----0---0-------0---0----0--------------3-|

Chorus (2:30) "Headspace..."
G|--------------------------------------------------------|
D|--------------------------------------------------------|
A|s--s--m-m-m-7-------7--7-s--s--m-m-m-7-------7--7p5-----|
E|0--0--0-0-0---0-0-0------0--0--0-0-0---0-0-0--------7p5-|

Chorus (2:35) "Close my eyes..."
G|-------------------------------------------------------|
D|-------------------------------------------------------|
A|---------------------3--5--8--8-8p5-5--5--5--5--5(2)--|
E|3--3--3--3--3--5-----------------------------------1---|

Chorus (2:40) "Headspace..."
G|--------------------------------------------------------|
D|--------------------------------------------------------|
A|s--s--m-m-m-7-------7--7-s--s--m-m-m-7-------7--7p5-----|
E|0--0--0-0-0---0-0-0------0--0--0-0-0---0-0-0--------7p5-|

Chorus (2:45) "Left behind..."
G|-------------------------------------------------------|
D|-------------------------------------------------------|
A|---------------------3--5--8--8-8p5-5--5--5--5--5(2)--|
E|3--3--3--3--3--5-----------------------------------1---|

Chorus (2:50) "Back home..."
G|---------------------------------------------------------------------------------|
D|---------------------------------------------------------------------------------|
A|s--s--m-m-m----------m-m-m-s--s--m-m-m----------m-m-m-s--s--m-m-m----------m-m-m-|
E|0--0--0-0-0-0---0-0--0-0-0-0--0--0-0-0-0---0-0--0-0-0-0--0--0-0-0-0---0-0--0-0-0-|

End of Chorus (2:58) "Back home..."
G|----------------------------|
D|----------------------------|
A|s---------------------------|
E|0--0///12--12--12--12-12-12-|

Interlude (3:01)
G|------------------------------------------------------------------------------------------|
D|------------------------------------------------------------------------------------------|
A|s--s--m-m-m-s--m-m-m-s--m-m-m-s--s--m-m-m-s--m-m-m-s--m-m-m-s--s--m-m-m-s--m-m-m-s--m-m-m-|
E|0--0--0-0-0-0--0-0-0-0--0-0-0-0--0--0-0-0-0--0-0-0-0--0-0-0-0--0--0-0-0-0--0-0-0-0--0-0-0-|

Interlude (3:08)
G|-------------------|
D|-------------------|
A|---7---------------|
E|0------6---5--3---|

Interlude (3:10)
G|------------------------------------------------------------------------------------------|
D|------------------------------------------------------------------------------------------|
A|s--s--m-m-m-s--m-m-m-s--m-m-m-s--s--m-m-m-s--m-m-m-s--m-m-m-s--s--m-m-m-s--m-m-m-s--m-m-m-|
E|0--0--0-0-0-0--0-0-0-0--0-0-0-0--0--0-0-0-0--0-0-0-0--0-0-0-0--0--0-0-0-0--0-0-0-0--0-0-0-|

Repeat Until 

REST 3:28

Interlude (3:31)
G|------------------------------------------------------------------------------------------|
D|------------------------------------------------------------------------------------------|
A|s--s--m-m-m-s--m-m-m-s--m-m-m-s--s--m-m-m-s--m-m-m-s--m-m-m-s--s--m-m-m-s--m-m-m-s--m-m-m-|
E|0--0--0-0-0-0--0-0-0-0--0-0-0-0--0--0-0-0-0--0-0-0-0--0-0-0-0--0--0-0-0-0--0-0-0-0--0-0-0-|

Repeat Until 

Interlude (3:49)
G|------------------|
D|------------------|
A|5--7--------------|
E|--------6p5--4----|

Interlude (3:51)
G|------------------------------------------------------------------------------------------|
D|------------------------------------------------------------------------------------------|
A|s--s--m-m-m-s--m-m-m-s--m-m-m-s--s--m-m-m-s--m-m-m-s--m-m-m-s--s--m-m-m-s--m-m-m-s--m-m-m-|
E|0--0--0-0-0-0--0-0-0-0--0-0-0-0--0--0-0-0-0--0-0-0-0--0-0-0-0--0--0-0-0-0--0-0-0-0--0-0-0-|

Repeat Until

Interlude (4:00)
G|---9-----------|
D|8-----8-7-(1)-|
A|---------------|
E|---------------|

Bridge (4:01)
G|---------------------------------------------------------------------------|
D|---------------------------------------------------------------------------|
A|---7--m-m-m-7--m------7-----7--m-m-m-7--m------7-----7--m-m-m-7--m------7--|
E|0-----0-0-0----0--0-0----0-----0-0-0----0--0-0----0-----0-0-0----0--0-0----|

Bridge (4:09)
G|-------------------------|
D|-------------------------|
A|---7--m-m-m-x-x--x--x--x-|
E|0-----0-0-0-x-x--x--x--x-|

Breakout (4:11)
G|----------------------------------------------------------------------------------------|
D|----------------------------------------------------------------------------------------|
A|---7--m-m-m-7--m------7-----7--m-m-m-7--m------7-----7--m-m-m-7--m------7-----7--m-m-m--|
E|0-----0-0-0----0--0-0----0-----0-0-0----0--0-0----0-----0-0-0----0--0-0----0-----0-0-0--|

Breakout (4:20)
G|-------9-------------9--------|
D|(0)/9-----9(3)(2)/8---8(1)--|
A|------------------------------|
E|------------------------------|

Verse (4:22) "One more astronaut..."                  
G|------------------------------------------------------------------ ----------------------|
D|------------------------------------------------------------------ ----------------------|
A|---7--m-m-m-7--m------7-----7--m-m-m-7--m------7-----7-----7-7-9-10-5-4---------3--------|
E|0-----0-0-0----0--0-0----0-----0-0-0----0--0-0----0--------------- ----------------------|
                                                       ^(4:27)

Chorus (4:31) "Headspace..."
G|--------------------------------------------------------|
D|--------------------------------------------------------|
A|s--s--m-m-m-7-------7--7-s--s--m-m-m-7-------7--7p5-----|
E|0--0--0-0-0---0-0-0------0--0--0-0-0---0-0-0--------7p5-|

Chorus (4:37) "Close my eyes..."
G|-------------------------------------------------------|
D|-------------------------------------------------------|
A|---------------------3--5--8--8-8p5-5--5--5--5--5(2)--|
E|3--3--3--3--3--5-----------------------------------1---|

Chorus (4:41) "Headspace..."
G|--------------------------------------------------------|
D|--------------------------------------------------------|
A|s--s--m-m-m-7-------7--7-s--s--m-m-m-7-------7--7p5-----|
E|0--0--0-0-0---0-0-0------0--0--0-0-0---0-0-0--------7p5-|

Chorus (4:47) "Left behind..."
G|-------------------------------------------------------|
D|-------------------------------------------------------|
A|---------------------3--5--8--8-8p5-5--5--5--5--5(2)--|
E|3--3--3--3--3--5-----------------------------------1---|

Outro (4:52) "Bold are the ones..."
G|--------------(5)/9---7-----------------(7)/11---9-- ---|
D|-----------------------9-7------------------- -----11-9-|
A|------7--------------------------9----------- ------ ---|
E|0--0-----------------------0--0-------------- ------ ---|

Outro (4:57) "Over the horizon..."
G|-------------------------------------------------------|
D|-------------------------------------------------------|
A|---------------------3--5--8--8-8p5-5--5--5--5--5(2)--|
E|3--3--3--3--3--5-----------------------------------1---|

Outro (5:02) "Then it hit me..."
G|--------------(5)/9---7-----------------(7)/11---9-- ---|
D|-----------------------9-7------------------- -----11-9-|
A|------7--------------------------9----------- ------ ---|
E|0--0-----------------------0--0-------------- ------ ---|

Outro (5:07) "Kinda makes me wonder if..."
G|-------------------------------------------------------|
D|-------------------------------------------------------|
A|-------------------------------------------------------|
E|3--3--3--3--3--3--3--3--2--2--2--2--2--2--2---1----0---|

comments
We did not receive enough feedback on this tab! Please rate:
print report bad tab
1 2 3 4 5
I want to post or [tab]
guest
You may want to rate the tab now too:
select rating
Please do not post tabs as comments. Select "correction" instead!