Oops, an error
Loading. Please wait.

The Big Bad Wolf Bass Tab

ver1
ver1

Whole song

Interactive

More versions @911Tabs.com
2,178 views 6 this week
no commentswrite comment
1 2 3 4 5
please rate
Autoscroll
+/-
esc
set tempo
stop
Contributor
Difficulty
Tuning
intermediate
D A D G B E
Hey! There's an official Ultimate Guitar app which is ideal
for learning songs when you're away from computer. Get the app
WARNING: You are trying to view
                                    content from Ultimate-Guitar.com
                                    in an unauthorized application,
                                    which is prohibited.

                                    Please use an official Ultimate
                                    Guitar Tabs application for iPhone,
                                    iPad or Android to access legitimate
                                    chords, guitar, bass, and drum tabs
                                    from Ultimate-Guitar.com database.

                                    Type "ultimate guitar tabs" in Apple
                                    App Store's or Android Market's
                                    search to find the application.
"The Big Bad Wolf" by I See Stars
tabbed by Stedman Halliday

Picked Bass, Tuning: Drop D

Note: Bare with me, it's exported from Guitar Pro 5.





Bass
     W                   W                   W                 
G||-------------------|-------------------|-------------------|
D||-------------------|-------------------|-------------------|
A||-------------------|-------------------|-------------------|
D||-------------------|-------------------|-------------------|
 
 
  W                   W                   W                   W                 
--------------|-------------------|-------------------|-------------------|
--------------|-------------------|-------------------|-------------------|
--------------|-------------------|-------------------|-------------------|
--------------|-------------------|-------------------|-------------------|
 
 
   E   E   E  E   E  E   E  E      E   E   E   E   E   E   E   E   
-------------------------------|----------------------------------|
-------------------------------|----------------------------------|
-------------------------------|----------------------------------|
--12--12--12-----12-----12-----|--10--10--10--10--10--10--10--10--|
 
 
  E  E  E  E  E  E  E  E      E   E   E   E   E   E   E   E   
--------------------------|----------------------------------|
--------------------------|----------------------------------|
--------------------------|----------------------------------|
--8--8--8-----8-----8-----|--10--10--10--10--10--10--10--10--|
 
 
   E   E   E  E   E  E   E  E      E   E   E   E   E   E   E   E   
-------------------------------|----------------------------------|
-------------------------------|----------------------------------|
-------------------------------|----------------------------------|
--12--12--12-----12-----12-----|--10--10--10--10--10--10--10--10--|
 
 
  E  E  E  E  E  E  E  E      H         H         
--------------------------|----------------------|
--------------------------|----------------------|
--------------------------|----------------------|
--8--8--8-----8-----8-----|--10\-----------------|
 
 
   E  E   E  E   E  E   E  E      E  E   E  E   E  E   E  E   
------------------------------|------------------------------|
------------------------------|------------------------------|
------------------------------|------------------------------|
--12-----12-----12-----12-----|--12-----12-----12-----12-----|
 
 
  E  E  E  E  E  E  E  E     E  E  E  E  E  E  E  E   
--------------------------|--------------------------|
--------------------------|--------------------------|
--8-----8-----8-----8-----|--8-----8-----8-----8-----|
--------------------------|--------------------------|
 
 
   E  E   E  E   E  E   E  E      E  E   E  E   E  E   E  E   
------------------------------|------------------------------|
------------------------------|------------------------------|
------------------------------|------------------------------|
--12-----12-----12-----12-----|--12-----12-----12-----12-----|
 
 
  E  E  E  E  E  E  E  E     E  E  E  E  E  E  E  E   
--------------------------|--------------------------|
--------------------------|--------------------------|
--8-----8-----8-----8-----|--8-----8-----8-----8-----|
--------------------------|--------------------------|
 
 
   E  E   E  E   E  E   E  E      E  E   E  E   E  E   E  E   
------------------------------|------------------------------|
------------------------------|------------------------------|
------------------------------|------------------------------|
--12-----12-----12-----12-----|--10-----10-----10-----10-----|
 
 
  E  E  E  E  E  E  E  E     E  E  E  E  E  E  E  E   
--------------------------|--------------------------|
--------------------------|--------------------------|
--------------------------|--------------------------|
--8-----8-----8-----8-----|--8-----8-----8-----8-----|
 
 
   E  E   E  E   E  E   E  E      E  E   E  E   E  E   E  E   
------------------------------|------------------------------|
------------------------------|------------------------------|
------------------------------|------------------------------|
--12-----12-----12-----12-----|--10-----10-----10-----10-----|
 
 
  E  E  E  E  E  E  E  E     E  E  E  E  E  E  E  E   
--------------------------|--------------------------|
--------------------------|--------------------------|
--------------------------|--------------------------|
--8-----8-----8-----8-----|--8-----8-----8-----8-----|
 
 
  E   E   E   E   E   E   E   E      E   E   E   E   E   E   E   E   
---------------------------------|----------------------------------|
---------------------------------|----------------------------------|
---------------------------------|----------------------------------|
-----12--12--12--12--12--12--12--|--12--12--12--12--12--12--12--12--|
 
 
   E   E   E   E   E   E   E   E      E   E   E   E   E   E   E   E   
----------------------------------|----------------------------------|
----------------------------------|----------------------------------|
----------------------------------|----------------------------------|
--12--12--12--12--12--12--12--12--|--10--10--10--10--10--10--10--10--|
 
 
  E  E  E  E  E  E  E  E      E   E   E   E   E   E   E   E   
--------------------------|----------------------------------|
--------------------------|----------------------------------|
--------------------------|----------------------------------|
--8--8--8--8--8--8--8--8--|--10--10--10--10--10--10--10--10--|
 
 
   E   E   E   E   E   E   E   E      E   E   E   E   E   E   E   E   
----------------------------------|----------------------------------|
----------------------------------|----------------------------------|
----------------------------------|----------------------------------|
--12--12--12--12--12--12--12--12--|--10--10--10--10--10--10--10--10--|
 
 
  E  E  E  E  E  E  E  E      E   E   E   E   E   E   E   E   
--------------------------|----------------------------------|
--------------------------|----------------------------------|
--------------------------|----------------------------------|
--8--8--8--8--8--8--8--8--|--10--10--10--10--10--10--10--10--|
 
 
   E   E   E   E   E   E   E   E      E   E   E   E   E   E   E   E   
----------------------------------|----------------------------------|
----------------------------------|----------------------------------|
----------------------------------|----------------------------------|
--12--12--12--12--12--12--12--12--|--10--10--10--10--10--10--10--10--|
 
 
  E  E  E  E  E  E  E  E      E   E   E   E   E   E   E   E   
--------------------------|----------------------------------|
--------------------------|----------------------------------|
--------------------------|----------------------------------|
--8--8--8--8--8--8--8--8--|--10--10--10--10--10--10--10--10--|
 
 
   E   E   E   E   E   E   E   E      E   E   E   E   E   E   E   E   
----------------------------------|----------------------------------|
----------------------------------|----------------------------------|
----------------------------------|----------------------------------|
--12--12--12--12--12--12--12--12--|--10--10--10--10--10--10--10--10--|
 
 
  E  E  E  E  E  E  E  E      E   E   E   E   Q.      E   
--------------------------|------------------------------|
--------------------------|------------------------------|
--------------------------|------------------------------|
--8--8--8--8--8--8--8--8--|--10--10--10--10--10\---------|
 
 
  E  E  E  E  E  E  S S S S    E  E  H.              W                 
----------------------------|---------------------|-------------------|
----------------------------|---------------------|-------------------|
----------------------------|---------------------|-------------------|
--0-----0-----0-----0-0-0-0-|--0------------------|-------------------|
 
 
  W                   E  E  E  E  E  E  S S S S    E  E  H.            
-------------------|----------------------------|---------------------|
-------------------|----------------------------|---------------------|
-------------------|----------------------------|---------------------|
-------------------|--0-----0-----0-----0-0-0-0-|--0------------------|
 
 
  W                   W                   E  E  E  E  E  E  S S S S  
-------------------|-------------------|----------------------------|
-------------------|-------------------|----------------------------|
-------------------|-------------------|----------------------------|
-------------------|-------------------|--0-----0-----0-----0-0-0-0-|
 
 
  E  E  H.              E  E  E  E  E  E  S S S S    E  E  H.            
---------------------|----------------------------|---------------------|
---------------------|----------------------------|---------------------|
---------------------|----------------------------|---------------------|
--0------------------|--0-----0-----0-----0-0-0-0-|--0------------------|
 
 
  E  E  E  E  E  E  S S S S    E  E  H.         E  E  E  E  E  E  S S S S  
----------------------------|----------------|----------------------------|
----------------------------|----------------|----------------------------|
----------------------------|----------------|----------------------------|
--0-----0-----0-----0-0-0-0-|--0-------------|--0-----0-----0-----0-0-0-0-|
 
 
  E  E  H.              W                   H.           E   E   
---------------------|-------------------|----------------------|
---------------------|-------------------|----------------------|
---------------------|-------------------|----------------------|
--0------------------|-------------------|------------------12--|
 
 
   E   E   E   E   E   E   E   E      E   E   E   E   E   E   E   E   
----------------------------------|----------------------------------|
----------------------------------|----------------------------------|
----------------------------------|----------------------------------|
---L--12--12--12--12--12--12--12--|--10--10--10--10--10--10--10--10--|
 
 
  E  E  E  E  E  E  E  E      E   E   E   E   E   E   E   E   
--------------------------|----------------------------------|
--------------------------|----------------------------------|
--------------------------|----------------------------------|
--8--8--8--8--8--8--8--8--|--10--10--10--10--10--10--10--10--|
 
 
   E   E   E   E   E   E   E   E      E   E   E   E   E   E   E   E   
----------------------------------|----------------------------------|
----------------------------------|----------------------------------|
----------------------------------|----------------------------------|
--12--12--12--12--12--12--12--12--|--10--10--10--10--10--10--10--10--|
 
 
  E  E  E  E  E  E  E  E      E   E   E   E   Q.      E     W                 
--------------------------|------------------------------|----------------|
--------------------------|------------------------------|----------------|
--------------------------|------------------------------|----------------|
--8--8--8--8--8--8--8--8--|--10--10--10--10--10\---------|----------------|
 
 
  W                   W                   W                 
-------------------|-------------------|-------------------|
-------------------|-------------------|-------------------|
-------------------|-------------------|-------------------|
-------------------|-------------------|-------------------|
 
 
   E  E   E  E   E  E   E  E      E  E   E  E   E  E   E  E   
------------------------------|------------------------------|
------------------------------|------------------------------|
------------------------------|------------------------------|
--12-----12-----12-----12-----|--12-----12-----12-----12-----|
 
 
  E  E  E  E  E  E  E  E     E  E  E  E  E  E  E  E   
--------------------------|--------------------------|
--------------------------|--------------------------|
--8-----8-----8-----8-----|--8-----8-----8-----8-----|
--------------------------|--------------------------|
 
 
   E  E   E  E   E  E   E  E      E  E   E  E   E  E   E  E   
------------------------------|------------------------------|
------------------------------|------------------------------|
------------------------------|------------------------------|
--12-----12-----12-----12-----|--12-----12-----12-----12-----|
 
 
  E  E  E  E  E  E  E  E     E  E  E  E  E  E  E  E   
--------------------------|--------------------------|
--------------------------|--------------------------|
--8-----8-----8-----8-----|--8-----8-----8-----8-----|
--------------------------|--------------------------|
 
 
   E  E   E  E   E  E   E  E      E  E   E  E   E  E   E  E   
------------------------------|------------------------------|
------------------------------|------------------------------|
------------------------------|------------------------------|
--12-----12-----12-----12-----|--10-----10-----10-----10-----|
 
 
  E  E  E  E  E  E  E  E     E  E  E  E  E  E  E  E   
--------------------------|--------------------------|
--------------------------|--------------------------|
--------------------------|--------------------------|
--8-----8-----8-----8-----|--8-----8-----8-----8-----|
 
 
   E  E   E  E   E  E   E  E      E  E   E  E   E  E   E  E   
------------------------------|------------------------------|
------------------------------|------------------------------|
------------------------------|------------------------------|
--12-----12-----12-----12-----|--10-----10-----10-----10-----|
 
 
  E  E  E  E  E  E  E  E     E  E  E  E  E  E  E  E   
--------------------------|--------------------------|
--------------------------|--------------------------|
--------------------------|--------------------------|
--8-----8-----8-----8-----|--8-----8-----8-----8-----|
 
 
  E   E   E   E   E   E   E   E      E   E   E   E   E   E   E   E   
---------------------------------|----------------------------------|
---------------------------------|----------------------------------|
---------------------------------|----------------------------------|
-----12--12--12--12--12--12--12--|--12--12--12--12--12--12--12--12--|
 
 
  Q     Q     E   E   E   E      E   E   E   E   E   E   E   E   
-----------------------------|----------------------------------|
-----------------------------|----------------------------------|
-----------------------------|----------------------------------|
-------12----12--12--12--12--|--12--12--12--12--12--12--12--12--|
 
 
   E   E   E   E   E   E   E   E      E   E   E   E   E   E   E   E   
----------------------------------|----------------------------------|
----------------------------------|----------------------------------|
----------------------------------|----------------------------------|
--10--10--10--10--10--10--10--10--|--10--10--10--10--10--10--10--10--|
 
 
  Q     Q     E   E   E   E      E   E   E   E   E   E   E   E   
-----------------------------|----------------------------------|
-----------------------------|----------------------------------|
-----------------------------|----------------------------------|
-------12----12--12--12--12--|--12--12--12--12--12--12--12--12--|
 
 
   E   E   E   E   E   E   E   E      E   E   E   E   E   E   E   E   
----------------------------------|----------------------------------|
----------------------------------|----------------------------------|
----------------------------------|----------------------------------|
--10--10--10--10--10--10--10--10--|--10--10--10--10--10--10--10--10--|
 
 
   E   E   E   E   E   E   E   E      Q    H        Q     
----------------------------------|----------------------|
----------------------------------|----------------------|
----------------------------------|----------------------|
--12--12--12--12--12--12--12--12--|--12------------------|
 
 
   E   E   E   E   E   E   E   E      Q    H        Q     
----------------------------------|----------------------|
----------------------------------|----------------------|
----------------------------------|----------------------|
--10--10--10--10--10--10--10--10--|--10------------------|
 
 
   E   E   E   E   E   E   E   E      Q    H        Q     
----------------------------------|----------------------|
----------------------------------|----------------------|
----------------------------------|----------------------|
--12--12--12--12--12--12--12--12--|--12------------------|
 
 
   E   E   E   E   E   E   E   E      Q    H        Q     
----------------------------------|----------------------|
----------------------------------|----------------------|
----------------------------------|----------------------|
--10--10--10--10--10--10--10--10--|--10------------------|
 
 
   E   E   E   E   E   E   E   E      E   E   E   E   E   E   E   E   
----------------------------------|----------------------------------|
----------------------------------|----------------------------------|
----------------------------------|----------------------------------|
--12--12--12--12--12--12--12--12--|--10--10--10--10--10--10--10--10--|
 
 
  E  E  E  E  E  E  E  E      E   E   E   E   E   E   E   E   
--------------------------|----------------------------------|
--------------------------|----------------------------------|
--------------------------|----------------------------------|
--8--8--8--8--8--8--8--8--|--10--10--10--10--10--10--10--10--|
 
 
   E   E   E   E   E   E   E   E      E   E   E   E   E   E   E   E   
----------------------------------|----------------------------------|
----------------------------------|----------------------------------|
----------------------------------|----------------------------------|
--12--12--12--12--12--12--12--12--|--10--10--10--10--10--10--10--10--|
 
 
  E  E  E  E  E  E  E  E      E   E   E   E   E   E   E   E   
--------------------------|----------------------------------|
--------------------------|----------------------------------|
--------------------------|----------------------------------|
--8--8--8--8--8--8--8--8--|--10--10--10--10--10--10--10--10--|
 
 
   E   E   E   E   E   E   E   E      E   E   E   E   E   E   E   E   
----------------------------------|----------------------------------|
----------------------------------|----------------------------------|
----------------------------------|----------------------------------|
--12--12--12--12--12--12--12--12--|--10--10--10--10--10--10--10--10--|
 
 
  E  E  E  E  E  E  E  E      E   E   E   E   E   E   E   E   
--------------------------|----------------------------------|
--------------------------|----------------------------------|
--------------------------|----------------------------------|
--8--8--8--8--8--8--8--8--|--10--10--10--10--10--10--10--10--|
 
 
   E   E   E   E   E   E   E   E      E   E   E   E   E   E   E   E   
----------------------------------|----------------------------------|
----------------------------------|----------------------------------|
----------------------------------|----------------------------------|
--12--12--12--12--12--12--12--12--|--10--10--10--10--10--10--10--10--|
 
 
  E  E  E  E  E  E  E  E      E   E   E   E   Q.      E     W                 
--------------------------|------------------------------|----------------|
--------------------------|------------------------------|----------------|
--------------------------|------------------------------|----------------|
--8--8--8--8--8--8--8--8--|--10--10--10--10--10\---------|----------------|
 
 
  S S S S S S  E  S S S S S S  E     S S S S S S  E  S S S S S S  E   
----------------------------------|----------------------------------|
----------------------------------|----------------------------------|
----------------------------------|----------------------------------|
--0-0---0-0---12--0-0---0-0---10--|--0-0---0-0---12--0-0---0-0---10--|
 
 
  S S S S S S  E  S S S S S S  E     S S S S S S  E  S S S S S S  E   
----------------------------------|----------------------------------|
----------------------------------|----------------------------------|
----------------------------------|----------------------------------|
--0-0---0-0---12--0-0---0-0---10--|--0-0---0-0---12--0-0---0-0---10--|
 
 
  W                   S S S S S S  E  S S S S S S  E   
-------------------|----------------------------------|
-------------------|----------------------------------|
-------------------|----------------------------------|
-------------------|--0-0---0-0---12--0-0---0-0---12--|
 
 
  S S S S S S  E  S S E  S S E     S S S S S S  E  S S S S S S  E   
--------------------------------|----------------------------------|
--------------------------------|----------------------------------|
--------------------------------|----------------------------------|
--0-0---0-0---12--0-0----0-0----|--0-0---0-0---12--0-0---0-0---12--|
 
 
  S S S S S S  E  S S S S S S S S    S S S S S S  E  S S S S S S  E   
----------------------------------|----------------------------------|
----------------------------------|----------------------------------|
----------------------------------|----------------------------------|
--0-0---0-0---12--0-0-0-0-0-0-0-0-|--0-0---0-0---12--0-0---0-0---12--|
 
 
  S S S S S S  E  S S E  S S E     S S S S S S  E  S S S S S S  E   
--------------------------------|----------------------------------|
--------------------------------|----------------------------------|
--------------------------------|----------------------------------|
--0-0---0-0---12--0-0----0-0----|--0-0---0-0---12--0-0---0-0---12--|
 
 
  S S S S S S  E  S S S S S S S S    E  H        Q    E    
----------------------------------|----------------------||
----------------------------------|----------------------||
----------------------------------|----------------------||
--0-0---0-0---12--0-0-0-0-0-0-0-0-|--L-------------------||
 
 
 
 
Duration Legend
---------------
W - whole
H - half
Q - quarter
E - 8th
S - 16th
T - 32nd
X - 64th
. - note dotted
|-n-|  - n-tuplets
 
 
Tablature Legend
----------------
L - tied note
x - dead note
g - grace note
(n) - ghost note
> - accentuded note
NH - natural harmonic
AH - artificial harmonic
TH - tapped harmonic
SH - semi harmonic
PH - pitch harmonic
h - hammer on
p - pull off
b - bend
br - bendRelease
pb - preBend
pbr - preBendRelease
brb - bendReleaseBend
\n/ - tremolo bar dip
\n - tremolo bar dive
-/n - tremolo bar Release up
/n\ - tremolo bar inverted dip
/n - tremolo bar return
-\n - tremolo bar Release down
S - shift slide
s - legato slide
/ -  slide into from below or out of upwards
\ -  slide into from above or out of downwards
~ - vibrato
W - wide vibrato
tr - tril'
TP - tremolo picking
T - tapping
S - slap
P - pop
< - fade in
^ - brush up
v - brush down
comments
We did not receive enough feedback on this tab! Please rate:
print report bad tab
1 2 3 4 5
I want to post or [tab]
guest
You may want to rate the tab now too:
select rating
Please do not post tabs as comments. Select "correction" instead!