Oops, an error
Loading. Please wait.

What A Waste Bass Tab

582 views 12 this week
no commentswrite comment
1 2 3 4 5
excellent!
x 3
Autoscroll
+/-
esc
set tempo
stop
Difficulty
intermediate
WARNING: You are trying to view
                                    content from Ultimate-Guitar.com
                                    in an unauthorized application,
                                    which is prohibited.

                                    Please use an official Ultimate
                                    Guitar Tabs application for iPhone,
                                    iPad or Android to access legitimate
                                    chords, guitar, bass, and drum tabs
                                    from Ultimate-Guitar.com database.

                                    Type "ultimate guitar tabs" in Apple
                                    App Store's or Android Market's
                                    search to find the application.
What a Waste
By
Ian Dury and the Blockheads

Tabbed by ken 2013

|-----------7--5--4------------------------------|
|--------7-----------7---------------------------|
|-----5-----------------5--5--3------------------|
|------------------------------------------------|


----------------------------------------------------|
----------------------------------------------------|
--6--6--4--6--------------6--6--4--6----------------|
----------------------------------------------------|


-----------7--5--4------------------------------|
--------7-----------7---------------------------|
-----5-----------------5--5--3------------------|
------------------------------------------------|


-----------------------------------------------------------------------------|
-----------------------------------------------------------------------------|
--6-----6-----4-----6-----------------------------6-----6-----4-----6--------|
-----------------------------------------------------------------------------|


------9/10----7\-------||----------7--5--4---------------------------------|
------9/10----7\-------||o------7-----------7------------------------------|
-----------------------||o---5-----------------0--5--5--3------------------|
-----------------------||--------------------------------------------------|


----------------------------------------------------|
----------------------------------------------------|
--6--6--4--6--------------6--6--4--6----------------|
----------------------------------------------------|


-----------7--5--4---------------------------------|
--------7-----------7------------------------------|
-----5-----------------0--5--5--3------------------|
---------------------------------------------------|


----------------------------------------------------|
----------------------------------------------------|
--6--6--4--6-----------0--6--6--4--6-----6--0--7----|
----------------------------------------------------|


----------------------------------------------|
----------------------------------------------|
--8--------8--------------0--1--2--3----------|
--------------------1-------------------------|


-------------------------------------------------------------------|
-------------------------------------------------------------------|
--6-----------------6-----------0-----4h6-----------4-----5-----6--|
-------------------------------------------------------------------|


-----------------------|----------------------------------------------|
-----------------------|----------------------------------------------|
---0-----6-----7-------|--8--------8/-------------0--1--2--3----------|
-----------------------|--------------------1-------------------------|


---------------------------------------------------|
---------------------------------------------------|
--5------------------------------------------------|
-------3--3--3--3--3--3--3--3--3--3--3--3--3--5----|


----------------------------------------------------|
----------------------------------------------------|
--3--3--0-----3-----0-----3--3--0-----3--3--0-------|
-----------3-----------3-----------3-----------3----|


-------------------------------------------------|
-------------------------------------------------|
--4--4--4--4--4--3--2--0--0--2--2--3--3--4--4----|
-------------------------------------------------|


----------------------------------------------------|
----------------------------------------------------|
--5--5--5--5--5--5--5--5--5--5--5--5--5--5--5--5----|
----------------------------------------------------|


-------------------------------------------------|
--------------------------5----------------------|
--6--6--6--6--6--6--6--6-----7--5--3-------------|
-------------------------------------------------|


-----------7--5--4------------------------------|
--------7-----------7---------------------------|
-----5-----------------5--5--3------------------|
------------------------------------------------|


-----------------------------------------------------------------------------|
-----------------------------------------------------------------------------|
--6-----6-----4-----6-----------------------------6-----6-----4-----6--------|
-----------------------------------------------------------------------------|


------9/10----7\------||-------------------------------------------------|
------9/10----7\-----o||--------------------------5----------------------|
---------------------o||--6--6--6--6--6--6--6--6-----7--5--3-------------|
----------------------||-------------------------------------------------|


-------|----------------|-------|----------------|-------|
-------|----------------|-------|----------------|-------|
--3----|----------------|-------|----------------|-------|
-------|--2>-2>-2>-2>---|--2>---|--4>----4>-4>---|--6>---|


----------------------------------------------------|-------|
----------------------------------------------------|-------|
----------------------------------------------------|-------|
--6>-------7>-------8-------------------------------|-------|


-----------7--5--4------------------------------|
--------7-----------7---------------------------|
-----5-----------------5--5--3------------------|
------------------------------------------------|


-----------------------------------------------------------------------------|
-----------------------------------------------------------------------------|
--6-----6-----4-----6-----------------------------6-----6-----4-----6--------|
-----------------------------------------------------------------------------|


------9/10----7\-------|-----------7--5--4---------------------------------|
------9/10----7\-------|--------7-----------7------------------------------|
-----------------------|-----5-----------------0--5--5--3------------------|
-----------------------|---------------------------------------------------|


----------------------------------------------------|
----------------------------------------------------|
--6--6--4--6--------------6--6--4--6----------------|
----------------------------------------------------|


-----------7--5--4---------------------------------|
--------7-----------7------------------------------|
-----5-----------------0--5--5--3------------------|
---------------------------------------------------|


----------------------------------------------------|
----------------------------------------------------|
--6--6--4--6-----------0--6--6--4--6-----6--0--7----|
----------------------------------------------------|


----------------------------------------------|
----------------------------------------------|
--8--------8--------------0--1--2--3----------|
--------------------1-------------------------|


--------------------------------------------------------------------|
--------------------------------------------------------------------|
--6-----------------6-----------0-----4h-6-----------4-----5-----6--|
--------------------------------------------------------------------|


-----------------------|----------------------------------------------|
-----------------------|----------------------------------------------|
---0-----6-----7-------|--8--------8\-------------0--1--2--3----------|
-----------------------|--------------------1-------------------------|


---------------------------------------------------|
---------------------------------------------------|
--5------------------------------------------------|
-------3--3--3--3--3--3--3--3--3--3--3--3--3--5----|


----------------------------------------------------|
----------------------------------------------------|
--3--3--0-----3-----0-----3--3--0-----3--3--0-------|
-----------3-----------3-----------3-----------3----|


--------------------------------------------------|
--------------------------------------------------|
--4--4--4--4--4--3--2--0---0--2--2--3--3--4--4----|
--------------------------------------------------|


----------------------------------------------------|
----------------------------------------------------|
--5--5--5--5--5--5--5--5--5--5--5--5--5--5--5--5----|
----------------------------------------------------|


---------------------------------------------------------------------------|
--------------------------------------------3--4--5-----3------------------|
--6-----------------6--6--6-----------------------------------5-----3------|
---------------------------------------------------------------------------|


---------------------------------------------------|
---------------------------------------------------|
----3--0-----3--3--0-----3--3--0-----3--3--0-------|
----------3-----------3-----------3-----------3----|


----------------------------------------------------|
----------------------------------------------------|
--4--4--4--4--4--3--2--0--0--0--2--2--3--3--4--4----|
----------------------------------------------------|


----------------------------------------------------|
----------------------------------------------------|
--5--5--5--5--5--5--5--5--5--5--5--5--5--5--5--5----|
----------------------------------------------------|


---------------------------------------|
--------------------------5--5---------|
--6--6--6--6--6--6--6--6--------0--3---|
---------------------------------------|


---------------------------------------------------|
---------------------------------------------------|
----3--3--3--3--3--3--3--3--3--3--3--3--3--3--3----|
---------------------------------------------------|


----------------------------------------------------|
----------------------------------------------------|
--4--4--4--4--4--4--4--4--0--0--2--2--3--3--4--4----|
----------------------------------------------------|


----------------------------------------------------|
----------------------------------------------------|
--5--5--5--5--5--5--5--5--5--5--5--5--5--5--5--5----|
----------------------------------------------------|


---------------------------------------------------|
--------------------------5------------------------|
--6--6--6--6--6--6--6--6-----7--5--3----3--3-------|
---------------------------------------------------|


---------------------------------------|
--------------------------5------------|
--6--6--6--6--6--6--6--6-----7--5--3---|
---------------------------------------|


-----------------------------------------------|
-----------------------------------------------|
---------3--3--3--3--3--3--3--3--3--3--3--3----|
-----------------------------------------------|


----------------------------------------------------|
----------------------------------------------------|
--4--4--4--4--4--3--2--0--0--0--2--2--3--3--4--4----|
----------------------------------------------------|


----------------------------------------------------|
----------------------------------------------------|
--5--5--5--5--5--5--5--5--5--5--5--5--5--5--5--5----|
----------------------------------------------------|


---------------------------------------|
--------------------------5------------|
--6--6--6--6--6--6--6--6-----7--5--3---|
---------------------------------------|


--------------------------------------------------|
--------------------------------------------------|
---3--------3-----0-----3--3--0-----3--3--0-------|
------0--3-----------3-----------3-----------3----|


----------------------------------------------------|
----------------------------------------------------|
--4--4--4--4--4--4--4--4--0--0--2--2--3--3--4--4----|
----------------------------------------------------|


----------------------------------------------------|
----------------------------------------------------|
--5--5--5--5--5--5--5--5--5--5--5--5--5--5--5--5----|
----------------------------------------------------|


----------------------------------------|
--------------------------5-------------|
--6--6--6--6--6--6--6--6-----7--5--3----|
----------------------------------------|


----------------------------------------------------|
----------------------------------------------------|
--3--3--0-----3--3--------3--3--------3--3--0-------|
-----------3--------0--3--------0--3-----------3----|


---------------------------2-----4-----5-----6----|
--------------------------------------------------|
--4--4--4--4--4--3--2--0------2-----3-----4-------|
--------------------------------------------------|


-----------------------------7/9--9/10-10-9------|
-------------------------------------------------|
--5--5--3--0--5--5--3--0-----5/7--7/8--8--7------|
-------------------------------------------------|


----------------------------------------||
--------------------------5-------------||
--6--6--6--6--6--6--6--6-----7--5--3----||
----------------------------------------||
comments
We did not receive enough feedback on this tab! Please rate:
print report bad tab
1 2 3 4 5
I want to post or [tab]
guest
You may want to rate the tab now too:
select rating
Please do not post tabs as comments. Select "correction" instead!