Oops, an error
Loading. Please wait.

Akoy Sayo At Ikay Akin Lamang Tab

by Iaxe
ver1
ver1

Intro

Solo

Whole song

More versions @911Tabs.com
88 views 3 this week
no commentswrite comment
1 2 3 4 5
please rate
Autoscroll
+/-
esc
set tempo
stop
Contributor
Difficulty
advanced
Hey! There's an official Ultimate Guitar app which is ideal
for learning songs when you're away from computer. Get the app
WARNING: You are trying to view
                                    content from Ultimate-Guitar.com
                                    in an unauthorized application,
                                    which is prohibited.

                                    Please use an official Ultimate
                                    Guitar Tabs application for iPhone,
                                    iPad or Android to access legitimate
                                    chords, guitar, bass, and drum tabs
                                    from Ultimate-Guitar.com database.

                                    Type "ultimate guitar tabs" in Apple
                                    App Store's or Android Market's
                                    search to find the application.
-------------------------------------------------------------------------------
                             SONG NAME - Band Name
-------------------------------------------------------------------------------
Tabbed by:
E-mail:

Tuning:E,A,D,G,B,E

INTRo:AM7,Bm7,C#m7,DM7,Dm (2x)

e|----------------5--------------5---------------------------------------------------|
B|------2---3---5---5----------2---2-------------------------------------------------|
G|------1---2---4-----4------2-------2-----------------------------------------------|
D|----2--------------------0---------------------------------------------------------|
A|--0-------2---4--------------------------------------------------------------------|
E|-----------------------------------------------------------------------------------|

this part strum it down slowly 1x on the chords of Dm
e|--------1----1-----------------------------------------------------------------|
B|------3--------3---------------------------------------------------------------|
G|----2------------2-------------------------------------------------------------|
D|--0----------------------------------------------------------------------------|
A|-------------------------------------------------------------------------------|
E|-------------------------------------------------------------------------------|

part 1:

verse chords:AM7,F#m7,Bm7,E,E7  (2x)

ikaw na ang may sabi na akoy mahal mo rin at sinabi mong ang pag ibig moy di magbabago

pre-chorus:DM7,Dm,AM7,A7,DM7,Dm,AM7,F#m7,Bm7,C#m7,Dm,C#m7,Bm7,C#m7,Dm,DM7,Dm

ngunit bakit sa tuwing akoy lumalapit ikay lumalayo pusoy laging nasasaktan pag may kasama kang iba
di ba nila alam na tayoy nagsumpaan
na akoy sayo at ikay akin lamang

repeat intro
repeat part 1 for verse chords

kahit anong mangyari pag ibig koy sayo parin at kahit ano pa ang sabihin nilay ikaw parin


pre-chorus 2:DM7,Dm,AM7,A7,DM7,Dm,AM7,F#m,Bm7,C#m7,Dm,C#m7,Bm7,C#m7, pause to Dm
Bm7,C#m7,Dm,AM7,F#m7,Bm7,C#m7,Dm,DM7

REPEAT verse chords for instrumetal then repeat pre-chorus chords for the last part

umasa kang maghihintay ako kahit kailan kahit na umabot pang akoy nasa langit na at kung dika makita
makikiusap kay bathala na ikay hanapin at sabihing, ipa alala sayo...na akoy sayo at akin...lamang
comments
We did not receive enough feedback on this tab! Please rate:
print report bad tab
1 2 3 4 5
I want to post or [tab]
guest
You may want to rate the tab now too:
select rating
Please do not post tabs as comments. Select "correction" instead!