Oops, an error
Loading. Please wait.

Broken Bone Tab

2,012 views 18 this week
3 commentsread comments
1 2 3 4 5
excellent!
x 4
Autoscroll
+/-
esc
set tempo
stop
Contributor
Difficulty
intermediate
Hey! There's an official Ultimate Guitar app which is ideal
for learning songs when you're away from computer. Get the app
WARNING: You are trying to view
                                    content from Ultimate-Guitar.com
                                    in an unauthorized application,
                                    which is prohibited.

                                    Please use an official Ultimate
                                    Guitar Tabs application for iPhone,
                                    iPad or Android to access legitimate
                                    chords, guitar, bass, and drum tabs
                                    from Ultimate-Guitar.com database.

                                    Type "ultimate guitar tabs" in Apple
                                    App Store's or Android Market's
                                    search to find the application.
Artist: Iceage
Song: "Broken Bone"
Album: New Brigade (2011)



Tuning: Standard



INTRO:
Guitar II (Elias) 
e|------------------------------------------------||
B|-4--4--------4--4--4--4--4--4--------4--4--4--4-||
G|-5--5--------5--5--5--5--5--5--------5--5--5--5-|| x 2
D|-x--x--------x--x--x--x--x--x--------x--x--x--x-||
A|-x--x--------x--x--x--x--x--x--------x--x--x--x-||
E|-3--3--------3--3--4--4--3--3--------3--3--4--4-||



VERSE I:
Guitars I + II (Johan + Elias)
e|------------------------------------------------|
B|-4--4--4--4--4--4--4--4--8--8--8--8--8--8--8--8-|
G|-5--5--5--5--5--5--5--5--7--7--7--7--7--7--7--7-|
D|-x--x--x--x--x--x--x--x--x--x--x--x--x--x--x--x-|
A|-x--x--x--x--x--x--x--x--5--5--5--5--5--5--5--5-|
E|-3--3--3--3--3--3--3--3-------------------------|
+
e|------------------------------------------------|
B|-8--8--10-10-8--8--10-10-8--8--10-10-8--8--10-10|
G|-9--9--9--9--9--9--9--9--9--9--9--9--9--9--9--9-|
D|-x--x--x--x--x--x--x--x--x--x--x--x--x--x--x--x-|
A|-7--7--7--7--x--x--x--x--7--7--7--7--x--x--x--x-|
E|-------------7--7--7--7--------------7--7--7--7-|
+
e|------------------------------------------------|
B|-4--4--4--4--4--4--4--4--8--8--8--8--8--8--8--8-|
G|-5--5--5--5--5--5--5--5--7--7--7--7--7--7--7--7-|
D|-x--x--x--x--x--x--x--x--x--x--x--x--x--x--x--x-|
A|-x--x--x--x--x--x--x--x--5--5--5--5--5--5--5--5-|
E|-3--3--3--3--3--3--3--3-------------------------|
+
e|------------------------------------------------|
B|-8--8--10-10-8--8--10-10-8--8--10-10-8--8--10-10|
G|-9--9--9--9--9--9--9--9--9--9--9--9--9--9--9--9-|
D|-x--x--x--x--x--x--x--x--x--x--x--x--x--x--x--x-|
A|-7--7--7--7--x--x--x--x--7--7--7--7--x--x--x--x-|
E|-------------7--7--7--7--------------7--7--7--7-|
+
e|------------------------------------------------|
B|-4--4--4--4--4--4--4--4--8--8--8--8--8--8--8--8-|
G|-5--5--5--5--5--5--5--5--7--7--7--7--7--7--7--7-|
D|-x--x--x--x--x--x--x--x--x--x--x--x--x--x--x--x-|
A|-x--x--x--x--x--x--x--x--5--5--5--5--5--5--5--5-|
E|-3--3--3--3--3--3--3--3-------------------------|
+
e|------------------------------------------------|
B|-8--8--10-10-8--8--10-10-8--8--10-10-8--8--10-10|
G|-9--9--9--9--9--9--9--9--9--9--9--9--9--9--9--9-|
D|-x--x--x--x--x--x--x--x--x--x--x--x--x--x--x--x-|
A|-7--7--7--7--x--x--x--x--7--7--7--7--x--x--x--x-|
E|-------------7--7--7--7--------------7--7--7--7-|
+
e|------------------------------------------------|
B|-4--4--4--4--4--4--4--4--8--8--8--8--8--8--8--8-|
G|-5--5--5--5--5--5--5--5--7--7--7--7--7--7--7--7-|
D|-x--x--x--x--x--x--x--x--x--x--x--x--x--x--x--x-|
A|-x--x--x--x--x--x--x--x--5--5--5--5--5--5--5--5-|
E|-3--3--3--3--3--3--3--3-------------------------|
+
e|------------------------------------------------||
B|-8--8--10-10-8--8--10-10-8--8--10-10-8--8--10-10||
G|-9--9--9--9--9--9--9--9--9--9--9--9--9--9--9--9-|| x 2
D|-x--x--x--x--x--x--x--x--x--x--x--x--x--x--x--x-||
A|-7--7--7--7--x--x--x--x--7--7--7--7--x--x--x--x-||
E|-------------7--7--7--7--------------7--7--7--7-||



CHORUS I:
Guitars I + II
e|------------------------------------------------|
B|-6-----------------------6----------------------|
G|-7-----------------------7----------------------|
D|-x-----------------------x----------------------|
A|-x-----------------------x----------------------|
E|-6-----------------------5----------------------|
+
e|------------------------------------------------|
B|-4-----------------------4----------------------|
G|-5-----------------------5----------------------|
D|-x-----------------------x----------------------|
A|-x-----------------------x----------------------|
E|-4-----------------------3----------------------|
+
e|------------------------------------------------|
B|-11----------------------11---------------------|
G|-12----------------------12---------------------|
D|-x-----------------------x----------------------|
A|-x-----------------------x----------------------|
E|-11----------------------10---------------------|
+
e|------------------------------------------------|
B|-9--9--9--9--9--9--9--9--9--9--9--9--9--9--9--9-|
G|-10-10-10-10-10-10-10-10-10-10-10-10-10-10-10-10|
D|-x--x--x--x--x--x--x--x--x--x--x--x--x--x--x--x-|
A|-x--x--x--x--x--x--x--x--x--x--x--x--x--x--x--x-|
E|-9--9--9--9--9--9--9--9--8--8--8--8--8--8--8--8-|
+
e|------------------------------------------------|
B|-6--6--6--#-----6--#--6--6--6--6--#--6--#--6--#-|
G|-7--7--7--#-----7--#--7--7--7--7--#--7--#--7--#-|
D|-x--x--x--#-----x--#--x--x--x--x--#--x--#--x--#-|
A|-x--x--x--#-----x--#--x--x--x--x--#--x--#--x--#-|
E|-6--6--6--#-----6--#--6--5--5--5--#--5--#--5--#-|
+
e|------------------------------------------------|
B|-4--4--4--#-----4--#--4--4--4--4--#--4-----4----|
G|-5--5--5--#-----5--#--5--5--5--5--#--5-----5----|
D|-x--x--x--#-----x--#--x--x--x--x--#--x-----x----|
A|-x--x--x--#-----x--#--x--x--x--x--#--x-----x----|
E|-4-----------------------3--3--3--#--3-----3----|
+
e|------------------------------------------------|
B|-11-11-11-#-----11-#--11-11-11-11-#--11-#--11-#-|
G|-12-12-12-#-----12-#--12-12-12-12-#--12-#--12-#-|
D|-x--x--x--#-----x--#--x--x--x--x--#--x--#--x--#-|
A|-x--x--x--#-----x--#--x--x--x--x--#--x--#--x--#-|
E|-11-11-11-#-----11-#--11-10-10-10-#--10-#--10-#-|
+
e|------------------------------------------------|
B|-9--9--9--#-----9--#--9--9--9--9--#--9--#--9--#-|
G|-10-10-10-#-----10-#--10-10-10-10-#--10-#--10-#-|
D|-x--x--x--#-----x--#--x--x--x--x--#--x--#--x--#-|
A|-x--x--x--#-----x--#--x--x--x--x--#--x--#--x--#-|
E|-9--9--9--#-----9--#--9--8--8--8--#--8--#--8--#-|



INTERLUDE:
Guitar I
e|------------------------------------------------|
B|------------------------------------------------|
G|-9--9--9--9--9--9--9--#--7--7--7--7--7--7--7--#-|
D|-x--x--x--x--x--x--x--#--x--x--x--x--x--x--x--#-|
A|-7--7--7--7--7--7--7--#--5--5--5--5--5--5--5--#-|
E|------------------------------------------------|
+
e|------------------------------------------------|
B|------------------------------------------------|
G|------------------------------------------------|
D|-9--9--9--7--7--7--7--5--5--5--5--2--2--2--2--#-|
A|-x--x--x--x--x--x--x--x--x--x--x--x--x--x--x--#-|
E|-7--7--7--5--5--5--5--3--3--3--3--0--0--0--0--#-|
+
e|------------------------------------------------|
B|------------------------------------------------|
G|-9--9--9--9--9--9--9--#--7--7--7--7--7--7--7--#-|
D|-x--x--x--x--x--x--x--#--x--x--x--x--x--x--x--#-|
A|-7--7--7--7--7--7--7--#--5--5--5--5--5--5--5--#-|
E|------------------------------------------------|
+
e|------------------------------------------------|
B|------------------------------------------------|
G|------------------------------------------------|
D|-9--9--9--7--7--7--7--5--5--5--5--2--2--2--2--#-|
A|-x--x--x--x--x--x--x--x--x--x--x--x--x--x--x--#-|
E|-7--7--7--5--5--5--5--3--3--3--3--0--0--0--0--#-|
+
e|------------------------------------------------|
B|------------------------------------------------|
G|-9--9--9--9--9--9--9--#--7--7--7--7--7--7--7--#-|
D|-x--x--x--x--x--x--x--#--x--x--x--x--x--x--x--#-|
A|-7--7--7--7--7--7--7--#--5--5--5--5--5--5--5--#-|
E|------------------------------------------------|
+
e|------------------------------------------------|
B|------------------------------------------------|
G|------------------------------------------------|
D|-9--9--9--7--7--7--7--5--5--5--5--2--2--2--2--#-|
A|-x--x--x--x--x--x--x--x--x--x--x--x--x--x--x--#-|
E|-7--7--7--5--5--5--5--3--3--3--3--0--0--0--0--#-|
+
e|------------------------------------------------|
B|------------------------------------------------|
G|-9--9--9--9--9--9--9--#--7--7--7--7--7--7--7--#-|
D|-x--x--x--x--x--x--x--#--x--x--x--x--x--x--x--#-|
A|-7--7--7--7--7--7--7--#--5--5--5--5--5--5--5--#-|
E|------------------------------------------------|
+
e|------------------------------------------------||
B|------------------------------------------------||
G|------------------------------------------------|| x 2
D|-9--9--9--7--7--7--7--5--5--5--5--2--2--2--2--#-||
A|-x--x--x--x--x--x--x--x--x--x--x--x--x--x--x--#-||
E|-7--7--7--5--5--5--5--3--3--3--3--0--0--0--0--#-||



INTERLUDE:
Guitar II
e|------------------------------------------------|
B|------------------------------------------------|
G|------------------------------------------------|
D|------------------------------------------------|
A|-7--7--7--7--7--7--7--#--5--5--5--5--5--5--5--#-|
E|------------------------------------------------|
+
e|------------------------------------------------|
B|------------------------------------------------|
G|------------------------------------------------|
D|------------------------------------------------|
A|------------------------------------------------|
E|-7--7--7--5--5--5--5--3--3--3--3--0--0--0--0--#-|
+
e|------------------------------------------------|
B|------------------------------------------------|
G|------------------------------------------------|
D|------------------------------------------------|
A|-7--7--7--7--7--7--7--#--5--5--5--5--5--5--5--#-|
E|------------------------------------------------|
+
e|------------------------------------------------|
B|------------------------------------------------|
G|------------------------------------------------|
D|------------------------------------------------|
A|------------------------------------------------|
E|-7--7--7--5--5--5--5--3--3--3--3--0--0--0--0--#-|
+
e|------------------------------------------------|
B|-4--4--4--4--4--4--4--4--8--8--8--8--8--8--8--8-|
G|-5--5--5--5--5--5--5--5--7--7--7--7--7--7--7--7-|
D|-x--x--x--x--x--x--x--x--x--x--x--x--x--x--x--x-|
A|-x--x--x--x--x--x--x--x--5--5--5--5--5--5--5--5-|
E|-3--3--3--3--3--3--3--3-------------------------|
+
e|------------------------------------------------|
B|-8--8--10-10-8--8--10-10-8--8--10-10-8--8--10-10|
G|-9--9--9--9--9--9--9--9--9--9--9--9--9--9--9--9-|
D|-x--x--x--x--x--x--x--x--x--x--x--x--x--x--x--x-|
A|-7--7--7--7--x--x--x--x--7--7--7--7--x--x--x--x-|
E|-------------7--7--7--7--------------7--7--7--7-|
+
e|------------------------------------------------|
B|-4--4--4--4--4--4--4--4--8--8--8--8--8--8--8--8-|
G|-5--5--5--5--5--5--5--5--7--7--7--7--7--7--7--7-|
D|-x--x--x--x--x--x--x--x--x--x--x--x--x--x--x--x-|
A|-x--x--x--x--x--x--x--x--5--5--5--5--5--5--5--5-|
E|-3--3--3--3--3--3--3--3-------------------------|
+
e|------------------------------------------------||
B|-8--8--10-10-8--8--10-10-8--8--10-10-8--8--10-10||
G|-9--9--9--9--9--9--9--9--9--9--9--9--9--9--9--9-|| x 2
D|-x--x--x--x--x--x--x--x--x--x--x--x--x--x--x--x-||
A|-7--7--7--7--x--x--x--x--7--7--7--7--x--x--x--x-||
E|-------------7--7--7--7--------------7--7--7--7-||



CHORUS II:
Guitars I + II
e|------------------------------------------------|
B|-6--6--6--#-----6--#--6--6--6--6--#--6--#--6--#-|
G|-7--7--7--#-----7--#--7--7--7--7--#--7--#--7--#-|
D|-x--x--x--#-----x--#--x--x--x--x--#--x--#--x--#-|
A|-x--x--x--#-----x--#--x--x--x--x--#--x--#--x--#-|
E|-6--6--6--#-----6--#--6--5--5--5--#--5--#--5--#-|
+
e|------------------------------------------------|
B|-4--4--4--#-----4--#--4--4--4--4--#--4--#--4--#-|
G|-5--5--5--#-----5--#--5--5--5--5--#--5--#--5--#-|
D|-x--x--x--#-----x--#--x--x--x--x--#--x--#--x--#-|
A|-x--x--x--#-----x--#--x--x--x--x--#--x--#--x--#-|
E|-4-----------------------3--3--3--#--3--#--3--#-|
+
e|------------------------------------------------|
B|-11-11-11-#-----11-#--11-11-11-11-#--11-#--11-#-|
G|-12-12-12-#-----12-#--12-12-12-12-#--12-#--12-#-|
D|-x--x--x--#-----x--#--x--x--x--x--#--x--#--x--#-|
A|-x--x--x--#-----x--#--x--x--x--x--#--x--#--x--#-|
E|-11-11-11-#-----11-#--11-10-10-10-#--10-#--10-#-|
+
e|------------------------------------------------|
B|-9--9--9--#-----9--#--9--9--9--9--#--9--#--9--#-|
G|-10-10-10-#-----10-#--10-10-10-10-#--10-#--10-#-|
D|-x--x--x--#-----x--#--x--x--x--x--#--x--#--x--#-|
A|-x--x--x--#-----x--#--x--x--x--x--#--x--#--x--#-|
E|-9--9--9--#-----9--#--9--8--8--8--#--8--#--8--#-|
+
e|------------------------------------------------|
B|-6--6--6--#-----6--#--6--6--6--6--#--6--#--6--#-|
G|-7--7--7--#-----7--#--7--7--7--7--#--7--#--7--#-|
D|-x--x--x--#-----x--#--x--x--x--x--#--x--#--x--#-|
A|-x--x--x--#-----x--#--x--x--x--x--#--x--#--x--#-|
E|-6--6--6--#-----6--#--6--5--5--5--#--5--#--5--#-|
+
e|------------------------------------------------|
B|-4--4--4--#-----4--#--4--4--4--4--#--4--#--4--#-|
G|-5--5--5--#-----5--#--5--5--5--5--#--5--#--5--#-|
D|-x--x--x--#-----x--#--x--x--x--x--#--x--#--x--#-|
A|-x--x--x--#-----x--#--x--x--x--x--#--x--#--x--#-|
E|-4-----------------------3--3--3--#--3--#--3--#-|
+
e|------------------------------------------------|
B|-11-11-11-#-----11-#--11-11-11-11-#--11-#--11-#-|
G|-12-12-12-#-----12-#--12-12-12-12-#--12-#--12-#-|
D|-x--x--x--#-----x--#--x--x--x--x--#--x--#--x--#-|
A|-x--x--x--#-----x--#--x--x--x--x--#--x--#--x--#-|
E|-11-11-11-#-----11-#--11-10-10-10-#--10-#--10-#-|
+
e|------------------------------------------------|
B|-9--9--9--#-----9--#--9--9--9--9-----9--9--9--9-|
G|-10-10-10-#-----10-#--10-10-10-10----10-10-10-10|
D|-x--x--x--#-----x--#--x--x--x--x-----x--x--x--x-|
A|-x--x--x--#-----x--#--x--x--x--x-----x--x--x--x-|
E|-9--9--9--#-----9--#--9--8--8--8-----8--8--8--8-|



BRIDGE:
Guitars I + II
e|------------------------------------------------|
B|-------9--9--9--9--------9--9--9--9--#-----16---|
G|-------12-12-12-12-------12-12-12-12-#-----14---|
D|------------------------------------------------|
A|------------------------------------------------|
E|-0--x--------------x--0-------------------------|
+
e|------------------------------------------------|
B|-------9--9--9--9--------9--#-----16----15----14|
G|-------12-12-12-12-------12-#--14----13----12---|
D|------------------------------------------------|
A|------------------------------------------------|
E|-0--x--------------x--0-------------------------|
+
e|------------------------------------------------|
B|-------9--9--9--9--------9--9--9--9--#-----4----|
G|-------12-12-12-12-------12-12-12-12-#-----2----|
D|------------------------------------------------|
A|------------------------------------------------|
E|-0--x--------------x--0-------------------------|
+
e|------------------------------------------------|
B|-------9--9--9--9--------4--#-----4--#-----4--#-|
G|-------12-12-12-12-------2--#-----2--#-----2--#-|
D|------------------------------------------------|
A|------------------------------------------------|
E|-0--x--------------x--0-------------------------|
+
e|------------------------------------------------|
B|-------9--9--9--9--------9--9--9--9--#-----16---|
G|-------12-12-12-12-------12-12-12-12-#-----14---|
D|------------------------------------------------|
A|------------------------------------------------|
E|-0--x--------------x--0-------------------------|
+
e|------------------------------------------------|
B|-------9--9--9--9--------9--#-----16----15----14|
G|-------12-12-12-12-------12-#--14----13----12---|
D|------------------------------------------------|
A|------------------------------------------------|
E|-0--x--------------x--0-------------------------|
+
e|------------------------------------------------|
B|-------9--9--9--9--------9--9--9--9--#-----4----|
G|-------12-12-12-12-------12-12-12-12-#-----2----|
D|------------------------------------------------|
A|------------------------------------------------|
E|-0--x--------------x--0-------------------------|
+
e|------------------------------------------------|
B|-------9--9--9--9--------4--#-----4--#-----4--#-|
G|-------12-12-12-12-------2--#-----2--#-----2--#-|
D|------------------------------------------------|
A|------------------------------------------------|
E|-0--x--------------x--0-------------------------|



CHORUS III:
Guitars I + II
e|------------------------------------------------|
B|-6-----6-----6-----6-----6-----6-----6-----6----|
G|-7-----7-----7-----7-----7-----7-----7-----7----|
D|-x-----x-----x-----x-----x-----x-----x-----x----|
A|-x-----x-----x-----x-----x-----x-----x-----x----|
E|-6-----6-----6-----6-----5-----5-----5-----5----|
+
e|------------------------------------------------|
B|-4-----4-----4-----4-----4-----4-----4-----4----|
G|-5-----5-----5-----5-----5-----5-----5-----5----|
D|-x-----x-----x-----x-----x-----x-----x-----x----|
A|-x-----x-----x-----x-----x-----x-----x-----x----|
E|-4-----4-----4-----4-----3-----3-----3-----3----|
+
e|------------------------------------------------|
B|-11----11----11----11----11----11----11----11---|
G|-12----12----12----12----12----12----12----12---|
D|-x-----x-----x-----x-----x-----x-----x-----x----|
A|-x-----x-----x-----x-----x-----x-----x-----x----|
E|-11----11----11----11----10----10----10----10---|
+
e|------------------------------------------------|
B|-9-----9-----9-----9-----9-----9-----9-----9----|
G|-10----10----10----10----10----10----10----10---|
D|-x-----x-----x-----x-----x-----x-----x-----x----|
A|-x-----x-----x-----x-----x-----x-----x-----x----|
E|-9-----9-----9-----9-----8-----8-----8-----8----|
+
e|------------------------------------------------|
B|-6-----6-----6-----6-----6-----6-----6-----6----|
G|-7-----7-----7-----7-----7-----7-----7-----7----|
D|-x-----x-----x-----x-----x-----x-----x-----x----|
A|-x-----x-----x-----x-----x-----x-----x-----x----|
E|-6-----6-----6-----6-----5-----5-----5-----5----|
+
e|------------------------------------------------|
B|-4-----4-----4-----4-----4-----4-----4-----4----|
G|-5-----5-----5-----5-----5-----5-----5-----5----|
D|-x-----x-----x-----x-----x-----x-----x-----x----|
A|-x-----x-----x-----x-----x-----x-----x-----x----|
E|-4-----4-----4-----4-----3-----3-----3-----3----|
+
e|------------------------------------------------|
B|-11----11----11----11----11----11----11----11---|
G|-12----12----12----12----12----12----12----12---|
D|-x-----x-----x-----x-----x-----x-----x-----x----|
A|-x-----x-----x-----x-----x-----x-----x-----x----|
E|-11----11----11----11----10----10----10----10---|
+
e|------------------------------------------------|
B|-9-----9-----9-----9-----9-----9-----9-----9----|
G|-10----10----10----10----10----10----10----10---|
D|-x-----x-----x-----x-----x-----x-----x-----x----|
A|-x-----x-----x-----x-----x-----x-----x-----x----|
E|-9-----9-----9-----9-----8-----8-----8-----8----|
+
e|------------------------------------------------|
B|-------------12+---------12+--------------------|
G|-12+---------12+---------12+--------------------|
D|-12+---------12+---------12+--------------------|
A|-x----------------------------------------------|
E|-12---------------------------------------------|



SONG STRUCTURE:
INTRO
VERSE
CHORUS I
INTERLUDE
CHORUS II
BRIDGE
CHORUS III



That's it. Please leave comments or suggestions, corrections, requests, etc.
Cheers!
-Bennyshambles78-


comments
print report bad tab
3 comments total.
0 reply
jipson wrote on January 8 2013, 01:38 pm

Dude this is perfect!!!!!! Could you tab You're Blessed? I would be so so so so thankful. This is immense though good job bro

0 reply
bennyshambles78 wrote on January 10 2013, 02:40 pm

Yeah, I'm pretty sure I figured that one out as well. Give me a few days and I'll try to get it up here; "You're Blessed" is definitely one of their best jams, for sure.

0 reply
pye3214 wrote on January 14 2013, 07:49 pm

Thanks much! I look forward to the You're Blessed tab, as I was getting the urge to do it myself, but waiting for it sounds nice as well ha.

I want to post or [tab]
guest
You may want to rate the tab now too:
select rating
Please do not post tabs as comments. Select "correction" instead!