Oops, an error
Loading. Please wait.

Iced Earth Tab

ver1
ver1

Album

Solo

Whole song

More versions @911Tabs.com
2,828 views 12 this week
no commentswrite comment
1 2 3 4 5
excellent!
x 1
Autoscroll
+/-
esc
set tempo
stop
Contributor
Difficulty
advanced
WARNING: You are trying to view
                                    content from Ultimate-Guitar.com
                                    in an unauthorized application,
                                    which is prohibited.

                                    Please use an official Ultimate
                                    Guitar Tabs application for iPhone,
                                    iPad or Android to access legitimate
                                    chords, guitar, bass, and drum tabs
                                    from Ultimate-Guitar.com database.

                                    Type "ultimate guitar tabs" in Apple
                                    App Store's or Android Market's
                                    search to find the application.
Band - Iced Earth
Album - Iced Earth

Track Listings:
1. Iced Earth
2. Written On The Walls
3. Colors
4. Curse The Sky
5. Life And Death
6. Solitude
7. Funeral
8. When The Night Falls

-----------------------------------------------------

1. ICED EARTH

Tuning: Eb

Riff 1
Guitar 1 
eb|-----------------------------------|
Bb|-----------------------------------|
Gb|----4-5--5--4tr5-4tr5-4tr5-4h5p4p0-|
Db|-----------------------------------|
Ab|-4---------------------------------|
Eb|-2---------------------------------|

eb|-----------------------------------|
Bb|-----------------------------------|
Gb|-----------------------------------|
Db|----5-4--4--4tr5-4tr5-4tr5-4h5p4p0-|
Ab|-4---------------------------------|
Eb|-2---------------------------------|

eb|-----------------------------------|
Bb|-----------------------------------|
Gb|----4-5--5--4tr5-4tr5-4tr5-4h5p4p0-|
Db|-----------------------------------|
Ab|-4---------------------------------|
Eb|-2---------------------------------|

eb|---------------------------------|
Bb|---------------------------------|
Gb|---------------------------------|
Db|----5-4--4--4tr5-4tr5-4tr5-------|
Ab|-4-------------------------------|
Eb|-2--------------------------/17\-|

Guitar 2 
eb|----------------------------------------|
Bb|-----------------7tr8-7tr8-7tr8-7h8p7p0-|
Gb|----4-5--5--(5)/------------------------|
Db|----------------------------------------|
Ab|-4--------------------------------------|
Eb|-2--------------------------------------|

eb|-----------------------------------|
Bb|-----------------------------------|
Gb|------------6tr7-6tr7-6tr7-6h7p6p0-|
Db|----5-4--4-------------------------|
Ab|-4---------------------------------|
Eb|-2---------------------------------|

eb|----------------------------------------|
Bb|-----------------7tr8-7tr8-7tr8-7h8p7p0-|
Gb|----4-5--5--(5)/------------------------|
Db|----------------------------------------|
Ab|-4--------------------------------------|
Eb|-2--------------------------------------|

eb|------------------------------|
Bb|------------------------------|
Gb|------------6tr7-6tr7-6tr7-7\-|
Db|----5-4--4--------------------|
Ab|-4----------------------------|
Eb|-2----------------------------|



Riff 2
eb|----------------------------------------|
Bb|----------------------------------------|
Gb|----------------------------------------|
Db|------4-5----5-5----5----5-5------------|
Ab|-4----2-3-33-3-3-33-3-33-3-3-3333-3p2p0-|
Eb|-2-22-----------------------------------|
      **     **     **   **     ****        
   "What do I see..."
eb|----------------------------------------|
Bb|----------------------------------------|
Gb|----------------------------------------|
Db|----------------------------------------|
Ab|-4----5-4----4-4----4----4-4------------|
Eb|-2-22-3-2-22-2-2-22-2-22-2-2-2222-3p2p0-|
      **     **     **   **         
   "...on the icy plains..."

Final time before bass interlude:
eb|-------------------------------------------|
Bb|-------------------------------------------|
Gb|-------------------------------------------|
Db|-------------------------------------------|
Ab|-4----5-4----4-4----4----4-4-------------4-|
Eb|-2-22-3-2-22-2-2-22-2-22-2-2-2222-3p2p0--2-|
      **     **     **   **         
   "...the king of this waste..."

"Can't you see this barren land..."

Slide into Riff 2  "I stand on the glacier..."

Final time before next section:
eb|-------------------------------------------|
Bb|-------------------------------------------|
Gb|-------------------------------------------|
Db|-------------------------------------------|
Ab|-4----5-4----4-4----4----4-4-------------4-|
Eb|-2-22-3-2-22-2-2-22-2-22-2-2-2222-3p2p0--2-|
      **     **     **   **         
   "...mark them or fall..."



Riff 3 (Clean)
eb|----------------------------|
Bb|------7-------------9-------|
Gb|---6-----6---6---8-----8----|
Db|-4---------4---6---------6\-|
Ab|----------------------------|
Eb|----------------------------|
   "Can you feel..."
eb|---------------------------------|
Bb|------5------------10--------12--|
Gb|---4-----4---4---9----9---11-----|
Db|-2---------2---7--------9--------|
Ab|---------------------------------|
Eb|---------------------------------|
   "...drawing you..."

Final time:
eb|---------------------------------|
Bb|------5------------10--------12\-|
Gb|---4-----4---4---9----9---11-----|
Db|-2---------2---7--------9--------|
Ab|---------------------------------|
Eb|---------------------------------|



Riff 3a (Distortion)
eb|--------------------|
Bb|--------------------|
Gb|-6-6---6----8-8---8-|
Db|-4-4---4----6-6---6-|
Ab|-----0----------0---|
Eb|--------------------|
        *          *
   "We are together..."
eb|-----------------------------------|
Bb|-------------------10--------12----|
Gb|-4-4---4--4------9--------11-------|
Db|-2-2---2--2--777------999-------44-|
Ab|-----0-----------------------------|
Eb|-----------------------------------|
        *
   "Crush the cowards..."


Riff 3b (After the lyrics)
Guitar 1
eb|-------------------------|
Bb|-------------------------|
Gb|-6-6---6--6/-8-8---8--8\-|
Db|-4-4---4--4/-6-6---6--6\-|
Ab|-----0-----------0-------|
Eb|-------------------------|
        *           *
eb|-----------------------------------|
Bb|-------------------10--------12----|
Gb|-4-4---4--4------9--------11-------|
Db|-2-2---2--2--777------999-------44-|
Ab|-----0-----------------------------|
Eb|-----------------------------------|
        *
eb|-------------------------|
Bb|-------------------------|
Gb|-6-6---6--6/-8-8---8--8\-|
Db|-4-4---4--4/-6-6---6--6\-|
Ab|-----0-----------0-------|
Eb|-------------------------|
        *           *
eb|----------------------------------|
Bb|-------------------10--------12\--|
Gb|-4-4---4--4------9--------11------|
Db|-2-2---2--2--777------999---------|
Ab|-----0----------------------------|
Eb|----------------------------------|
        *

Guitar 2
Here's the "Iced Earth" version:
eb|---------------------------------------|
Bb|-------11-14-11------------13-16-13----|
Gb|----------------11------------------13-|
Db|---11------------------13--------------|
Ab|-9------------------11-----------------|
Eb|---------------------------------------|

eb|----------------------------------------------|
Bb|------9-12-9----------------14-------------16-|
Gb|-------------9-----------14-------------16----|
Db|---9------------11-11-11-------13-13-13-------|
Ab|-7--------------------------------------------|
Eb|----------------------------------------------|
                    *  *  *        *  *  *
eb|---------------------------------------|
Bb|-------11-14-11------------13-16-13----|
Gb|----------------11------------------13-|
Db|---11------------------13--------------|
Ab|-9------------------11-----------------|
Eb|---------------------------------------|

eb|-----------------------------------------------|
Bb|------9-12-9----------------14-------------16\-|
Gb|-------------9-----------14-------------16-----|
Db|---9------------11-11-11-------13-13-13--------|
Ab|-7---------------------------------------------|
Eb|-----------------------------------------------|
                    *  *  *        *  *  *

Here's the live version:
eb|--------6-9-6---------8-11-8-|
Bb|------7-------------9--------|
Gb|---6-------------8-----------|
Db|-4-------------6-------------|
Ab|-----------------------------|
Eb|-----------------------------|

eb|--------4-7-4----------------------|
Bb|------5--------------10---------12-|
Gb|---4---------------9---------11----|
Db|-2-------------777-------999-------|
Ab|-----------------------------------|
Eb|-----------------------------------|

 
Riff 4
Guitar 1                                                                   
eb|--------------------------------------|
Bb|--------------------------------------|
Gb|--------------------------------------|
Db|--------------------------------------|
Ab|----4-5-4--4-5-4------2-3-5-3-2-------|
Eb|-2---------------3--3-----------5-3-0-|
                                       Final chord
eb|------------------------------------|---|
Bb|------------------------------------|---|
Gb|------------------------------------|---|
Db|------------------------------------|---|
Ab|----4-5-4--4-5-4-2------------------|-4-|
Eb|-2------------------5-3-2-5-3-2-5-3-|-2-|

Guitar 2
Here is the album version:
eb|-----------------------------------------------|
Bb|-----------------------------------------------|
Gb|----10-11-10--10-11-10------8-9-11-9-8---------|
Db|-8---------------------9--9------------11-9----|
Ab|--------------------------------------------11-|
Eb|-----------------------------------------------|
                                                Final notes
eb|---------------------------------------------|----------|
Bb|---------------------------------------------|----------|
Gb|----10-11-10--10-11-10-8---------------------|----------|
Db|-8------------------------11-9-8-11-9-8-11-9-|-8--(8)\4-|
Ab|---------------------------------------------|----------|
Eb|---------------------------------------------|----------|

Here's the live version:
eb|--------------------------------------|
Bb|--------------------------------------|
Gb|----6-7-6--6-7-6------4-5-7-5-4-------|
Db|-4---------------5--5-----------7-5---|
Ab|------------------------------------7-|
Eb|--------------------------------------|
                                       Final note
eb|------------------------------------|-----|
Bb|------------------------------------|-----|
Gb|----6-7-6--6-7-6-4------------------|-----|
Db|-4------------------7-5-4-7-5-4-7-5-|--4--|
Ab|------------------------------------|-----|
Eb|------------------------------------|-----|



Riff 5
Guitar 1
eb|------------------------------|
Bb|------------------------------|
Gb|-6------------6---------------|
Db|-4--4-444-444---4-4-4-444-444-|
Ab|------------------------------|
Eb|------------------------------|
       * *** ***   * * * *** *** 
eb|-------------------------------|
Bb|-------------------------------|
Gb|-7---------------6---------4-4-|
Db|---4-4-4-444-444---4-4-4---2-2-|
Ab|-------------------------0-----|
Eb|-------------------------------|
      * * * *** ***   * * * *
eb|-------------------------------|
Bb|-------------------------------|
Gb|-6-------------6---------------|
Db|-4-444-444-444---4-4-4-444-444-|
Ab|-------------------------------|
Eb|-------------------------------|
      *** *** ***   * * * *** *** 
eb|-------------------------------|
Bb|-------------------------------|
Gb|-7---------------6---------4-4-|
Db|---4-4-4-444-444---4-4-4---2-2-|
Ab|-------------------------0-----|
Eb|-------------------------------|
      * * * *** ***   * * * *


Guitar 2
eb|------------------------------|
Bb|------------------------------|
Gb|------------------------------|
Db|-------[silent]---------------|
Ab|------------------------------|
Eb|------------------------------|

eb|-------------------------------|
Bb|-------------------------------|
Gb|---------------------------4-4-|
Db|-------[silent]------------2-2-|
Ab|-------------------------0-----|
Eb|-------------------------------|
                            *
eb|------------------------------|
Bb|------------------------------|
Gb|-6----------------------------|
Db|-4------------6---------------|
Ab|--------------4---------------|
Eb|------------------------------|

eb|-------------------------------|
Bb|-------------------------------|
Gb|---------------------------4-4-|
Db|-7---------------6---------2-2-|
Ab|-5---------------4-------0-----|
Eb|-------------------------------|
                            *


Riff 5a
eb|-------------------------------|
Bb|-------------------------------|
Gb|-6-------------6---------------|
Db|-4-444-444-444---4-4-4-444-444-|
Ab|-------------------------------|
Eb|-------------------------------|
      *** *** ***   * * * *** *** 
eb|-------------------------------|
Bb|-------------------------------|
Gb|-7---------------6---------4-4-|
Db|---4-4-4-444-444---4-4-4---2-2-|
Ab|-------------------------0-----|
Eb|-------------------------------|
      * * * *** ***   * * * *


Riff 5a
eb|-------------------------------|
Bb|-------------------------------|
Gb|-9-------------9---------------|
Db|-7-777-777-777---7-7-7-777-777-|
Ab|-------------------------------|
Eb|-------------------------------|
      *** *** ***   * * * *** *** 
eb|--------------------------------|
Bb|--------------------------------|
Gb|-10---------------9---------7-7-|
Db|----7-7-7-777-777---7-7-7---5-5-|
Ab|--------------------------0-----|
Eb|--------------------------------|
       * * * *** ***   * * * *


Riff 6
eb|----------------------------------|
Bb|----------------------------------|
Gb|-5-----------4--4-4-4-------------|
Db|-3-3-333-553-2--2-2-2-3p2p0-------|
Ab|----------------------------3p2p0-|
Eb|----------------------------------|
      * *** ***       
eb|-----------------------------|
Bb|-----------------------------|
Gb|-5-----------4---------------|
Db|-3-3-333-553-2---------------|
Ab|----------------------2------|
Eb|----------------0-0-0-0--0-0-|
      * *** ***    * * *    * *
eb|----------------------------------|
Bb|----------------------------------|
Gb|-5-----------4--4-4-4-------------|
Db|-3-3-333-553-2--2-2-2-3p2p0-------|
Ab|----------------------------3p2p0-|
Eb|----------------------------------|
      * *** ***       
eb|-------------------------------|
Bb|-------------------------------|
Gb|-5-----------4-----------------|
Db|-3-3-333-553-2-----------------|
Ab|-------------------------------|
Eb|----------------0-0-0-0-0-/12\-|
      * *** ***    * * * * *



Riff 7 (Play 2x)
eb|-----------------------------|
Bb|-----------------------------|
Gb|-----------------------------|
Db|-------------5-------------2-|
Ab|-2-----------3-3-3-333-333-0-|
Eb|-0-0-000-000-----------------|
      * *** ***   * * *** ***
eb|------------------------------|
Bb|------------------------------|
Gb|------------------------------|
Db|-------------4----------------|
Ab|-2-----------2--2-5-3-2-------|
Eb|-0-0-000-000------------5-3-2-|
      * *** ***    * * * * * * *
eb|----------------------------|
Bb|----------------------------|
Gb|----------------------------|
Db|----------------------------|
Ab|-2-----------5--5-5-5--5----|
Eb|-0-0-000-000-3--3-3-3--3--0-|
      * *** ***
eb|-------------------------------|
Bb|-------------------------------|
Gb|-------------------------------|
Db|-----------------5-------------|
Ab|-4--4-4-4--5-3-2-3----2--------|
Eb|-2--2-2-2-----------0-0--0-0-0-|
              * * *    *    * * *


Riff 7a (Solo Rhythm)
eb|-----------------------------|
Bb|-----------------------------|
Gb|-----------------------------|
Db|-------------5-------------2-|
Ab|-2-----------3-3-3-333-333-0-|
Eb|-0-0-000-000-----------------|
      * *** ***   * * *** ***
eb|-----------------------------|
Bb|-----------------------------|
Gb|-----------------------------|
Db|-------------4-------------2-|
Ab|-2-----------2-2-2-222-222-0-|
Eb|-0-0-000-000-----------------|
      * *** ***   * * *** ***
eb|----------------------------|
Bb|----------------------------|
Gb|----------------------------|
Db|----------------------------|
Ab|-2-----------5--5-5-5--5----|
Eb|-0-0-000-000-3--3-3-3--3--0-|
      * *** ***
eb|------------------------------|
Bb|------------------------------|
Gb|------------------------------|
Db|----------------5-------------|
Ab|-4--4-4-4-5-3-2-3----2--------|
Eb|-2--2-2-2----------0-0--0-0-0-|
             * * *    *    * * *

Solo
eb|-----------------------0-0---------24-------|
Bb|----------15-13-12-13----0-------24-h-24----|
Gb|-------------------------------24-h----h-24-|
Db|-----------------------------24-h---------h-|
Ab|-10~--9~----------------------h-------------|
Eb|--------------------------------------------|

eb|-15-17-15----19---------20-20-20-19-19-19-17-17-17-|
Bb|----------17------------20-20-20-19-19-19-17-17-17-|
Gb|-----------------16~-------------------------------|
Db|---------------------------------------------------|
Ab|---------------------------------------------------|
Eb|---------------------------------------------------|
                                                               
eb|-15-15-15-17-17-17-19-19-19-15-17~-|
Bb|-15-15-15-17-17-17-19-19-19-15-----|
Gb|-----------------------------------|
Db|-----------------------------------|
Ab|-----------------------------------|
Eb|-----------------------------------|

eb|-12tr15--------------------------------0-0-|
Bb|--------12tr15--15--------15-13-12-13----0-|
Gb|----------------14b16~---------------------|
Db|-------------------------------------------|
Ab|-------------------------------------------|
Eb|-------------------------------------------|

eb|-17p15p12--------17p15p12--------17p15p12---------|
Bb|---------12h15h17--------12h15h17--------12h15h17-|
Gb|--------------------------------------------------|
Db|--------------------------------------------------|
Ab|--------------------------------------------------|
Eb|--------------------------------------------------|

eb|-17p15p12--------------|
Bb|---------12h15/17-17~~-|
Gb|-----------------------|
Db|-----------------------|
Ab|-----------------------|
Eb|-----------------------|

eb|--------------------------|
Bb|--------------------------|
Gb|-11-9-7---------7-9-------|
Db|--------10-9-10-----10-7~-|
Ab|--------------------------|
Eb|--------------------------|

eb|-------------------------------------|
Bb|-------------------------------------|
Gb|-------------------16h18h19-16h18h19-|
Db|-16h18h19-16h18h19-------------------|
Ab|-------------------------------------|
Eb|-------------------------------------|  

eb|-------------------17h19h20-17h19h20-19~~-|
Bb|-17h19h20-17h19h20------------------------|
Gb|------------------------------------------|
Db|------------------------------------------|
Ab|------------------------------------------|
Eb|------------------------------------------|

End solo


Riff 8
Guitar 1
eb|-------------------------------------------------|
Bb|-------------------------------------------------|
Gb|-------------------------------------------------|
Db|-------------------------------------------------|
Ab|-------4-----------2-----------4-----------2-----|
Eb|-2-222---2-2-3-333---3-3-2-222---2-2-3-333---3-3-|
    * ***   * * * ***   * * * ***   * * * ***   * *
eb|-------------------------------------------------|
Bb|-------------------------------------------------|
Gb|-------------------------------------------------|
Db|-------------------------------------------------|
Ab|-------5-----------3-----------5-----------3-----|
Eb|-3-333---3-3-4-444---4-4-3-333---3-3-4-444---4-4-|
    * ***   * * * ***   * * * ***   * * * ***   * *
eb|-------------------------------------------------|
Bb|-------------------------------------------------|
Gb|-------------------------------------------------|
Db|-------------------------------------------------|
Ab|-------4-----------2-----------4-----------2-----|
Eb|-2-222---2-2-3-333---3-3-2-222---2-2-3-333---3-3-|
    * ***   * * * ***   * * * ***   * * * ***   * *
eb|-----------------------------------------------|
Bb|-----------------------------------------------|
Gb|-----------------------------------------------|
Db|-----------------------------------------------|
Ab|-------5-----------3-----------5-----------3/--|
Eb|-3-333---3-3-4-444---4-4-3-333---3-3-4-444-----|
    * ***   * * * ***   * * * ***   * * * ***

Guitar 2 (Comes in the second time)
eb|--------------------------------------------------|
Bb|--------------------------------------------------|
Gb|-------6-----------4-----------6-----------4------|
Db|-4-444---4-4-5-555---5-5-4-444---4-4-5-555---5-5--|
Ab|--------------------------------------------------|
Eb|--------------------------------------------------|
    * ***   * * * ***   * * * ***   * * * ***   * *
eb|--------------------------------------------------|
Bb|--------------------------------------------------|
Gb|-------7-----------5-----------7-----------5------|
Db|-5-555---5-5-6-666---6-6-5-555---5-5-6-666---6-6--|
Ab|--------------------------------------------------|
Eb|--------------------------------------------------|
    * ***   * * * ***   * * * ***   * * * ***   * *


Riff 9
Guitar 1
eb|---------------------------------|
Bb|---------------------------------|
Gb|---------------------------------|
Db|-9-----9-----9--10----10----1010-|
Ab|-7-777-7-777-7-7-7-777-7-777-7-7-|
Eb|---------------------------------|
      ***   ***   *   ***   ***
eb|---------------------------------|
Bb|---------------------------------|
Gb|---------------------------------|
Db|-9-----9-----9-9-8-----8-----8-8-|
Ab|-6-666-6-666-6-6-6-666-6-666-6-6-|
Eb|---------------------------------|
      ***   ***       ***   ***
eb|---------------------------------|
Bb|---------------------------------|
Gb|---------------------------------|
Db|-9-----9-----9--10----10----1010-|
Ab|-7-777-7-777-7-7-7-777-7-777-7-7-|
Eb|---------------------------------|
      ***   ***   *   ***   ***
eb|--------------------------------|
Bb|--------------------------------|
Gb|--------------------------------|
Db|-9-----9-----9-9-8-----8-----8\-|
Ab|-6-666-6-666-6-6-6-666-6-666-6\-|
Eb|--------------------------------|
      ***   ***       ***   ***

Guitar 2
eb|---------------------|
Bb|---------------------|
Gb|---------------------|
Db|-9-------------------|
Ab|-7----------------2--|
Eb|------------------0--|



Play Riff 2  "So on and on..."


Riff 2a (Solo Rhythm)
eb|---------------------------------------|
Bb|---------------------------------------|
Gb|---------------------------------------|
Db|------4-5----5-5-----------------------|
Ab|-4----2-3-33-3-3-33-4----5-4----4-4----|
Eb|-2-22---------------2-22-3-2-22-2-2-22-|
      **     **     **   **     **     **

Final time:
eb|----------------------------------|
Bb|----------------------------------|
Gb|----------------------------------|
Db|------4-5----5-5------------------|
Ab|-4----2-3-33-3-3-33-4----5-4------|
Eb|-2-22---------------2-22-3-2----0-|
      **     **     **   **


Solo
eb|-2--(2)/11-----|
Bb|-2--(2)/11-----|
Gb|-[long slide]--|
Db|---------------|
Ab|---------------|
Eb|---------------|

eb|-14-13-12-11------------------------------------------|
Bb|------------15-14-13-12-------------------------------|
Gb|-----------------------15-14-13-12--------------------|
Db|----------------------------------16-15-14-13-----16~-|
Ab|---------------------------------------------17-15----|
Eb|------------------------------------------------------|

eb|--------------------------------------------------|
Bb|-20t17-19t16-19t16-18t15-18t15-17t14-17t14/-20t17-|
Gb|--------------------------------------------------|
Db|--------------------------------------------------|
Ab|--------------------------------------------------|
Eb|--------------------------------------------------|

eb|--------------------------------------------------|
Bb|-20t17-19t16-19t16-18t15-18t15-17t14-17t14/-20t17-|
Gb|--------------------------------------------------|
Db|--------------------------------------------------|
Ab|--------------------------------------------------|
Eb|--------------------------------------------------|

eb|---------------------------------------------------------|
Bb|-20t17-19t16-19t16-18t15-18t15-17t14-17t14/-19t17-17b19~-|
Gb|---------------------------------------------------------|
Db|---------------------------------------------------------|
Ab|---------------------------------------------------------|
Eb|---------------------------------------------------------|

eb|---------------------------------|
Bb|---------------------------------|
Gb|---------------------------11----|
Db|-------------------9-11-12----12-|
Ab|------------9-10-9---------------|
Eb|-10-9-10-12----------------------|
     * *  *  * *  * * *  *  * 
eb|------------9-------|
Bb|---------10---10-9~-|
Gb|-9-11-12---------a--|
Db|--------------------|
Ab|--------------------|
Eb|--------------------|

eb|-12-15-17p15p14---------0-19p17p15-15----------0-|
Bb|---------------17p15p14---------------19p17p15---|
Gb|-------------------------------------------------|
Db|-------------------------------------------------|
Ab|-------------------------------------------------|
Eb|-------------------------------------------------|

eb|-17p15p14---------0-19-19p17p15-17-21~-|
Bb|---------17p15p14----------------------|
Gb|---------------------------------------|
Db|---------------------------------------|
Ab|---------------------------------------|
Eb|---------------------------------------|

End Solo


Ending
eb|-------------------------------------|
Bb|-------------------------------------|
Gb|-------------------------------------|
Db|-------------------------------------|
Ab|------2-3-333-3----------------------|
Eb|-2-55-----------55-2-22-3-2-222-2-55-|
    * ** * * *** * ** * ** * * *** * **  

Last time (Ending on DOP)   
eb|----------------------------|
Bb|----------------------------|
Gb|----------------------------|
Db|----------------------------|
Ab|------2-3-333-3-----------4-|
Eb|-2-55-----------55-2-22-3-2-|
    * ** * * *** * ** * ** * 

-------------------------------------------------------

2. WRITTEN ON THE WALLS

Tuning: Eb

NOTE:  The first lyrics are from Written on the Walls, 
the second from Cast in Stone.  Riff changes have been 
noted as well.

Riff 1
Guitar 1
eb|-----------------------|
Bb|-----------------------|
Gb|-----------------------|
Db|-----------------------|
Ab|--5-----4-----7-----2--|
Eb|--3-----2-----5-----0--|

Guitar 2 (not on DOP version)
eb|----------------------------------------|
Bb|----------------------------------------|
Gb|----------------------------------------|
Db|--0-0-12-0-13-0-10-12--0-0-8-0-10-0-7-8-|
Ab|----------------------------------------|
Eb|----------------------------------------|
     * *  * *  * *  *  *  * * * *  * * * * 


Riff 2
Guitar 1
eb|---------------------------------|
Bb|---------------------------------|
Gb|-7-------8-7-5-7-6-------7-6-4-6-|
Db|-5----55-5-5-5-5-4----44-4-4-4-4-|
Ab|---------------------------------|
Eb|---------------------------------|
         **              **         Ending
eb|---------------------------------|-------------|
Bb|---------------------------------|-------------|
Gb|-9------10-9-7-9-----------------|-------------|
Db|-7----77-7-7-7-7-9------10-9-7-9-|-------------|
Ab|-----------------7----77-7-7-7-7-|--5----------|
Eb|---------------------------------|--3--------0-|
         **              ** 

Guitar 2                               x2
eb|----------15h20p15-------------------|
Bb|-15h20p15----------15h20p15----------|
Gb|----------------------------15h19p15-|
Db|-------------------------------------|
Ab|-------------------------------------|
Eb|-------------------------------------|

eb|----------14h19p14-------------------|
Bb|-14h19p14----------14h19p14----------|
Gb|----------------------------14h18p14-|
Db|-------------------------------------|
Ab|-------------------------------------|
Eb|-------------------------------------|

eb|----------14h19p14--------------------|
Bb|-14h19p14----------14h19p14-----------|
Gb|----------------------------14h18p14\-|
Db|--------------------------------------|
Ab|--------------------------------------|
Eb|--------------------------------------|
                              x2
eb|--------5h10p5--------------|
Bb|-5h10p5--------5h10p5-------|
Gb|----------------------5h9p5-|
Db|----------------------------|
Ab|----------------------------|
Eb|----------------------------|
                                       x2
eb|----------12h17p12-------------------|
Bb|-12h17p12----------12h17p12----------|
Gb|----------------------------12h16p12-|
Db|-------------------------------------|
Ab|-------------------------------------|
Eb|-------------------------------------|

Repeat the above, then:
eb|--15~--|
Bb|-------|
Gb|-------|
Db|-------|
Ab|-------|
Eb|-------|



Riff 3
eb|---------------------------------------|
Bb|---------------------------------------|
Gb|---------------------------------------|
Db|---------------------------------------|
Ab|-5------------------4------------------|
Eb|-3-3-333-333-...-00-2-2-222-222-...-00-|
      * *** ***     **   * *** ***     ** 
   "On the night the darkness fell..."
   "On the fall of our kingdom..."
eb|---------------------------------------------------|
Bb|---------------------------------------------------|
Gb|---------------------------------------------------|
Db|---------------------------------------------------|
Ab|-7------------------2------------------------------|
Eb|-5-5-555-555-...-00-0-0-000-0-0-000-0-0-000-000-00-|
      * *** ***     **   * *** * * *** * * *** *** **


Riff 4
Guitar 1
eb|----------------------------------|
Bb|----------------------------------|
Gb|----------------------------------|
Db|-5-555-555-555-555-555-555-555-44-|
Ab|----------------------------------|
Eb|----------------------------------|
    * *** *** *** *** *** *** *** **
eb|----------------------------------|
Bb|----------------------------------|
Gb|----------------------------------|
Db|-4-444-444-444-444-444-444-444-77-|
Ab|----------------------------------|
Eb|----------------------------------|
    * *** *** *** *** *** *** *** **
eb|----------------------------------|
Bb|----------------------------------|
Gb|----------------------------------|
Db|-7-777-777-777-777-777-777-777----|
Ab|-------------------------------77-|
Eb|----------------------------------|
    * *** *** *** *** *** *** *** **
eb|----------------------------------|
Bb|----------------------------------|
Gb|----------------------------------|
Db|----------------------------------|
Ab|-7-777-777-777-777-777-777-777-77-|
Eb|----------------------------------|
    * *** *** *** *** *** *** *** **


Guitar 2
eb|---------------------------------|
Bb|---------------------------------|
Gb|-----7---8---7---5---7---8---7---|
Db|-5-5---5---5---5---5---5---5---4-|
Ab|---------------------------------|
Eb|---------------------------------|
    * *   *   *   *   *   *   *   *
eb|---------------------------------|
Bb|---------------------------------|
Gb|-----6---7---6---4---6---7---6---|
Db|-4-4---4---4---4---4---4---4---7-|
Ab|---------------------------------|
Eb|---------------------------------|
    * *   *   *   *   *   *   *   *
eb|-----------------------------------|
Bb|-----------------------------------|
Gb|-----9---10---9---7---9---10---9---|
Db|-7-7---7----7---7---7---7----7-----|
Ab|---------------------------------7-|
Eb|-----------------------------------|
    * *   *    *   *   *   *    *   * 
eb|-----------------------------------|
Bb|-----------------------------------|
Gb|-----------------------------------|
Db|-----9---10---9---7---9---10---9---|
Ab|-7-7---7----7---7---7---7----7---7-|
Eb|-----------------------------------|
    * *   *    *   *   *   *    *   *

Guitar 3 (let chords ring)
eb|-----|
Bb|-----|
Gb|--7--|
Db|--5--|
Ab|-----|
Eb|-----|

eb|-----|
Bb|-----|
Gb|--6--|
Db|--4--|
Ab|-----|
Eb|-----|

eb|-----|
Bb|-----|
Gb|--9--|
Db|--7--|
Ab|-----|
Eb|-----|

eb|-----|
Bb|-----|
Gb|-----|
Db|--9--|
Ab|--7--|
Eb|-----|



Play Riff 3   "We run to find a place..."
              "Entombed, now and forever..."
Play Riff 4   

Lead into next section:
eb|-----|
Bb|-----|
Gb|-----|
Db|-----|
Ab|--2--|
Eb|--0--|


Riff 5 (Guitar 2 plays notes in () )  Fill used later
eb|-----------------------------------|--10-8-7-----------|
Bb|-----------------------------------|--------10-8-7-----|
Gb|-(5)-------(9)-------(4)-------(7)-|---------------9-7-|
Db|-----------------------------------|-------------------|
Ab|--7---------2---------5---------0--|-------------------|
Eb|-----------------------------------|-------------------|
    "As I lay here..."
    "Long ago..."


Riff 6 (Guitar 2 plays notes in () )
eb|------------------------------------|
Bb|------------------------------------|
Gb|-(5)--------------(9)---------------|
Db|------------------------------------|
Ab|--7-777-7777777-77-2-222-2222222-22-|
Eb|------------------------------------|
     * *** ******* ** * *** ******* ** 
eb|------------------------------------|
Bb|------------------------------------|
Gb|-(4)--------------(7)---------------|
Db|------------------------------------|
Ab|--5-555-5555555-55-0-000-0000000-00-|
Eb|------------------------------------|
     * *** ******* ** * *** ******* **

Final time:
eb|-------------------------10-8-7------------|
Bb|--------------------------------10-8-7-----|
Gb|-(4)--------------(7)------------------9-7-|
Db|-------------------------------------------|
Ab|--5-555-5555555-55-0-000-0000000-0-0-------|
Eb|-------------------------------------------|
     * *** ******* ** * *** ******* * *


Riff 7 (Acoustic)
eb|-0--0-0--0-0-----------0--------|
Bb|-1--1-0--1-1--------------0-----|
Gb|-2--2-2--2-2--2-2----0------0---|
Db|-2--2-2--2-2--2-2----2--------0-|
Ab|-0--0-0--0-0--0-0-2--2----------|
Eb|------------------0--0----------|
    "Armageddon town life..."
    "The darkest corner..."

Final time:
eb|-0--0-0--0-0-----------|
Bb|-1--1-0--1-1-----------|
Gb|-2--2-2--2-2--2-2------|
Db|-2--2-2--2-2--2-2------|
Ab|-0--0-0--0-0--0-0-2----|
Eb|------------------0----|


Riff 8 (Distortion)
NOTE: For "Cast In Stone", the following riff
doesn't contain the 16th notes.

Guitar 1                                    x2
eb|------------------------------------------|-----|
Bb|------------------------------------------|-----|
Gb|------------------------------------------|-----|
Db|------------------------------------------|--2--|
Ab|-000-0-0--0--000-0------------------------|--0--|
Eb|----------------------000-0-0--0--000-0-0-|-----|
    *** * *  *  *** *    *** * *  *  *** * * 

Guitar 2 (not on DOP version)
eb|------------------------------------------------------|
Bb|------------------------------------------------------|
Gb|---4-4/5--4------4-5--4-------------------------------|
Db|-2----------2--2--------2----4-4/5--4------4-5--4-----|
Ab|---------------------------2----------2--2--------2p0-|
Eb|------------------------------------------------------|


Riff 9 (Solo Rhythm)
eb|---------------------------------|
Bb|---------------------------------|
Gb|---------------------------------|
Db|-2-----------2-------3p2p0-------|
Ab|-0-0-000-000-0-0-0-0-------3p2p0-|
Eb|---------------------------------|
      * *** ***   * * *
eb|-------------------------------|
Bb|-------------------------------|
Gb|-------------------------------|
Db|-------------------------------|
Ab|-2-----------2-----------3p2p0-|
Eb|-0-0-000-000-0-0-0-0-2h3-------|
      * *** ***   * * *  


Solo over Riff 9
eb|----------17-15-13----------------------------17-15-13-12-|
Bb|----13-12----------17-15-13----------17-13-12-------------|
Gb|-12-------------------------16-14-12----------------------|
Db|----------------------------------------------------------|
Ab|----------------------------------------------------------|
Eb|----------------------------------------------------------|

eb|-19t12h13p12-19t12h13-19t12h13-19t12\-|
Bb|--------------------------------------|
Gb|--------------------------------------|
Db|--------------------------------------|
Ab|--------------------------------------|
Eb|--------------------------------------|

eb|--------------------------------------------------|
Bb|----15-17-15-13-12-----------------------17-15-13-|
Gb|-------------------14-12---------16-12------------|
Db|-12----------------------15-14-12-----16----------|
Ab|--------------------------------------------------|
Eb|--------------------------------------------------|

eb|--------------------------------------|
Bb|-19t12h13p12-19t12h13-19t12h13-19t12\-|
Gb|--------------------------------------|
Db|--------------------------------------|
Ab|--------------------------------------|
Eb|--------------------------------------|

eb|-8p7h8-10p8p7-10p8p7\5-8p7p5-8p7p5-------------------|
Bb|-----------------------------------8p7p5-8p7p5-------|
Gb|-----------------------------------------------7p5p4-|
Db|-----------------------------------------------------|
Ab|-----------------------------------------------------|
Eb|-----------------------------------------------------|

eb|------------------8p7----8p7----------|
Bb|-------------8-10-----10-----10-8b10~-|
Gb|-5-4-----7-9--------------------------|
Db|-----5/9------------------------------|
Ab|--------------------------------------|
Eb|--------------------------------------|

eb|-----------------------------------|
Bb|-------------------------------8-9-|
Gb|------------------------7-9-10-----|
Db|---------------5-7/9-10------------|
Ab|---------5-7-8---------------------|
Eb|-3/5-7-8---------------------------|

eb|-------------12-13-15-17-17p15p13-17p15p13-----|
Bb|-10/12-13-15-------------------------------17~-|
Gb|-----------------------------------------------|
Db|-----------------------------------------------|
Ab|-----------------------------------------------|
Eb|-----------------------------------------------|

End Solo


Riff 10 (Harmony Solo Rhythm)
eb|-----------------------------------------------------------|
Bb|-----------------------------------------------------------|
Gb|-----------------------------------------------------------|
Db|-7-----------7----------------3-----------3----------------|
Ab|-5-5-555-555-5-5-5-555-555-00-1-1-111-1-1-1-1-1-111-111-00-|
Eb|-----------------------------------------------------------|
      * *** ***   * * *** *** **   * *** * *   * * *** *** **
eb|-------------------------------------------------------|
Bb|-------------------------------------------------------|
Gb|-------------------------------------------------------|
Db|-5-----------5----------------2-----------3--5-3-5-7-5-|
Ab|-3-3-333-333-3-3-3-333-333-00-0-0-000-000-1--3-1-3-5-3-|
Eb|-------------------------------------------------------|
      * *** ***   * * *** *** **   * *** ***    * * * 


Harmony Solo

Guitar 1 
eb|-17-15-17-13-17-15-17---17-15-17-13-17-15-17---|
Bb|---------------------13------------------------|
Gb|--------------------------------------------14-|
Db|-----------------------------------------------|
Ab|-----------------------------------------------|
Eb|-----------------------------------------------|

eb|-17-15-17-13-17-12-17--17-20b22r20-17--------|
Bb|---------------------15---------------20-18~-|
Gb|---------------------------------------------|
Db|---------------------------------------------|
Ab|---------------------------------------------|
Eb|---------------------------------------------|

eb|-------------------------12-13-15/17-15~-|
Bb|----12-13-15----12-13-15-----------------|
Gb|-14----------14--------------------------|
Db|-----------------------------------------|
Ab|-----------------------------------------|
Eb|-----------------------------------------|

eb|------------------------------|
Bb|-17-15-13-15~----15-13-12-13~-|
Gb|------------------------------|
Db|------------------------------|
Ab|------------------------------|
Eb|------------------------------|

eb|-17-15-17-13-17-15-17---17-15-17-13-17-15-17---|
Bb|---------------------13------------------------|
Gb|--------------------------------------------14-|
Db|-----------------------------------------------|
Ab|-----------------------------------------------|
Eb|-----------------------------------------------|

eb|-17-15-17-13-17-12-17--17-20b22r20-17--------|
Bb|---------------------15---------------20-18~-|
Gb|---------------------------------------------|
Db|---------------------------------------------|
Ab|---------------------------------------------|
Eb|---------------------------------------------|

eb|-------------------------------------20~-|
Bb|-15-18-13-17-12-15-10-13-15-18-17-20-----|
Gb|-----------------------------------------|
Db|-----------------------------------------|
Ab|-----------------------------------------|
Eb|-----------------------------------------|

eb|-------------------------13-15-17-17b19~-|
Bb|-------------------15-17-----------------|
Gb|----------14-16-17-----------------------|
Db|-14-16-17--------------------------------|
Ab|-----------------------------------------|
Eb|-----------------------------------------|


Guitar 2
eb|-13-12-13-10-13-12-13---13-12-13-10-13-12-13---|
Bb|---------------------10------------------------|
Gb|--------------------------------------------10-|
Db|-----------------------------------------------|
Ab|-----------------------------------------------|
Eb|-----------------------------------------------|

eb|-13-------------------------12b14r12-----------|
Bb|----12-13-10-13----13----13----------13-12-10~-|
Gb|----------------12----10-----------------------|
Db|-----------------------------------------------|
Ab|-----------------------------------------------|
Eb|-----------------------------------------------|

eb|---------------------------------------|
Bb|---------------------12-13-15-15/16-15-|
Gb|---------------12-14-------------------|
Db|----9-10-12/15-------------------------|
Ab|-12------------------------------------|
Eb|---------------------------------------|

eb|------------------------------|
Bb|-13-12----13~----12-----------|
Gb|-------14-----------14-12-----|
Db|--------------------------15~-|
Ab|------------------------------|
Eb|------------------------------|

eb|-13-12-13-10-13-12-13---13-12-13-10-13-12-13---|
Bb|---------------------10------------------------|
Gb|--------------------------------------------10-|
Db|-----------------------------------------------|
Ab|-----------------------------------------------|
Eb|-----------------------------------------------|

eb|-13-------------------------12b14r12-----------|
Bb|----12-13-10-13----13----13----------13-12-10~-|
Gb|----------------12----10-----------------------|
Db|-----------------------------------------------|
Ab|-----------------------------------------------|
Eb|-----------------------------------------------|

eb|------------------------------------|
Bb|---------------------------------13-|
Gb|-10-14-9-12-7-10-5-9-10-14-12-16----|
Db|------------------------------------|
Ab|------------------------------------|
Eb|------------------------------------|

eb|-----------------------------------------|
Bb|-------------------------12-13-15-15b17~-|
Gb|-------------------12-14-----------------|
Db|----------12-14-15-----------------------|
Ab|-12-14-15--------------------------------|
Eb|-----------------------------------------|

End solo


Play Riff 4


Lead into next section:
eb|---------|
Bb|---------|
Gb|---------|
Db|-10-9-7--|
Ab|---------|
Eb|---------|


Riff 11
Guitar 1
eb|----------------------------------------------------|
Bb|----------------------------------------------------|
Gb|----------------------------------------------------|
Db|-------------------------------------12-12-12-9-9-9-|
Ab|-9-999-9-999-9-999-9-999-9-999-9-999-10-10-10-7-7-7-|
Eb|----------------------------------------------------|
    * *** * *** * *** * *** * *** * ***
   "The frightened children..."
   "The time will come..."
eb|--------------------------------------------------|
Bb|--------------------------------------------------|
Gb|--------------------------------------------------|
Db|-------------------------------------101010-7-7-7-|
Ab|-7-777-7-777-7-777-7-777-7-777-7-777--8-8-8-5-5-5-|
Eb|--------------------------------------------------|
    * *** * *** * *** * *** * *** * ***
   "And no one will explain..."
   "...from the war and deceit..."

Guitar 2
eb|------------------------------------------------------------|
Bb|------------------------------------------------------------|
Gb|------------------------------------------------------------|
Db|---------------9-7-77-9-7-77--------------------------------|
Ab|-9-999-10-1010---------------10-9-999-9-999-10-101010-7-777-|
Eb|------------------------------------------------------------|
    * *** *   * *                    *** * ***  
eb|-----------------------------------------------------|
Bb|-----------------------------------------------------|
Gb|-----------------------------------------------------|
Db|------------7-5-55-7-5-55----------------------------|
Ab|-7-777-8-88----------------8-7-777-7-777-8-888-5-555-|
Eb|-----------------------------------------------------|
    * *** * **                    *** * ***  


Riff 12
Guitar 1
eb|----2-------------0---------|
Bb|----2-------------0---------|
Gb|----------------------------|
Db|---------2-------------2----|
Ab|-4-------0--4--2-------0--2-|
Eb|-2----------2--0----------0-|

Guitar 2                                 x2
eb|---------------------------------------|
Bb|---------------------------------------|
Gb|---------------------------------------|
Db|-9-111111-12-111111-9-111111-12-111111-|
Ab|---------------------------------------|
Eb|---------------------------------------|
    *  * * *  *  * * * *  * * *  *  * * *
eb|---------------------------|
Bb|---------------------------|
Gb|---------------------------|
Db|-7-999-10-999-7-999-10-999-|
Ab|---------------------------|
Eb|---------------------------|
    * ***  * *** * ***  * ***

Guitar 3
eb|----------------------------------|
Bb|----------------------------------|
Gb|----------------------------------|
Db|---------------9-7-77-9-7-77------|
Ab|-9-999-10-1010---------------10-9-|
Eb|----------------------------------|
    * ***  *  * *                      
eb|-------------------------------|
Bb|-------------------------------|
Gb|-------------------------------|
Db|------------7-5-55-7-5-55------|
Ab|-7-777-8-88----------------8-7-|
Eb|-------------------------------|
    * *** * **                      


Ending:
Guitar 1

Play this the first time:
eb|-------------------------------------|
Bb|-------------------------------------|
Gb|-------------------------------------|
Db|-------------------------------------|
Ab|-4--------------------------7/9-9/11-|
Eb|-2--------9\5-5/7--7-----------------|

Play this the rest of the times:        Final note
eb|-------------------------------------|------|
Bb|-------------------------------------|------|
Gb|-------------------------------------|------|
Db|-------------------------------------|------|
Ab|-12-------------------------7/9-9/11-|--12--|
Eb|----------9\5-5/7--7-----------------|------|

Guitar 2                                Final note
eb|-------------------------------------|-----|
Bb|-------------------------------------|-----|
Gb|-------------------------------------|-----|
Db|-------------------------------------|-----|
Ab|-9--------12\9-9\7-7--------12\7-7/9-|--9--|
Eb|-------------------------------------|-----|

-------------------------------------------------------------------

3. COLORS
Tuning: Eb

Riff 1
Guitar 1
eb|---------------------------------|
Bb|---------------------------------|
Gb|---------------------------------|
Db|---------------------------------|
Ab|-2-----2-----2-----2-----2-------|
Eb|-0-0-0-0-0-0-0-0-0-0-0-0-0-0-0-2-|
      * *   * *   * *   * *   * * *
eb|---------------------------------|
Bb|---------------------------------|
Gb|---------------------------------|
Db|---------------------------------|
Ab|-5-----5-----5-----5-----5-------|
Eb|-3-3-3-3-3-3-3-3-3-3-3-3-3-3-5-3-|
      * *   * *   * *   * *   * * *
eb|---------------------------------|
Bb|---------------------------------|
Gb|---------------------------------|
Db|---------------------------------|
Ab|-4-----4-----4-----4-----4-------|
Eb|-2-2-2-2-2-2-2-2-2-2-2-2-2-2-3-2-|
      * *   * *   * *   * *   * * *
eb|---------------------------------|
Bb|---------------------------------|
Gb|---------------------------------|
Db|---------------------------------|
Ab|-2-----2-----2-----2-----2-------|
Eb|-0-0-0-0-0-0-0-0-0-0-0-0-0-0-0-0-|
      * *   * *   * *   * *   * * *

Guitar 2
eb|-------------------------|
Bb|-------------------------|
Gb|-------------------------|
Db|-9~----9----9-12-11-9----|
Ab|---------12-----------12-|
Eb|-------------------------|
          *  *
eb|--------------------------|
Bb|--------------------------|
Gb|--------------------------|
Db|--------9----9-12-11-9----|
Ab|-10~------12-----------12-|
Eb|--------------------------|
           *  *
eb|--------------------------------------|
Bb|--------------------------------------|
Gb|--------------------------------------|
Db|-------9----9-12-11-9-----------------|
Ab|-9~------12-----------12-7~--------10-|
Eb|--------------------------------------|
          *  *
eb|-------------------------|
Bb|-------------------------|
Gb|-------------------------|
Db|-9~----9----9-12-11-9----|
Ab|---------12-----------12-|
Eb|-------------------------|
          *  *
eb|--------------------------|
Bb|--------------------------|
Gb|--------------------------|
Db|--------9----9-12-11-9----|
Ab|-10~------12-----------12-|
Eb|--------------------------|
           *  *
eb|----------------------------|
Bb|----------------------------|
Gb|----------------------------|
Db|-------9----9-12-11-9-------|
Ab|-9~------12-----------12-7~-|
Eb|----------------------------|
          *  *

Guitar 3
eb|----------------------------|
Bb|----------------------------|
Gb|-----------------11-9-------|
Db|-12~----12-11-12------12-11-|
Ab|----------------------------|
Eb|----------------------------|
            *  *
eb|---------------------------|
Bb|---------------------------|
Gb|----------------11-9-------|
Db|-9~----12-11-12------12-11-|
Ab|---------------------------|
Eb|---------------------------|
            *  *
eb|-----------------------------------------|
Bb|-----------------------------------------|
Gb|-----------------11-9--------------------|
Db|--------12-11-12------12-11------------9-|
Ab|-12~------------------------10~----------|
Eb|-----------------------------------------|
            *  *
eb|----------------------------|
Bb|----------------------------|
Gb|-----------------11-9-------|
Db|-12~----12-11-12------12-11-|
Ab|----------------------------|
Eb|----------------------------|
            *  *
eb|---------------------------|
Bb|---------------------------|
Gb|----------------11-9-------|
Db|-9~----12-11-12------12-11-|
Ab|---------------------------|
Eb|---------------------------|
            *  *
eb|--------------------------------|
Bb|--------------------------------|
Gb|-----------------11-9-----------|
Db|--------12-11-12------12-11-----|
Ab|-12~------------------------10~-|
Eb|--------------------------------|
            *  *


Guitar 4 (This is what is used on the live album)
eb|---------------------------------------------|
Bb|-------------8-7------------------8-7--------|
Gb|---------7-9-----7------------7-9-----7------|
Db|-9~----9-----------9--------9-----------9----|
Ab|---------------------10~------------------9~-|
Eb|---------------------------------------------|

eb|----------------------|
Bb|-------8-7------------|
Gb|---7-9-----7----------|
Db|-9-----------9--------|
Ab|---------------7~~----|
Eb|----------------------|


Guitar fill over Riff 1 right before lyrics
eb|-------------------------------------------|
Bb|-------------------------------------------|
Gb|-------------------------------------------|
Db|-9----9/11-12----12/14\12-11----11/12\11-9-|
Ab|-7----7/-9-10----10/12\10--9-----9/10\-9-7-|
Eb|-------------------------------------------|


Riff 1a (this is used for the first part of the verse only)
eb|---------------------------------|
Bb|---------------------------------|
Gb|---------------------------------|
Db|---------------------------------|
Ab|-2-----2-----2-----2-----2-------|
Eb|-0-0-0-0-0-0-0-0-0-0-0-0-0-0-0-2-|
      * *   * *   * *   * *   * * *
   "We're walking in the subway..."
eb|---------------------------------|
Bb|---------------------------------|
Gb|---------------------------------|
Db|---------------------------------|
Ab|-5-----5-----5-----5-----5-------|
Eb|-3-3-3-3-3-3-3-3-3-3-3-3-3-3-5-3-|
      * *   * *   * *   * *   * * *
eb|---------------------------------|
Bb|---------------------------------|
Gb|---------------------------------|
Db|---------------------------------|
Ab|-4-----4-----4-----4-----4-------|
Eb|-2-2-2-2-2-2-2-2-2-2-2-2-2-2-3-2-|
      * *   * *   * *   * *   * * *
   "New York City gangs..."
eb|---------------------------------|
Bb|---------------------------------|
Gb|---------------------------------|
Db|-----------------------------9---|
Ab|-2-----2-----2-----2-----2---7---|
Eb|-0-0-0-0-0-0-0-0-0-0-0-0-0-0---0-|
      * *   * *   * *   * *   *   *


Play Riff 1   "You feel their anger..."
[end riff with a slide]

Riff 2 
Guitar 1
eb|-----------------------------|
Bb|-----------------------------|
Gb|-----------------------------|
Db|-----------------------------|
Ab|-------------------------4-2-|
Eb|-0-000-2-3-3-333-3-5-3-2-2-0-|
    * ***     * *** * * *   * * 

Guitar 2
eb|---------------------------|
Bb|---------------------------|
Gb|---------------------------|
Db|-------7-9-9-999-9-10-9-7--|
Ab|---------------------------|
Eb|-0-000---------------------|
    * ***     * *** *

Both guitars
eb|---------------------------------|
Bb|---------------------------------|
Gb|---------------------------------|
Db|---------------------------------|
Ab|-4-4-4---5-5-5---4-4-5-4-2-------|
Eb|-2-2-2-0-3-3-3-0-2-2-3-2-0--//\\-|
    * * * * * * * * * * * *


Play Riff 1  "As they walk on closer..."
[end riff with a slide]

Play Riff 2


Riff 3
eb|--------------------------------|
Bb|--------------------------------|
Gb|--------------------------------|
Db|--------2-----------------------|
Ab|-2--------2---------------------|
Eb|-0--0-0-----0-0-2-3-2-0-3-0-2-0-|
       * *                         
   "Don't expect..."
eb|--------------------------------|
Bb|--------------------------------|
Gb|--------------------------------|
Db|--------3-----------------------|
Ab|-3--------3---------------------|
Eb|-1--1-1-----0-0-2-3-2-0-3-2-0-2-|
       * * 


Riff 3a
eb|--------------------------------|
Bb|--------------------------------|
Gb|--------------------------------|
Db|--------2-----------------------|
Ab|-2--------2---------------------|
Eb|-0--0-0-----0-0-2-3-2-0-3-0-2-0-|
       * *     * * * * * * * * * * 
  "You walked my turf..."
eb|--------------------------------|
Bb|--------------------------------|
Gb|--------------------------------|
Db|--------3-----------------------|
Ab|-3--------3---------------------|
Eb|-1--1-1-----0-0-2-3-2-0-3-2-0-2-|
       * *     * * * * * * * * * * 


Lead into next riff:
eb|----------------------------------|
Bb|----------------------------------|
Gb|----------------------------------|
Db|----------------------------------|
Ab|----------------------------------|
Eb|-0-000-000-000-000-000-000-000-00-|
    * *** *** *** *** *** *** *** **

Riff 4
Guitar 1 
eb|------------------------------------|
Bb|------------------------------------|
Gb|------------------------------------|
Db|-6-666-7-7-7-6-6--------------------|
Ab|-----------------7-777-8-8-8-7-6-7\-|
Eb|------------------------------------|

eb|------------------------------|
Bb|------------------------------|
Gb|------------------------------|
Db|------------------------------|
Ab|------------------------------|
Eb|-0-000-000-000-000-000-000-00-|
    * *** *** *** *** *** *** **

Guitar 2 (Comes in second time)
eb|------------------------------------|
Bb|------------------------------------|
Gb|-4-444-6-6-6-4-4--------------------|
Db|-----------------6-666-7-7-7-6-5-6\-|
Ab|------------------------------------|
Eb|------------------------------------|

eb|------------------------------|
Bb|------------------------------|
Gb|------------------------------|
Db|------------------------------|
Ab|------------------------------|
Eb|-0-000-000-000-000-000-000-00-|
    * *** *** *** *** *** *** **
                                       

Riff 5
Guitar 1
eb|-----------------------------|
Bb|-----------------------------|
Gb|-----------------------------|
Db|-5-5--5-4-4--4-5-5--5-4-4--4-|
Ab|-3-3--3-2-2--2-3-3--3-2-2--2-|
Eb|-----------------------------|
    * *  * * *  * * *  * * *  * 
eb|------------------------------------|
Bb|------------------------------------|
Gb|------------------------------------|
Db|-7-7--7-6-6--6-7-7--7-5-5--5-6-6--6-|
Ab|-5-5--5-4-4--4-5-5--5-3-3--3-4-4--4-|
Eb|------------------------------------|
    * *  * * *  * * *  * * *  * * *  *

Guitar 2
eb|--8------7------8------7-----|
Bb|-----------------------------|
Gb|--5---5--4---4--5---5--4---4-|
Db|-----------------------------|
Ab|-----------------------------|
Eb|-----------------------------|

eb|-10------8-----10------8------9-----|
Bb|------------------------------------|
Gb|--7---7--5---5--7---7--5---5--6---6-|
Db|------------------------------------|
Ab|------------------------------------|
Eb|------------------------------------|


Guitar 3 (Flange or some effect)       x2
eb|-------------------------------------|
Bb|-13---13---13---13---12--12--12--12--|
Gb|-12---12---12---12---11--11--11--11--|
Db|---10---10---10---10---9---9---9---9-|
Ab|-------------------------------------|
Eb|-------------------------------------|

eb|-----------------------------------------|
Bb|-15---15---15---15---13---13---13---13---|
Gb|-14---14---14---14---12---12---12---12---|
Db|---12---12---12---12---10---10---10---10-|
Ab|-----------------------------------------|
Eb|-----------------------------------------|

eb|-----------------------------------------|
Bb|-15---15---15---15---13---13---14---14---|
Gb|-14---14---14---14---12---12---13---13---|
Db|---12---12---12---12---10---10---11---11-|
Ab|-----------------------------------------|
Eb|-----------------------------------------|



Riff 5a (after lyrics)
Guitar 1                           x2
eb|---------------------------------|
Bb|---------------------------------|
Gb|---------------------------------|
Db|-5---------------4---------------|
Ab|-3-33333333333-0-2-22222222222-0-|
Eb|---------------------------------|
      *********** *   *********** * 
eb|---------------------------------|
Bb|---------------------------------|
Gb|---------------------------------|
Db|-7---------------5---------------|
Ab|-5-55555555555-0-3-33333333333-0-|
Eb|---------------------------------|
      *********** *   *********** *
eb|-----------------------------------|
Bb|-----------------------------------|
Gb|-----------------------------------|
Db|-7---------------5--------6--------|
Ab|-5-55555555555-0-3-3333-0-4-4444-0-|
Eb|-----------------------------------|
      *********** *   **** *   **** *

Guitar 2
eb|----------------------------------------|
Bb|----------------------------------------|
Gb|-12------11------12------11--(11)b12r11-|
Db|----------------------------------------|
Ab|----------------------------------------|
Eb|----------------------------------------|

eb|----------------------------------|
Bb|----------------------------------|
Gb|-14------12------14------12---13--|
Db|----------------------------------|
Ab|----------------------------------|
Eb|----------------------------------|

eb|----------------------------------------|
Bb|----------------------------------------|
Gb|-12------11------12------11--(11)b12r11-|
Db|----------------------------------------|
Ab|----------------------------------------|
Eb|----------------------------------------|

eb|----------------------------------|
Bb|----------------------------------|
Gb|-14------12------14------12---13\-|
Db|----------------------------------|
Ab|----------------------------------|
Eb|----------------------------------|


Guitar 3
eb|----------------------------------------|
Bb|-13------12------13------12--(12)b13r12-|
Gb|----------------------------------------|
Db|----------------------------------------|
Ab|----------------------------------------|
Eb|----------------------------------------|

eb|----------------------------------|
Bb|-15------13------15------13---14--|
Gb|----------------------------------|
Db|----------------------------------|
Ab|----------------------------------|
Eb|----------------------------------|

eb|----------------------------------------|
Bb|-13------12------13------12--(12)b13r12-|
Gb|----------------------------------------|
Db|----------------------------------------|
Ab|----------------------------------------|
Eb|----------------------------------------|

eb|-----------------------------------|
Bb|-15------13------15------13---14~\-|
Gb|-------------------------------a---|
Db|-----------------------------------|
Ab|-----------------------------------|
Eb|-----------------------------------|

Guitar 4
eb|-12------11------12------11--(11)b12r11-|
Bb|----------------------------------------|
Gb|----------------------------------------|
Db|----------------------------------------|
Ab|----------------------------------------|
Eb|----------------------------------------|

eb|-14------12------14------12---13--|
Bb|----------------------------------|
Gb|----------------------------------|
Db|----------------------------------|
Ab|----------------------------------|
Eb|----------------------------------|

eb|-12------11------12------11--(11)b12r11-|
Bb|----------------------------------------|
Gb|----------------------------------------|
Db|----------------------------------------|
Ab|----------------------------------------|
Eb|----------------------------------------|

eb|-14------12------14------12---13\-|
Bb|----------------------------------|
Gb|----------------------------------|
Db|----------------------------------|
Ab|----------------------------------|
Eb|----------------------------------|



Riff 6 (Solo Rhythm)
eb|-------------------------------|
Bb|-------------------------------|
Gb|-------------------------------|
Db|-------------------------------|
Ab|-4--2-4--4-4-4-2-4-2-5-4-4-4-2-|
Eb|-2--0-2--2-2-2-0-2-0-3-2-2-2-0-|


Riff 7 (Solo Rhythm)
eb|--------------------------------------------|
Bb|--------------------------------------------|
Gb|--------------------------------------------|
Db|--------------------------------------------|
Ab|-2-4-----4------2-4-----5-4------2------5-4-|
Eb|-0-2-2-2-2--2-2-0-2-2-2-3-2--2-2-0--0-0-3-2-|
        * *    * *     * *      * *    * *
eb|--------------------------------------------------|
Bb|--------------------------------------------------|
Gb|--------------------------------------------------|
Db|--------------------------------------------------|
Ab|-2-4-----4------2-4-----5-4------2------5-4-------|
Eb|-0-2-2-2-2--2-2-0-2-2-2-3-2--2-2-0--0-0-3-2--//\\-|
        * *    * *     * *      * *    * *
eb|--------------------------------------------|
Bb|--------------------------------------------|
Gb|--------------------------------------------|
Db|--------------------------------------------|
Ab|-2-4-----4------2-4-----5-4------2------5-4-|
Eb|-0-2-2-2-2--2-2-0-2-2-2-3-2--2-2-0--0-0-3-2-|
        * *    * *     * *      * *    * *
eb|--------------------------------------------|
Bb|--------------------------------------------|
Gb|--------------------------------------------|
Db|--------------------------------------------|
Ab|-2-4-----4------2-4-----5-4------2------5-4-|
Eb|-0-2-2-2-2--2-2-0-2-2-2-3-2--2-2-0--0-0-3-2-|
        * *    * *     * *      * *    * *


Solo
eb|---------------------------------------|
Bb|---------------------------------------|
Gb|---------------------------------------|
Db|---------------------------------------|
Ab|---------------------------------------|
Eb|---------------------------------------|

eb|---------------------------------------|
Bb|---------------------------------------|
Gb|---------------------------------------|
Db|---------------------------------------|
Ab|---------------------------------------|
Eb|---------------------------------------|

eb|---------------------------------------|
Bb|---------------------------------------|
Gb|---------------------------------------|
Db|---------------------------------------|
Ab|---------------------------------------|
Eb|---------------------------------------|

End Solo



Play Riff 4
Play Riff 3  "Don't expect..."
Play Riff 3  Solo Rhythm

Outro Solo
Guitar 1
eb|---------------15-17-17/19-17-15-14~--|
Bb|-17~----171717------------------------|
Gb|--------------------------------------|
Db|--------------------------------------|
Ab|--------------------------------------|
Eb|--------------------------------------|

eb|-141414----14-15/17-15-14-|
Bb|--------17----------------|
Gb|--------------------------|
Db|--------------------------|
Ab|--------------------------|
Eb|--------------------------|

eb|---------------15-17-17/19-17-15-14~--|
Bb|-17~----171717------------------------|
Gb|--------------------------------------|
Db|--------------------------------------|
Ab|--------------------------------------|
Eb|--------------------------------------|

eb|-141414----14-15/17-15-14-----|
Bb|--------17----------------17~-|
Gb|------------------------------|
Db|------------------------------|
Ab|------------------------------|
Eb|------------------------------|

eb|--------------19b20r19--|
Bb|--------17--------------|
Gb|-----19-----------------|
Db|--21--------------------|
Ab|------------------------|
Eb|------------------------|

Guitar 2
eb|---------------17-19-19/22-20-19-17~--|
Bb|-20~----202020------------------------|
Gb|--------------------------------------|
Db|--------------------------------------|
Ab|--------------------------------------|
Eb|--------------------------------------|

eb|-171717----17-19/20-19-17-|
Bb|--------20----------------|
Gb|--------------------------|
Db|--------------------------|
Ab|--------------------------|
Eb|--------------------------|

eb|---------------17-19-19/22-20-19-17~--|
Bb|-20~----202020------------------------|
Gb|--------------------------------------|
Db|--------------------------------------|
Ab|--------------------------------------|
Eb|--------------------------------------|

eb|-171717----17-19/20-19-17-----|
Bb|--------20----------------20~-|
Gb|------------------------------|
Db|------------------------------|
Ab|------------------------------|
Eb|------------------------------|

eb|-------------------|
Bb|-------------------|
Gb|-------------------|
Db|---------------9~~-|
Ab|-------------------|
Eb|-------------------|


Ending:
Guitar 1 
eb|-----------------------------------------|
Bb|-----------------------------------------|
Gb|-----------------------------------------|
Db|------6-666-7-7-7-6-6--------------------|
Ab|-2--------------------7-777-8-8-8-7-6-7\-|
Eb|-0---------------------------------------|

Guitar 2
eb|-----------------------------------------|
Bb|-----------------------------------------|
Gb|------4-444-6-6-6-4-4--------------------|
Db|----------------------6-666-7-7-7-6-5-6\-|
Ab|-2---------------------------------------|
Eb|-0---------------------------------------|

--------------------------------------------------------

4. CURSE THE SKY
Tuning: Eb

Riff 1 (Clean)
eb|---------------------------------------|
Bb|---------------------------------------|
Gb|-------------------------------0-------|
Db|-------9----------7----------4----4----|
Ab|-----7----------7----------5--------5\-|
Eb|-000--------000--------000-------------|

eb|----------------|
Bb|----------------|
Gb|-----0----------|
Db|---2------------|
Ab|-3--------------|
Eb|-------2--3-2-0-|

Guitar 2 (Comes in the second time)
eb|---------------------------------------|
Bb|-------------------------------0-------|
Gb|-------7----------6----------2----2----|
Db|-----5----------5----------4--------4\-|
Ab|---------------------------------------|
Eb|-000--------000--------000-------------|

eb|----------------|
Bb|-----0----------|
Gb|---0------------|
Db|-2--------------|
Ab|-------0--2-0---|
Eb|--------------0-|


Riff 2 (Distortion)
Guitar 1
eb|------------------------------------------|
Bb|------------------------------------------|
Gb|----------------------------------0-------|
Db|-------9----9-------7----7------4----4----|
Ab|-----7-7----7-----7-5----5----5--------5\-|
Eb|-000----------000-----------0-------------|
    ***          ***           * * *
   "Eyes of fire..."
eb|--------------|
Bb|--------------|
Gb|-----0--------|
Db|---2----------|
Ab|-3------------|
Eb|-------2--3-2-|
    * *

Guitar 2 (Comes in after lyrics)
eb|------------------------------------------|
Bb|------------------------------------------|
Gb|-------7~---------7b9-7~----------0-------|
Db|-----5--------------------------4----4----|
Ab|------------------------------5--------5\-|
Eb|-000----------000-----------0-------------|
    ***          ***           * * *
eb|--------------|
Bb|--------------|
Gb|-----0--------|
Db|---2----------|
Ab|-3------------|
Eb|-------2--3-2-|
    * *


Riff 3
eb|--------------------------------|
Bb|--------------------------------|
Gb|--------------------------------|
Db|----------------------7-9----9\-|
Ab|------------2---------5-7----7\-|
Eb|-0-0-0-0--0-0----0-00-----------|
    * * * *  *      * **                  x2
eb|----------------------------------------|
Bb|----------------------------------------|
Gb|----------------------------------------|
Db|-7--7----12-12-11--11\-9----9\----------|
Ab|-5--5----10-10--9---9\-7----7\-2--------|
Eb|-------------------------------0----0-0-|
                                       * *
           "Fire eyes, curse the skies..."
eb|----------------------|
Bb|----------------------|
Gb|----------------------|
Db|-7--7----12-12-11--11-|
Ab|-5--5----10-10--9---9-|
Eb|----------------------|
      "You detest the faker..."


Riff 4
Guitar 1                          x3
eb|--------------------------------|
Bb|--------------------------------|
Gb|--------------------------------|
Db|-------------9------------------|
Ab|-10---9--9------7---------------|
Eb|----0------0-------00-3-2-0-0-0-|
       *      *       ** * * * * *
eb|--------------------------------|
Bb|--------------------------------|
Gb|--------------------------------|
Db|-------------9------------------|
Ab|-10---9--9------7-------------2-|
Eb|----0------0-------00-3-2-0-0-0-|
       *      *       ** * * * *

Guitar 2                          x3
eb|--------------------------------|
Bb|--------------------------------|
Gb|--------------------------------|
Db|--------------------------------|
Ab|--7---5--5---9------------------|
Eb|----0------0----8--00-3-2-0-0-0-|
       *      *       ** * * * * *
eb|--------------------------------|
Bb|--------------------------------|
Gb|--------------------------------|
Db|--------------------------------|
Ab|--7---5--5---9----------------2-|
Eb|----0------0----8--00-3-2-0-0-0-|
       *      *       ** * * * * 


Riff 5
eb|------------------------------|
Bb|------------------------------|
Gb|------------------------------|
Db|-9-----------10---------------|
Ab|-7------------8---------------|
Eb|---0-0-0-0-0----0-0-0-0-0-0-0-|
      * * * * *    * * * * * * *
eb|-------------------------------|
Bb|-------------------------------|
Gb|-------------------------------|
Db|-9-----------10----14\12-10/12-|
Ab|-7------------8----12\10--8/10-|
Eb|---0-0-0-0-0-----0-------------|
      * * * * *     *
eb|---------------------------------|
Bb|---------------------------------|
Gb|---------------------------------|
Db|-9-----------10---------12-11-10-|
Ab|-7------------8---------10--9--8-|
Eb|---0-0-0-0-0----0-0-0-0----------|
      * * * * *    * * * *
eb|-------------------------------|
Bb|-------------------------------|
Gb|-------------------------------|
Db|-9-----------10----14\12-10/12-|
Ab|-7------------8----12\10--8/10-|
Eb|---0-0-0-0-0-----0-------------|
      * * * * *     *


Play Riff 5  "Eyes, lies..."


Riff 6 (Solo Rhythm, Play 2x)
eb|--------------------------|
Bb|--------------------------|
Gb|--------------------------|
Db|-9--------9/10--7----7/9--|
Ab|-7----7-7-7/-8--5----5/7--|
Eb|--------------------------|

eb|-----------------------------|
Bb|-----------------------------|
Gb|-----------------------------|
Db|-4----7----7/9-9----9\7--7\5-|
Ab|-2----5----5/7-7----7\5--5\3-|
Eb|-----------------------------|


Solo
eb|---------------------------------------|
Bb|---------------------------------------|
Gb|---------------------------------------|
Db|---------------------------------------|
Ab|---------------------------------------|
Eb|---------------------------------------|

eb|---------------------------------------|
Bb|---------------------------------------|
Gb|---------------------------------------|
Db|---------------------------------------|
Ab|---------------------------------------|
Eb|---------------------------------------|

eb|---------------------------------------|
Bb|---------------------------------------|
Gb|---------------------------------------|
Db|---------------------------------------|
Ab|---------------------------------------|
Eb|---------------------------------------|

End Solo


Riff 7 (Play 2x)
Guitar 1
eb|---------------------------------------|
Bb|---------------------------------------|
Gb|-9--------9/10--7--------7/9--4--------|
Db|---------------------------------------|
Ab|-7----7-7-7/-8--5----5-5-5/7--2----2-2-|
Eb|---------------------------------------|

eb|-----------------------------------------|
Bb|-----------------------------------------|
Gb|-4/7--7------7/9--9------9\7-----7\5-----|
Db|-----------------------------------------|
Ab|-2/5--5--5-5-5/7--7--7-7-7\5-5-5-5\3-3-3-|
Eb|-----------------------------------------|

Guitar 2
eb|----------------------------------------------|
Bb|----------------------------------------------|
Gb|----------------------------------------------|
Db|-5----5-5-5/7--4----4-4-4/5--7----7-7-7/9-9-9-|
Ab|----------------------------------------------|
Eb|----------------------------------------------|

eb|--------------------------------------------|
Bb|--------------------------------------------|
Gb|--------------------------------------------|
Db|-12-12-12/14-14--14-14-14\12-12-12-12\10-10-|
Ab|--------------------------------------------|
Eb|--------------------------------------------|


Riff 8 (Solo Rhythm, Play 2x)
eb|-----------------------------------------|
Bb|-----------------------------------------|
Gb|-----------------------------------------|
Db|-9----9----9----9/10--7----7----7----7/9-|
Ab|-7-77-7-77-7-77-7/-8--5-55-5-55-5-55-5/7-|
Eb|-----------------------------------------|
      **   **   **         **   **   **     
eb|-------------------------------------------------|
Bb|-------------------------------------------------|
Gb|-------------------------------------------------|
Db|-4----4----4/7----7----7/9----9----9\7----7\5----|
Ab|-2-22-2-22-2/5-55-5-55-5/7-77-7-77-7\5-55-5\3-33-|
Eb|-------------------------------------------------|
      **   **     **   **     **   **     **     **


Solo
eb|---------------------------------------|
Bb|---------------------------------------|
Gb|---------------------------------------|
Db|---------------------------------------|
Ab|---------------------------------------|
Eb|---------------------------------------|

eb|---------------------------------------|
Bb|---------------------------------------|
Gb|---------------------------------------|
Db|---------------------------------------|
Ab|---------------------------------------|
Eb|---------------------------------------|

eb|---------------------------------------|
Bb|---------------------------------------|
Gb|---------------------------------------|
Db|---------------------------------------|
Ab|---------------------------------------|
Eb|---------------------------------------|

End Solo


Riff 9
Guitar 1
eb|-----------------------------------------|
Bb|-----------------------------------------|
Gb|-9----9----9----9/10--7----7----7----7/9-|
Db|-----------------------------------------|
Ab|-7-77-7-77-7-77-7/-8--5-55-5-55-5-55-5/7-|
Eb|-----------------------------------------|

eb|-------------------------------------------------|
Bb|-------------------------------------------------|
Gb|-4----4----4/7----7----7/9----9----9\7----7\5----|
Db|-------------------------------------------------|
Ab|-2-22-2-22-2/5-55-5-55-5/7-77-7-77-7\5-55-5\3-33-|
Eb|-------------------------------------------------|
     
Guitar 2
eb|------------------------------------------------------------|
Bb|------------------------------------------------------------|
Gb|------------------------------------------------------------|
Db|-5-55-5-55-5-55-5/7--4-44-4-44-4-44-4/5--7-77-7-77-7/9-99-9-|
Ab|------------------------------------------------------------|
Eb|------------------------------------------------------------|

eb|--------------------------------------------|
Bb|--------------------------------------------|
Gb|--------------------------------------------|
Db|-12-12-12/14-14--14-14-14\12-12-12-12\10-10-|
Ab|--------------------------------------------|
Eb|--------------------------------------------|


Riff 3a
eb|-------------------|
Bb|-------------------|
Gb|-------------------|
Db|---------7-9----9\-|
Ab|-2-------5-7----7\-|
Eb|-0----00-----------|
         **                               x2
eb|----------------------------------------|
Bb|----------------------------------------|
Gb|----------------------------------------|
Db|-7--7----12-12-11--11\-9----9\----------|
Ab|-5--5----10-10--9---9\-7----7\-2--------|
Eb|-------------------------------0----0-0-|
                                       * *
           "Tattered times..."
eb|----------------------|
Bb|----------------------|
Gb|----------------------|
Db|-7--7----12-12-11--11-|
Ab|-5--5----10-10--9---9-|
Eb|----------------------|
      "There's no more..."


Play Riff 4
Play Riff 5  "Eyes, lies..."

Riff 5a (Solo Rhythm)
eb|------------------------------|
Bb|------------------------------|
Gb|------------------------------|
Db|-9-----------10---------------|
Ab|-7------------8---------------|
Eb|---0-000-0-0----0-0-000-0-0-0-|
      * *** * *    * * *** * * *
eb|-------------------------------|
Bb|-------------------------------|
Gb|-------------------------------|
Db|-9-----------10----14\12-10/12-|
Ab|-7------------8----12\10--8/10-|
Eb|---0-000-0-0-----0-------------|
      * *** * *     *
eb|---------------------------------|
Bb|---------------------------------|
Gb|---------------------------------|
Db|-9-----------10---------12-11-10-|
Ab|-7------------8---------10--9--8-|
Eb|---0-000-0-0----0-0-0-0----------|
      * *** * *    * * * *
eb|-------------------------------|
Bb|-------------------------------|
Gb|-------------------------------|
Db|-9-----------10----14\12-10/12-|
Ab|-7------------8----12\10--8/10-|
Eb|---0-000-0-0-----0-------------|
      * *** * *     *


Solo
eb|---------------------------------------|
Bb|---------------------------------------|
Gb|---------------------------------------|
Db|---------------------------------------|
Ab|---------------------------------------|
Eb|---------------------------------------|

eb|---------------------------------------|
Bb|---------------------------------------|
Gb|---------------------------------------|
Db|---------------------------------------|
Ab|---------------------------------------|
Eb|---------------------------------------|

eb|---------------------------------------|
Bb|---------------------------------------|
Gb|---------------------------------------|
Db|---------------------------------------|
Ab|---------------------------------------|
Eb|---------------------------------------|

End Solo


Ending
Guitar 1 (Distortion)
eb|----------------------------------------------|
Bb|----------------------------------------------|
Gb|----------------------------------------------|
Db|--9----[let ring]-----------------------------|
Ab|--7-----------------------------------------2-|
Eb|--------------------------------------------0-|

Guitar 2 (Clean)
eb|---------------------------------------|
Bb|---------------------------------------|
Gb|-------------------------------0-------|
Db|-------9----------7----------4----4----|
Ab|-----7----------7----------5--------5\-|
Eb|-000--------000--------000-------------|

eb|----------------|
Bb|----------------|
Gb|-----0----------|
Db|---2------------|
Ab|-3--------------|
Eb|-------2--3-2-0-|


Ending solo
eb|---------------------------------------|
Bb|---------------------------------------|
Gb|---------------------------------------|
Db|---------------------------------------|
Ab|---------------------------------------|
Eb|---------------------------------------|

eb|---------------------------------------|
Bb|---------------------------------------|
Gb|---------------------------------------|
Db|---------------------------------------|
Ab|---------------------------------------|
Eb|---------------------------------------|

End Solo

------------------------------------------------------------

5. LIFE AND DEATH

Tuning: Eb

Intro
eb|-7--7-7----7--7-7----7--7-7----7--7-7---|
Bb|-------0---------0---------0---------0--|
Gb|--------0---------0---------0---------0-|
Db|----------------------------------------| ---|
Ab|----------------------------------------|    |
Eb|----------------------------------------|    |
                                                |--> Play 2x
eb|-5--5-5----5--5-5----5--5-5----5--5-5---|    |
Bb|-------0---------0---------0---------0--|    |
Gb|--------0---------0---------0---------0-|    |
Db|----------------------------------------| ---|
Ab|----------------------------------------|
Eb|----------------------------------------|

eb|-3--3-3----0--------3--3-3----0-------|
Bb|-------3------3--3--------3------3--3-|
Gb|--------0------0-----------0------0---|
Db|--------------------------------------|
Ab|--------------------------------------|
Eb|--------------------------------------|

Guitar 2
eb|--19b20r19~~~~~----------------------|
Bb|-------------------------------------|
Gb|-----------------------14b15r14~~~~--|
Db|-------------------------------------|
Ab|-------------------------------------|
Eb|-------------------------------------|



Riff 1
Guitar 1             
eb|-7--7-7----7--7-7----7--7-7----7--7-7---|
Bb|-------0---------0---------0---------0--|
Gb|--------0---------0---------0---------0-|
Db|----------------------------------------|
Ab|----------------------------------------|
Eb|----------------------------------------|
  "I came into this world..."
eb|-5--5-5----5--5-5----5--5-5----5--5-5---|
Bb|-------0---------0---------0---------0--|
Gb|--------0---------0---------0---------0-|
Db|----------------------------------------|
Ab|----------------------------------------|
Eb|----------------------------------------|
  "...entry into this life..."
eb|-3--3-3----0--------3--3-3----0-------|
Bb|-------3------3--3--------3------3--3-|
Gb|--------0------0-----------0------0---|
Db|--------------------------------------|
Ab|--------------------------------------|
Eb|--------------------------------------|
  "As I grow..."
eb|-7--7-7----7--7-7----7--7-7----7--7-7---|
Bb|-------0---------0---------0---------0--|
Gb|--------0---------0---------0---------0-|
Db|----------------------------------------|
Ab|----------------------------------------|
Eb|----------------------------------------|
  "Visions come..."
eb|-5--5-5----5--5-5----5--5-5----5--5-5---|
Bb|-------0---------0---------0---------0--|
Gb|--------0---------0---------0---------0-|
Db|----------------------------------------|
Ab|----------------------------------------|
Eb|----------------------------------------|
  "...hate, will never leave..."

Guitar 2
eb|-----------------19------------------|
Bb|---------------------17~~------------|
Gb|-------------------------------------|
Db|-------------------------------------|
Ab|-------------------------------------|
Eb|-------------------------------------|
             "...infant..."
eb|-------------------------------------|
Bb|-----------------15~~----------------|
Gb|-------------------------------------|
Db|-------------------------------------|
Ab|-------------------------------------|
Eb|-------------------------------------|
             "...life..."
eb|-----------------12~~----------------|
Bb|-------------------------------------|
Gb|-------------------------------------|
Db|-------------------------------------|
Ab|-------------------------------------|
Eb|-------------------------------------|
             "...soul..."
eb|-----------------19------------------|
Bb|--------------------17---------------|
Gb|-----------------------14b15r14~-----|
Db|-------------------------------------|
Ab|-------------------------------------|
Eb|-------------------------------------|
             "...visions go..."
eb|-12-----10-----10----10--------|
Bb|-15b17--13b15--13b15-13b15r13\-|
Gb|-------------------------------|
Db|-------------------------------|
Ab|-------------------------------|
Eb|-------------------------------|
  "...leave me..."


Riff 1a (Solo Rhythm)
eb|-3--3-3----0--------3--3-3----0-------|
Bb|-------3------3--3--------3------3--3-|
Gb|--------0------0-----------0------0---|
Db|--------------------------------------|
Ab|--------------------------------------|
Eb|--------------------------------------|

eb|-7--7-7----7--7-7----7--7-7----7--7-7---|
Bb|-------0---------0---------0---------0--|
Gb|--------0---------0---------0---------0-|
Db|----------------------------------------|
Ab|----------------------------------------|
Eb|----------------------------------------|

eb|-5--5-5----5--5-5----5--5-5----5--5-5---|
Bb|-------0---------0---------0---------0--|
Gb|--------0---------0---------0---------0-|
Db|----------------------------------------|
Ab|----------------------------------------|
Eb|----------------------------------------|

eb|-3--3-3----0--------3--3-3----0-------|
Bb|-------3------3--3--------3------3--3-|
Gb|--------0------0-----------0------0---|
Db|--------------------------------------|
Ab|--------------------------------------|
Eb|--------------------------------------|

eb|-0--7-7-|
Bb|--------|
Gb|--------|
Db|--------|
Ab|--------|
Eb|--------|


Solo (First part is harmonized)

Guitar 1
eb|---------------------------|
Bb|---------------------------|
Gb|----------12-14-16-14--12~-|
Db|-12-14-16------------------|
Ab|---------------------------|
Eb|---------------------------|

eb|------------------------------|
Bb|-15-15-15\--------------------|
Gb|-----------------14-16-14-12~-|
Db|------------x-12--------------|
Ab|------------------------------|
Eb|------------------------------|

Guitar 2
eb|--------------------------|
Bb|----------12-13-15-13-12~-|
Gb|-11-12-14-----------------|
Db|--------------------------|
Ab|--------------------------|
Eb|--------------------------|

eb|------------------------------|
Bb|-19-19-19\-------13-15-13-12~-|
Gb|-----------11-12--------------|
Db|------------------------------|
Ab|------------------------------|
Eb|------------------------------|

Guitar 3
eb|------------------------|
Bb|---------------10-------|
Gb|-------9-11-12----12-9~-|
Db|-10-12------------------|
Ab|------------------------|
Eb|------------------------|

eb|-----------------------------|
Bb|--------------------10-------|
Gb|-12-12-12\-------12----12-9~-|
Db|-----------10-12-------------|
Ab|-----------------------------|
Eb|-----------------------------|

Harmony section ends, single guitar continues:
eb|-----19------------12--------------12----|
Bb|----------------------12--------12----15-|
Gb|-----------------------------------------|
Db|-14--------------------------------------|
Ab|-----------------------------------------|
Eb|-----------------------------------------|

eb|-------------------------------|
Bb|-------------------------------|
Gb|-2b4--------(4)r3--------(3)r2-|
Db|-------------------------------|
Ab|-------------------------------|
Eb|-------------------------------|

eb|-----19----19~----19~----19~--|
Bb|-20---------------------------|
Gb|------------------------------|
Db|------------------------------|
Ab|------------------------------|
Eb|------------------------------|

Harmony section starts again:

Guitar 1
eb|---------------------------|
Bb|---------------------------|
Gb|----------12-14-16-14--12~-|
Db|-12-14-16------------------|
Ab|---------------------------|
Eb|---------------------------|

eb|-----------------------------|
Bb|-15-15-15\-------------------|
Gb|-----------------14-16-14-9~-|
Db|------------x-12-------------|
Ab|-----------------------------|
Eb|-----------------------------|

Guitar 2
eb|--------------------------|
Bb|----------12-13-15-13-12~-|
Gb|-11-12-14-----------------|
Db|--------------------------|
Ab|--------------------------|
Eb|--------------------------|

eb|--------------------------[21]24r21-|
Bb|-19-19-19\-------13-15-13-----------|
Gb|-----------11-12--------------------|
Db|------------------------------------|
Ab|------------------------------------|
Eb|------------------------------------|

Guitar 3
eb|------------------------|
Bb|---------------10-------|
Gb|-------9-11-12----12-9~-|
Db|-10-12------------------|
Ab|------------------------|
Eb|------------------------|

eb|-----------------------------|
Bb|--------------------10-------|
Gb|-12-12-12\-------12----12-9~-|
Db|-----------10-12-------------|
Ab|-----------------------------|
Eb|-----------------------------|

End Solo



Riff 2 (Play 4x)
eb|----------------------------------|
Bb|----------------------------------|
Gb|----------------------------------|
Db|-9-----9-----9---10-----9-----9---|
Ab|-7-777-7-777-7-7--8-777-7-777-7-7-|
Eb|----------------------------------|
      ***   ***   *    ***   ***   *
eb|-------------------------|
Bb|-------------------------|
Gb|-------------------------|
Db|-10-----9-----9---10-10\-|
Ab|--8-777-7-777-7-0--8--8\-|
Eb|-------------------------|
       ***   ***

Guitar fill over riff 2
eb|--13------|
Bb|--16b18~--|
Gb|----------|
Db|----------|
Ab|----------|
Eb|----------|


Riff 2a
eb|-----------------------------------|
Bb|-----------------------------------|
Gb|-----------------------------------|
Db|-9---------------------------------|
Ab|-7-777-7-777-7-77-8-777-7-777-7-77-|
Eb|-----------------------------------|
      *** * *** * ** * *** * *** * **
eb|-------------------------|
Bb|-------------------------|
Gb|-------------------------|
Db|------------------7----7-|
Ab|-8-777-7-777-7-77-8----8-|
Eb|-------------------------|
    * *** * *** * **
eb|-----------------------------------|
Bb|-----------------------------------|
Gb|-----------------------------------|
Db|-9---------------------------------|
Ab|-7-777-7-777-7-77-8-777-7-777-7-77-|
Eb|-----------------------------------|
      *** * *** * ** * *** * *** * **
eb|---------------------------|
Bb|---------------------------|
Gb|---------------------------|
Db|------------------7----7---|
Ab|-8-777-7-777-7-77-8----8-0-|
Eb|---------------------------|
    * *** * *** * **


Riff 3 (Solo Rhythm)                            x2
eb|----------------------------------------------|
Bb|----------------------------------------------|
Gb|----------------------------------------------|
Db|-9----9-10-9-7--9--10-12----12-14-12-10--9--7-|
Ab|-7----7--8-7-5--7---8-10----10-12-10--8--7--5-|
Eb|----------------------------------------------|


Riff 3a (Solo Rhythm)
eb|--------------------------------|
Bb|--------------------------------|
Gb|--------------------------------|
Db|-9-----------9-10-9-7--9--10-12-|
Ab|-7-----2-----7--8-7-5--7---8-10-|
Eb|---0-0-0-0-0--------------------|
      * *   * *
eb|-----------------------------------|
Bb|-----------------------------------|
Gb|-----------------------------------|
Db|-------12-----------------10--9--7-|
Ab|-10-10-10-10-10-10-121210--8--7--5-|
Eb|-----------------------------------|
     *  *     *  *  *  * * * 


Solo
eb|-------------------------------------|
Bb|-------------------------------------|
Gb|-------------------------------------|
Db|-------------------------------------|
Ab|-------------------------------------|
Eb|-------------------------------------|

eb|-------------------------------------|
Bb|-------------------------------------|
Gb|-------------------------------------|
Db|-------------------------------------|
Ab|-------------------------------------|
Eb|-------------------------------------|

eb|-------------------------------------|
Bb|-------------------------------------|
Gb|-------------------------------------|
Db|-------------------------------------|
Ab|-------------------------------------|
Eb|-------------------------------------|

eb|-------------------------------------|
Bb|-------------------------------------|
Gb|-------------------------------------|
Db|-------------------------------------|
Ab|-------------------------------------|
Eb|-------------------------------------|

End Solo


Riff 4
Guitar 1
eb|-----------------------------------|
Bb|-----------------------------------|
Gb|-----------------------------------|
Db|-----------------------------------|
Ab|-5\2--------------5\2--------------|
Eb|-3\0-0-000-000-00-3\0-0-000-000-00-|
        * *** *** **     * *** *** **
eb|---------------------------------|
Bb|---------------------------------|
Gb|---------------------------------|
Db|---------------------------------|
Ab|-----3---2---1-------3---2---1---|
Eb|-1-1---1---1---111-1---1---1---1-|
    * *   *   *   *** *   *   *   *

Guitar 2
eb|-------------------------------------|
Bb|-------------------------------------|
Gb|-------------------------------------|
Db|-12\9--------------12\9--------------|
Ab|-10\7-7-777-777-77-10\7-7-777-777-77-|
Eb|-------------------------------------|
         * *** *** **      * *** *** **
eb|-----------------------------------|
Bb|-----------------------------------|
Gb|-----------------------------------|
Db|-----10---9---8-------10---9---8---|
Ab|-8-8----8---8---888-8----8---8---8-|
Eb|-----------------------------------|
    * *    *   *   *** *    *   *   *


Riff 5 (Guitar 2 play notes in () )
eb|---------------------------|
Bb|---------------------------|
Gb|---------------------------|
Db|---------9-7-9-10--9--7-9\-|
Ab|-2-2-----7-5-7--8--7--5-7\-|
Eb|-0-0-0-0-------------------|
        * *
eb|-------------------------|
Bb|-------------------------|
Gb|-------------------------|
Db|-------9-7-9-10--9--7-9\-|
Ab|-2-----7-5-7--8--7--5-7\-|
Eb|-0-0-0-------------------|
      * *
eb|-------------------------|
Bb|-------------------------|
Gb|-------------------------|
Db|------(5-4-5-7--5--4-5\)-|
Ab|-2-----7-5-7-8--7--5-7\--|
Eb|-0-0-0-------------------|
      * *
eb|----------------------|
Bb|----------------------|
Gb|----------------------|
Db|------(5-4-5-7--5--4)-|
Ab|-2-----7-5-7-8--7--5--|
Eb|-0-0-0----------------|
      * *

Play Riff 4   "As I grow..."
           
Riff 6 (Guitar 2 plays notes in () )
eb|--------------------------------------------------|
Bb|--------------------------------------------------|
Gb|--------------------------------------------------|
Db|--(5)-(5)-(5-7-5)-(4)-(4)-(4-5-4)-(2)-(2)-(2-4-2)-|
Ab|---7---7---7-8-7---5---5---5-7-5---3---3---3-5-3--|
Eb|-0---0---0-------0---0---0-------0---0---0--------|
    *   *   *       *   *   *       *   *   *
eb|----------------------------------------------|
Bb|----------------------------------------------|
Gb|----------------------------------------------|
Db|----------------------------------------------|
Ab|--(5)-(5)-877-10-8-877-8-10-877-10-8-877-8-10-|
Eb|-0-7-0-7--------------------------------------|
    *   *    *** *  * *** *  * *** *  * *** *  *


Riff 7
eb|--------------------------------|
Bb|--------------------------------|
Gb|--------------------------------|
Db|-9-10-9--10-7-10-9--9-9-10-9-12-|
Ab|-7--8-7---8-5--8-7--7-7--8-7-10-|
Eb|--------------------------------|
             * *  *                
   "The reflection..."      
eb|-----------------------------------|
Bb|-----------------------------------|
Gb|-----------------------------------|
Db|-9-10-9--10-7-10-9-----------------|
Ab|-7--8-7---8-5--8-7--7-77-10-8-12-8-|
Eb|-----------------------------------|
             * *  *      **  * *
   "My body's old..."


Riff 8
eb|--------------------------|
Bb|--------------------------|
Gb|--------------------------|
Db|-3--3--------------2------|
Ab|-5--5--5-5-3-3-3-3-0--0-0-|
Eb|--------------------------|
          * * * * * *    * * 
  "Soul sucked..."

Play Riff 7   "Trapped in someone else..."
Play Riff 8   "Soul sucked..."

Riff 7a
Guitar 1
eb|-----------------------------|
Bb|-----------------------------|
Gb|-----------------------------|
Db|-----------------------------|
Ab|-7--8-7--8-5-8-7--7-7-8-7-10-|
Eb|-----------------------------|
            * * *                
eb|--------------------------------|
Bb|--------------------------------|
Gb|--------------------------------|
Db|--------------------------------|
Ab|-7--8-7--8-5-8-7--7-7-10-8-12-8-|
Eb|--------------------------------|
            * * *
Guitar 2
eb|----------------------------|
Bb|----------------------------|
Gb|--------------------------4-|
Db|-5--7-5--7-4-7-5--5-5-7-5---|
Ab|----------------------------|
Eb|----------------------------|
            * * *                
eb|------------------------------|
Bb|------------------------------|
Gb|----------------------4---5---|
Db|-5--7-5--7-4-7-5--5-5---7---7-|
Ab|------------------------------|
Eb|------------------------------|
            * * * 


Riff 9 (Solo Rhythm, Play 2x)
eb|----------------------------------------|
Bb|----------------------------------------|
Gb|----------------------------------------|
Db|--------------7--7--7-------------------|
Ab|-8--7--5-3-2--5--5--5-------10--10--10\-|
Eb|-6--5--3-1-0-----------4-56--8---8---8\-|
                          * **       
eb|---------------------------------|
Bb|---------------------------------|
Gb|---------------------------------|
Db|------4--4--4-------2--2----4-2--|
Ab|------2--2--2-------0--0----2-0--|
Eb|-2-45----------0-23-------3------|
    * **          * **       *


Solo
eb|-------------------------------------|
Bb|-------------------------------------|
Gb|-------------------------------------|
Db|-------------------------------------|
Ab|-------------------------------------|
Eb|-------------------------------------|

eb|-------------------------------------|
Bb|-------------------------------------|
Gb|-------------------------------------|
Db|-------------------------------------|
Ab|-------------------------------------|
Eb|-------------------------------------|

eb|-------------------------------------|
Bb|-------------------------------------|
Gb|-------------------------------------|
Db|-------------------------------------|
Ab|-------------------------------------|
Eb|-------------------------------------|

eb|-------------------------------------|
Bb|-------------------------------------|
Gb|-------------------------------------|
Db|-------------------------------------|
Ab|-------------------------------------|
Eb|-------------------------------------|

End Solo


Riff 9a
Guitar 1
eb|-------------------------------------|
Bb|-------------------------------------|
Gb|-------------------------------------|
Db|-------------------------------------|
Ab|-8--7--5-3-2--5--5--5----------------|
Eb|-6--5--3-1-0-----------4-56-8--8--8\-|

eb|---------------------------------|
Bb|---------------------------------|
Gb|---------------------------------|
Db|---------------------------------|
Ab|------2--2--2-------0--0----2-0--|
Eb|-2-45----------0-23-------3------|

eb|-------------------------------------|
Bb|-------------------------------------|
Gb|-------------------------------------|
Db|-8--7--5-3-2-------------------------|
Ab|--------------5--5--5----------------|
Eb|-----------------------4-56-8--8--8\-|
       
eB|---------------------------------|
Bb|---------------------------------|
Gb|---------------------------------|
Db|---------------------------------|
Ab|------2--2--2-------0--0----2-0--|
Eb|-2-45----------0-23-------3------|


Guitar 2
eb|----------------------------------------|
Bb|----------------------------------------|
Gb|----------------------------------------|
Db|----------------------------------------|
Ab|-8--7--5-3-2--8--8--8--6-78-10--10--10\-|
Eb|-6--5--3-1-0----------------------------|

eb|--------------------------------------|
Bb|--------------------------------------|
Gb|---------------------------------7----|
Db|-7-910-/12--12--12--5-78-10-10-7---10-|
Ab|--------------------------------------|
Eb|--------------------------------------|

eb|----------------------------------------|
Bb|----------------------------------------|
Gb|-6--5-----------------------------------|
Db|-------8-7-5----------------------------|
Ab|--------------8--8--8--6-78-10--10--10\-|
Eb|----------------------------------------|

eb|---------------------------------------|
Bb|---------------------------------------|
Gb|---------------------------------7-----|
Db|-7-910-/12--12--12--5-78-10-10-7---10~-|
Ab|---------------------------------------|
Eb|---------------------------------------|


Play Riff 2

Riff 2b (Play 2x)
eb|-----------------------------------|
Bb|-----------------------------------|
Gb|-----------------------------------|
Db|-9---------------------------------|
Ab|-7-777-7-777-7-77-8-777-7-777-7-77-|
Eb|-----------------------------------|
      *** * *** * ** * *** * *** * **
eb|-----------------------|
Bb|-----------------------|
Gb|-----------------------|
Db|-----------------10-10-|
Ab|-8-777-7-777-7-77-8--8-|
Eb|-----------------------|
    * *** * *** * **

Guitar fill over 2b
Guitar 1
eb|--13------|
Bb|--16b18~--|
Gb|----------|
Db|----------|
Ab|----------|
Eb|----------|

Guitar 2
eb|--17------|
Bb|--20b22~--|
Gb|----------|
Db|----------|
Ab|----------|
Eb|----------|


Play Riff 5


Riff 10
Guitar 1
eb|-------------------------------------|
Bb|-------------------------------------|
Gb|-------------------------------------|
Db|-------------------------------------|
Ab|-5-5-555-7-8-/10--10-10-101010-8-7-5-|
Eb|-------------------------------------|

eb|-------------------------------|
Bb|-------------------------------|
Gb|-------------------------------|
Db|-------------------------------|
Ab|-------------------------------|
Eb|-6-6-666-/10-5--5-5-555-555-55-|

Guitar 2 (Comes in the 3rd and 4th times)
eb|-----------------------------------------------|
Bb|-----------------------------------------------|
Gb|-10-10-101010-12-14-/15--15-15-151515-14-12-10-|
Db|-----------------------------------------------|
Ab|-----------------------------------------------|
Eb|-----------------------------------------------|

eb|-----------------------------------------------|
Bb|-----------------------------------------------|
Gb|-----------------------------------------------|
Db|-12-12-121212-/15-10--10-10-101010-101010-1010-|
Ab|-----------------------------------------------|
Eb|-----------------------------------------------|

eb|-----------------------------------------------|
Bb|-----------------------------------------------|
Gb|-10-10-101010-12-14-/15--15-15-151515-14-12-10-|
Db|-----------------------------------------------|
Ab|-----------------------------------------------|
Eb|-----------------------------------------------|

eb|----------------------------------------|
Bb|----------------------------------------|
Gb|------------------------------------7~~-|
Db|-12-12-121212-/15-10--10-10-101010--a---|
Ab|----------------------------------------|
Eb|----------------------------------------|


Ending                                                                      
eb|-------------------------------------|
Bb|-------------------------------------|
Gb|-------------------------------------|
Db|-12\9--------------12\9--------------|
Ab|-10\7-7-777-777-77-10\7-7-777-777-77-|
Eb|-------------------------------------|
         * *** *** **      * *** *** ** 

eb|-----------------------------------------|
Bb|-----------------------------------------|
Gb|-----------------------------------------|
Db|-----10---9---8-------10---9---8\--------|
Ab|-8-8----8---8---888-8----8---8-------2-2-|
Eb|-----------------------------------0-0-0-|
    * *    *   *   *** *    *   *     *

-----------------------------------------------------------

6. SOLITUDE

Tuning: Eb

Riff 1
eb|---------------------------------|
Bb|---------------------------------|
Gb|---------------------0-------0---|
Db|-----5-------5-----4---4---4---4-|
Ab|---7---7---7---7-5-------5-------|
Eb|-0-------0-----------------------|

eb|--------------------------------|
Bb|--------------------------------|
Gb|---------------------0-------0--|
Db|-----5-------5-----4---4---4----|
Ab|---7---7---7---7-5-------5------|
Eb|-0-------0----------------------|



Riff 2
eb|---------------------------------|
Bb|-----0---------------0-----------|
Gb|---5---5---5---5---4---4---4---4-|
Db|-7-------7---7---5-------5---5---|
Ab|---------------------------------|
Eb|---------------------------------|

eb|---------------------------------|
Bb|-----0---------------0-----------|
Gb|---5---5---5---5---4---4---4-----|
Db|-7-------7---7---5-------5---5\3-|
Ab|---------------------------------|
Eb|---------------------------------|

eb|-------------0---------------0---|
Bb|-----0---------------0-----------|
Gb|---2---2---2---2---2---2---2---2-|
Db|-3-------3-----3-3-------3-----3-|
Ab|---------------------------------|
Eb|---------------------------------|

eb|---------------------------------|
Bb|-----0-------7-------0-------7---|
Gb|---4---4---4---4---4---4---4-----|
Db|-5-------5-----5-5-------5-----5-|
Ab|---------------------------------|
Eb|---------------------------------|


Repeat Riffs 1 and 2 until very end, then play:
eb|------0--|
Bb|------0--|
Gb|------0--|
Db|------5--|
Ab|---7--7--|
Eb|-0-------|



Solo
Guitar 1                x2
eb|----------------------|
Bb|---8-7------------7-8-|
Gb|-9-----9----7-7-9-----|
Db|----------------------|
Ab|----------------------|
Eb|----------------------|
                                x2
eb|-----------------------7h8-7~-|
Bb|---8-7-8-10------8-7-8--------|
Gb|-7-------------7--------------|
Db|------------------------------|
Ab|------------------------------|
Eb|------------------------------|

eb|-------------------------|
Bb|-------------------------|
Gb|-7-----------------------|
Db|---10-9-7-----------7-9--|
Ab|-------------8-8-10------|
Eb|-------------------------|

eb|-------------------------|
Bb|-------------------------|
Gb|-------------------------|
Db|-10-9-7----------------7-|
Ab|--------10----7-7-8-10---|
Eb|-------------------------|


Guitar 2                         x2
eb|-------------------------------|
Bb|----12-10----------------10-12-|
Gb|-12-------12----11-11-12-------|
Db|-------------------------------|
Ab|-------------------------------|
Eb|-------------------------------|
                                           x2
eb|-------------------------------10h12-10~-|
Bb|----12-10-12-13-------12-10-12-----------|
Gb|-12----------------12--------------------|
Db|-----------------------------------------|
Ab|-----------------------------------------|
Eb|-----------------------------------------|

eb|--------------------------|
Bb|--------------------------|
Gb|-10-9-7----------------7--|
Db|--------10----7-7-9-10----|
Ab|--------------------------|
Eb|--------------------------|

eb|--------------------------|
Bb|--------------------------|
Gb|-9-7----------------------|
Db|-----10-9----------7-9-10-|
Ab|-------------10-10--------|
Eb|--------------------------|



Repeat the above lead until end, then play:
Guitar 1
eb|-----------|
Bb|----8-7----|
Gb|--9-----9--|
Db|-----------|
Ab|-----------|
Eb|-----------|

Guitar 2
eb|-------------|
Bb|----12-10----|
Gb|-12-------12-|
Db|-------------|
Ab|-------------|
Eb|-------------|

--------------------------------------------------------

7. FUNERAL
Tuning: Eb

Intro
Guitar 1 (Clean)           x4
eb|----0------0-------------|
Bb|-10---10-9---9----0------|
Gb|---------------10---10-9-|  -------|
Db|-------------------------|         |
Ab|-------------------------|         |
Eb|-------------------------|         |
                                 x4   |-- Play 2x
eb|-------------------------------|   |
Bb|----0-------0------------------|   |
Gb|-12---12-11---11----0------0---|   |
Db|-----------------12---12-9---9-| --|
Ab|-------------------------------|
Eb|-------------------------------|

                           x4
eb|----0------0-------------|--0--|
Bb|-10---10-9---9----0------|--0--|
Gb|---------------10---10-9-|--9--|
Db|-------------------------|-----|
Ab|-------------------------|-----|
Eb|-------------------------|-----|


Guitar 2                   x4 
eb|-------------------------|
Bb|-------------------------|
Gb|-------------------------|
Db|-------------------------|  -------|
Ab|--2----------------------|         |
Eb|--0----------------------|         |
                                 x4   | 
eb|-------------------------------|   |-- Play 2x
Bb|-------------------------------|   |
Gb|-------------------------------|   |
Db|-------------------------------| --|
Ab|--5----------------------------|
Eb|--3----------------------------|

                           x4
eb|-------------------------|-----|
Bb|-------------------------|-----|
Gb|-------------------------|-----|
Db|-------------------------|-----|
Ab|--2----------------------|--2--|
Eb|--0----------------------|--0--|



                                  TIME: 0:43
Guitar 1
eb|-----------------------|
Bb|-----------------------|
Gb|-----------------------|
Db|-----------------------|
Ab|--7---------7----7--10-|
Eb|--5---------5----5---8-|

eb|-----------------------|
Bb|-----------------------|
Gb|-----------------------|
Db|--9---------9----9-----|
Ab|--7---------7----7--5--|
Eb|--------------------3--|

eb|-----------------------|
Bb|-----------------------|
Gb|-----------------------|
Db|-----------------------|
Ab|--7---------7----7--10-|
Eb|--5---------5----5---8-|

eb|-----------------------|
Bb|-----------------------|
Gb|-----------------------|
Db|--9---------9----9-----|
Ab|--7---------7----7--5--|
Eb|--------------------3--|


Guitar 2 (Slightly palm muted)
                             x2
eb|---------------------------|
Bb|---------------------------|
Gb|---------------------------|
Db|-10p7-7-8p7-7-10p7-7-8p7-7-|
Ab|---------------------------|
Eb|---------------------------|
                             x2
eb|---------------------------|
Bb|---------------------------|
Gb|---------------------------|
Db|---------------------------|
Ab|-10p7-7-8p7-7-10p7-7-8p7-7-|
Eb|---------------------------|


                                 TIME: 0:59

Guitar 1
eb|----------------------------------|
Bb|----------------------------------|
Gb|----------------------------------|
Db|----------------------------------|
Ab|-7--------7--------7--------7--10-|
Eb|-5--5-555-5--5-555-5--5-555-5---8-|
       * ***    * ***    * ***
eb|----------------------------------|
Bb|----------------------------------|
Gb|----------------------------------|
Db|-9--------9--------9--------9-----|
Ab|-7--------7--------7--------7--5--|
Eb|----0-000----0-000----0-000----3--|
       * ***    * ***    * ***
eb|----------------------------------|
Bb|----------------------------------|
Gb|----------------------------------|
Db|----------------------------------|
Ab|-7--------7--------7--------7--10-|
Eb|-5--5-555-5--5-555-5--5-555-5---8-|
       * ***    * ***    * ***
eb|------------------------------------|
Bb|------------------------------------|
Gb|------------------------------------|
Db|-9--------9--------9--------9-------|
Ab|-7--------7--------7--------7--5--2-|
Eb|----0-000----0-000----0-000----3--0-|
       * ***    * ***    * ***

Guitar 2                     x2               
eb|---------------------------|
Bb|---------------------------|
Gb|---------------------------|
Db|-10p7-7-8p7-7-10p7-7-8p7-7-|
Ab|---------------------------|
Eb|---------------------------|
                             x2               
eb|---------------------------|
Bb|---------------------------|
Gb|---------------------------|
Db|---------------------------|
Ab|-10p7-7-8p7-7-10p7-7-8p7-7-|
Eb|---------------------------|


                                 TIME: 1:15

eb|----------------------------------|
Bb|----------------------------------|
Gb|----------------------------------|
Db|----------------------------------|
Ab|----------------------------------|
Eb|-0-000-000-000-000-000-000-000-00-|
    * *** *** *** *** *** *** *** **

                                 TIME: 1:18

Guitar 1                            x8
eb|----------------------------------|
Bb|----------------------------------|
Gb|----------------------------------|
Db|----------------------------------|
Ab|---------------5-----------3---2--|
Eb|-0-000-000-000-3-0-000-111---1----|
    * *** *** ***   * *** ***   *

Guitar 2 (Play 2x)
eb|-----------------------------------|
Bb|-----------------------------------|
Gb|------------4-5-4----4-5-4---------|
Db|-2--------2----------------7----7\-|
Ab|-----------------------------------|
Eb|-----------------------------------|

eb|----------------------------------------|
Bb|----------------------------------------|
Gb|----------------------------------------|
Db|-5----5\--2----2-3p2p0-2----3p2p0-3p2p0-|
Ab|----------------------------------------|
Eb|----------------------------------------|



                                 TIME: 1:38

Guitar 1
eb|---------------------------------|
Bb|---------------------------------|
Gb|---------------------------------|
Db|---------------------------------|
Ab|---------------5-----------3---2-|
Eb|-0-000-000-000-3-0-000-111---1---|
    * *** *** ***   * *** ***   *
Guitar 2
eb|-----------------------------------|
Bb|-----------------------------------|
Gb|-----------------------------------|
Db|---------------12-----------10---9-|
Ab|-7-777-777-777-10-7-777-888----8---|
Eb|-----------------------------------|
    * *** *** ***    * *** ***    *



                                TIME: 1:48

Guitar 1                            x8
eb|----------------------------------|
Bb|----------------------------------|
Gb|----------------------------------|
Db|----------------------------------|
Ab|---------------5-----------3---2--|
Eb|-0-000-000-000-3-0-000-111---1----|
    * *** *** ***   * *** ***   *

Guitar 2 (Play 2x)
eb|-----------------------------------|
Bb|-----------------------------------|
Gb|------------4-5-4----4-5-4---------|
Db|-2--------2----------------7----7\-|
Ab|-----------------------------------|
Eb|-----------------------------------|

eb|----------------------------------------|
Bb|----------------------------------------|
Gb|----------------------------------------|
Db|-5----5\--2----2-3p2p0-2----3p2p0-3p2p0-|
Ab|----------------------------------------|
Eb|----------------------------------------|


                                TIME: 2:07

Guitar 1                           x4
eb|---------------------------------|-----|
Bb|---------------------------------|-----|
Gb|---------------------------------|-----|
Db|---------------------------------|-----|
Ab|---------------5-----------3---2-|--2--|
Eb|-0-000-000-000-3-0-000-111---1---|--0--|
    * *** *** ***   * *** ***   *
Guitar 2                             x4
eb|-----------------------------------|-----|
Bb|-----------------------------------|-----|
Gb|-----------------------------------|-----|
Db|---------------12-----------10---9-|-----|
Ab|-7-777-777-777-10-7-777-888----8---|--2--|
Eb|-----------------------------------|--0--|
    * *** *** ***    * *** ***    *


                                TIME: 2:22


Guitar 1 (Clean)                             x12
eb|--------------------------------------------|
Bb|--------------------------------------------|
Gb|--------------16-------------------17-------|
Db|------16-17------17-16------16-17-----17-16-|
Ab|---14--------------------14-----------------|
Eb|-0---------------------0--------------------|


Solo over the above riff
eb|------------------------------------------------------|
Bb|------------------------------------------------------|
Gb|-9----------------------------------------------------|
Db|----7-9----9-10-9-7-5-5-7-9\--2-3---2----2-2-3-2---2~-|
Ab|----------------------------------5--------------5----|
Eb|------------------------------------------------------|

eb|----------------------------------------------------------|
Bb|----------------------------------------------------------|
Gb|-9-------7------------------------------------------------|
Db|----9-10----10-9-7-9-10\--5-7-9\--2-3---2----2-2-3-2---2~-|
Ab|--------------------------------------5--------------5----|
Eb|----------------------------------------------------------|

eb|----------------------------------------------------|
Bb|----------------------------------------------------|
Gb|----------------------------------------------------|
Db|-----7-9\--------7-9\--2--4-5-4-2-------------------|
Ab|-7-9---------7-9------------------5\2-2--2-3-2-0-2~-|
Eb|----------------------------------------------------|
    *           *
eb|-------------------------------------------------|
Bb|-------------------------------------------------|
Gb|-------------------------------------------------|
Db|-----7-9\--------7-9\--2--4-5-4-2----------------|
Ab|-7-9---------7-9------------------5\-0--0-2-3-2~-|
Eb|-------------------------------------------------|
    *           *

End solo

                               TIME: 3:12 

Both guitars
eb|--------------------------------------------|
Bb|--------------------------------------------|
Gb|--------------------------------------------|
Db|--------------------------------------------|
Ab|-2--------3--------2--------5-5-5-5-3-3-3-3-|
Eb|-0----0-0-1----1-1-0----0-0-3-3-3-3-1-1-1-1-|
         * *      * *      * *   * * * * * * *  
eb|------------------------------------------------|
Bb|------------------------------------------------|
Gb|------------------------------------------------|
Db|------------------------------------------------|
Ab|-2--------3------3---3-2--------5-5-5-5-3-3-3---|
Eb|-0----0-0-1----1-1-1-1-0----0-0-3-3-3-3-1-1-1-0-|
         * *      *   *        * *   * * *   * * *
eb|-----------------------------|
Bb|-----------------------------|
Gb|-----------------------------|
Db|-----------------------------|
Ab|-7----9-10-12--10-9-7-9-10\6-|
Eb|-----------------------------|

eb|---------------------------|
Bb|---------------------------|
Gb|---------------------------|
Db|---------------------------|
Ab|-7--7--------------5-555-6-|
Eb|------6--6-667-777---------|
              *** *** * ***
eb|-----------------------------|
Bb|-----------------------------|
Gb|-----------------------------|
Db|-----------------------------|
Ab|-7----9-10-12--10-9-7-9-10\6-|
Eb|-----------------------------|

eb|----------------------------|
Bb|----------------------------|
Gb|----------------------------|
Db|----------------------------|
Ab|-7--7--------------5-555-6\-|
Eb|------6--6-667-777----------|
              *** *** * ***



                                 TIME:  3:40

Guitar 1
eb|-----------------------------------|
Bb|-----------------------------------|
Gb|-----------------------------------|
Db|-5-7----777-8-7---5----555-7-5---5-|
Ab|----------------8--------------8---|
Eb|-----------------------------------|

eb|---------------------------|
Bb|---------------------------|
Gb|---------------------------|
Db|-555-7-5-------------------|
Ab|---------8-7----77-8-7---5-|
Eb|-----------------------8---|

Guitar 2
eb|-----------------------------------|
Bb|-----------------------------------|
Gb|-4-5----555-7-5---4----444-5-4---4-|
Db|----------------7--------------7---|
Ab|-----------------------------------|
Eb|-----------------------------------|

eb|---------------------------|
Bb|---------------------------|
Gb|-444-5-4-------------------|
Db|---------5-7----55-5-7-----|
Ab|-----------------------7-8-|
Eb|---------------------------|


                                 TIME: 4:10
Solo Rhythm
Guitar 1                        
eb|--------------------------------------------|
Bb|--------------------------------------------|
Gb|--------------------------------------------|
Db|-2--------12----12----5----5---7------7---7-|
Ab|-0----0-0-10----10--0-3----3-0-5----0-5-0-5-|
Eb|--------------------------------------------|
         * *           *        *      *
eb|------------------------------------------|
Bb|------------------------------------------|
Gb|------------------------------------------|
Db|-2------------------5----5---7------7---7-|
Ab|-0----0-0--5----5---3----3-0-5----0-5-0-5-|
Eb|-----------3----3-0-----------------------|
         * *         *        *      *
eb|--------------------------------------------|
Bb|--------------------------------------------|
Gb|--------------------------------------------|
Db|-2--------12----12----5----5---7------7---7-|
Ab|-0----0-0-10----10--0-3----3-0-5----0-5-0-5-|
Eb|--------------------------------------------|
         * *           *        *      *
eb|--------------------------------------|
Bb|--------------------------------------|
Gb|--------------------------------------|
Db|-2------------------5---------------7-|
Ab|-0----0-0--5----5---3-3-3-3-3-3-3-3-5-|
Eb|-----------3----3-0-------------------|
         * *         *   * * * * * * *


Solo (Slight palm mutes)
eb|------------------------------------------------10-------12~-|
Bb|---------------------------------------12----12-------12-----|
Gb|-----------------------11----9-12-9-12----12-------12--------|
Db|----9-10----10-12-9-12----12---------------------------------|
Ab|-10------12--------------------------------------------------|
Eb|-------------------------------------------------------------|

eb|-19------19-------------19-17-17h19p17\15-15h17p15\13-14\-|
Bb|---17--18--16-17-17--18-----------------------------------|
Gb|-----16------------16-------------------------------------|
Db|----------------------------------------------------------|
Ab|----------------------------------------------------------|
Eb|----------------------------------------------------------|

eb|-3-3-3h5p3p0-------------------------------0h2h3-----|
Bb|-------------3p2p0---------------------0h3-------5~--|
Gb|-------------------4p2p0-----------0h3---------------|
Db|-------------------------4p2p0-2h4-------------------|
Ab|-----------------------------------------------------|
Eb|-----------------------------------------------------|

eb|-3-3-3h5p3p0--------------------------------------|
Bb|-------------3p2p0---------------------0h3-5p3-3~-|
Gb|-------------------4p2p0-----------0h3------------|
Db|-------------------------4p2p0-2h4----------------|
Ab|--------------------------------------------------|
Eb|--------------------------------------------------|

eb|--------------------------------------------------|
Bb|--------------------------------------------------|
Gb|-999-7\5---7----777-5\4---5----555-4\2---4------2-|
Db|---------7--------------5--------------5------5---|
Ab|--------------------------------------------------|
Eb|--------------------------------------------------|

eb|--------------------------------------------------|
Bb|--------------------------------------------------|
Gb|-999-7\5---7----777-5\4---5----555-4\2---4------2-|
Db|---------7--------------5--------------5------5---|
Ab|--------------------------------------------------|
Eb|--------------------------------------------------|

End solo

                               TIME: 4:37

Guitar 1
eb|-------------------------------|
Bb|-------------------------------|
Gb|-------------------------------|
Db|-2-----------------------------|
Ab|-0--0-000-000-5----------------|
Eb|--------------3--3-3-333-333-0-|
       * *** ***    * * *** *** *
eb|--------------------------------|
Bb|--------------------------------|
Gb|--------------------------------|
Db|-5------------7-----------------|
Ab|-3--3-333-330-5--5-5-555-555-00-|
Eb|--------------------------------|
       * *** ***    * * *** *** **

Guitar 2
eb|---------------------------------------|
Bb|---------------------------------------|
Gb|-----------9-9-7-7-----------7-7-------|
Db|-7-7-10-10---------------9-9-----10-10-|
Ab|-------------------10-10---------------|
Eb|---------------------------------------|
    * *  *  * * * * *  *  * * * * *  *  * 
eb|--------------------------------------|
Bb|---------------------10------8--------|
Gb|--------------------------------------|
Db|-------7-7-10-10-9-7----10-9---10-9-7-|
Ab|-10-10--------------------------------|
Eb|--------------------------------------|
     *  * * *  *  * * *

Guitar 3 (Comes in the 3rd and 4th time)
eb|-----------------------------------|
Bb|-----------8-8-7-7---------7-7-----|
Gb|-------9-9-------------7-7-----9-9-|
Db|-10-10-------------9-9-------------|
Ab|-----------------------------------|
Eb|-----------------------------------|
     *  * * * * * * * * * * * * * * *  
eb|---------------------8-----7--------|
Bb|------------------------------------|
Gb|------------9-9-7------9-7---9-7----|
Db|-9-9-10-10--------10-------------10-|
Ab|------------------------------------|
Eb|------------------------------------|
    * *  *  *  * * *  *


                                  TIME:  4:57

                    x4 
eb|------------------|
Bb|------------------|
Gb|-0h2--------------|
Db|-0h2--------------|
Ab|------0-000-0-0-0-|
Eb|------------------|
         * *** * * *

                                  TIME:  5:02


Guitar 1
eb|--------------------------------------|
Bb|--------------------------------------|
Gb|--------------------------------------|
Db|--------------------------------------|
Ab|-7----7-8-7-5----5-8----8-10-8-7----5-|
Eb|-5----5-6-5-3----3-6----6--8-6-5----3-|

eb|--------------------------------------|
Bb|--------------------------------------|
Gb|--------------------------------------|
Db|--------------------------------------|
Ab|-7----7-8-7-5----5-8----8-10-8-7----7-|
Eb|-5----5-6-5-3----3-6----6--8-6-5----5-|

Guitar 2 
eb|-------------------------------|
Bb|-------------------------------|
Gb|-------------------------------|
Db|-7--7-777-7-8-7-5--5-555-555-5-|
Ab|-------------------------------|
Eb|-------------------------------|

eb|--------------------------------|
Bb|--------------------------------|
Gb|--------------------------------|
Db|-8--8-888-8-10-8-7--7-777-777-5-|
Ab|--------------------------------|
Eb|--------------------------------|

                                   TIME:  5:11

Guitar 1 (Play 2x)
eb|-------------------------------|
Bb|-------------------------------|
Gb|-------------------------------|
Db|-------------------------------|
Ab|-5--5-555-5-7-5-3--3-333-333-3-|
Eb|-------------------------------|

eb|--------------------------------|
Bb|--------------------------------|
Gb|--------------------------------|
Db|--------------------------------|
Ab|-8--8-888-8-10-8-7--7-777-777-0-|
Eb|--------------------------------|

Guitar 2
eb|--------------------------------|
Bb|--------------------------------|
Gb|--------------------------------|
Db|--------------------------------|
Ab|-8--8-888-8-10-8-7--7-777-777-7-|
Eb|--------------------------------|

eb|-------------------------------|
Bb|-------------------------------|
Gb|-------------------------------|
Db|-7--7-777-7-9-7-6--6-666-666---|
Ab|-----------------------------7-|
Eb|-------------------------------|

eb|--------------------------------|
Bb|--------------------------------|
Gb|--------------------------------|
Db|--------------------------------|
Ab|-8--8-888-8-10-8-7--7-777-777-7-|
Eb|--------------------------------|

eb|-------------------------------|
Bb|-------------------------------|
Gb|-------------------------------|
Db|-7--7-777-7-9-7-6--6-666-666\--|
Ab|-------------------------------|
Eb|-------------------------------|


                                    TIME:  5:20

Guitar 1
eb|--------------------------------|
Bb|--------------------------------|
Gb|--------------------------------|
Db|-7-777-777-77-8-7-5-555-555-555-|
Ab|--------------------------------|
Eb|--------------------------------|
    * *** *** ** * * * *** *** *** 
eb|-------------------------------------|
Bb|-------------------------------------|
Gb|-------------------------------------|
Db|-558-888-888-88-10-8-7-777-777-777-5-|
Ab|-------------------------------------|
Eb|-------------------------------------|
    *** *** *** **  * * * *** *** *** *
eb|--------------------------------|
Bb|--------------------------------|
Gb|--------------------------------|
Db|-7-777-777-77-8-7-5-555-555-555-|
Ab|--------------------------------|
Eb|--------------------------------|
    * *** *** ** * * * *** *** *** 
eb|-------------------------------------|
Bb|-------------------------------------|
Gb|-------------------------------------|
Db|-558-888-888-88-10-8-7-777-777-777-0-|
Ab|-------------------------------------|
Eb|-------------------------------------|
    *** *** *** **  * * * *** *** *** *

Guitar 2
eb|-------------------------------------------|
Bb|-------------------------------------------|
Gb|-------------------------------------------|
Db|-10-101010-101010-1010-12-10-9-999-999-999-|
Ab|-------------------------------------------|
Eb|-------------------------------------------|
     *  * * *  * * *  * *  *  * * *** *** *** 
eb|---------------------------------------------------------|
Bb|---------------------------------------------------------|
Gb|---------------------------------------------------------|
Db|-9912-121212-121212-1212-14-12-10-101010-101010-101010-9-|
Ab|---------------------------------------------------------|
Eb|---------------------------------------------------------|
    ** *  * * *  * * *  * *  *  *  *  * * *  * * *  * * * *
eb|-------------------------------------------|
Bb|-------------------------------------------|
Gb|-------------------------------------------|
Db|-10-101010-101010-1010-12-10-9-999-999-999-|
Ab|-------------------------------------------|
Eb|-------------------------------------------|
     *  * * *  * * *  * *  *  * * *** *** *** 
eb|---------------------------------------------------------|
Bb|---------------------------------------------------------|
Gb|---------------------------------------------------------|
Db|-9912-121212-121212-1212-14-12-10-101010-101010-101010-0-|
Ab|---------------------------------------------------------|
Eb|---------------------------------------------------------|
    ** *  * * *  * * *  * *  *  *  *  * * *  * * *  * * * *


 
                                   TIME:  5:30

Guitar 1
eb|-------------------------------|
Bb|-------------------------------|
Gb|-------------------------------|
Db|-------------------------------|
Ab|-5--5-555-5-7-5-3--3-333-333-3-|
Eb|-------------------------------|

eb|--------------------------------|
Bb|--------------------------------|
Gb|--------------------------------|
Db|--------------------------------|
Ab|-8--8-888-8-10-8-7--7-777-777-0-|
Eb|--------------------------------|

Guitar 2
eb|--------------------------------|
Bb|-6--6-666-668-6-5--5-555-555-5/-|
Gb|--------------------------------|
Db|--------------------------------|
Ab|--------------------------------|
Eb|--------------------------------|

eb|---------------------------------------|
Bb|-10-10-101010-101012-10-9--9-999-999\5-|
Gb|---------------------------------------|
Db|---------------------------------------|
Ab|---------------------------------------|
Eb|---------------------------------------|

eb|--------------------------------|
Bb|-6--6-666-668-6-5--5-555-555-5/-|
Gb|--------------------------------|
Db|--------------------------------|
Ab|--------------------------------|
Eb|--------------------------------|

eb|--------------------------------------|
Bb|-10-10-101010-101012-10-9--9-999-999\-|
Gb|--------------------------------------|
Db|--------------------------------------|
Ab|--------------------------------------|
Eb|--------------------------------------|


                                   TIME:  5:40


Guitar 1
eb|-----------------------------------------------------|
Bb|-----------------------------------------------------|
Gb|-----------------------------------------------------|
Db|-14--------15--------14--------15--------14-15-15-14-|
Ab|-12-121212-12-121212-12-121212-12-121212-12-12-12-12-|
Eb|-----------------------------------------------------|
        * * *     * * *     * * *     * * *
eb|-----------------------------------------------------|
Bb|-----------------------------------------------------|
Gb|-----------------------------------------------------|
Db|-13--------14--------13--------14--------13-14-14-13-|
Ab|-11-111111-11-111111-11-111111-11-111111-11-11-11-11-|
Eb|-----------------------------------------------------|
        * * *     * * *     * * *     * * *

Final time
eb|---------------------------------------------------|
Bb|---------------------------------------------------|
Gb|---------------------------------------------------|
Db|-13--------14--------13--------14------------------|
Ab|-11-111111-11-111111-11-111111-11-111111111111-17\-|
Eb|---------------------------------------------------|
        * * *     * * *     * * *     * * * * * *  *
                                             Pick through slide

Guitar 2 (Comes in the second time)
eb|-----------------------------------------------------|
Bb|-----------------------------------------------------|
Gb|-14--------15--------14--------15--------14-15-15-14-|
Db|-----------------------------------------------------|
Ab|----121212----121212----121212----121212-------------|
Eb|-----------------------------------------------------|
        * * *     * * *     * * *     * * *
eb|-----------------------------------------------------|
Bb|-----------------------------------------------------|
Gb|-13--------14--------13--------14--------13-14-14-13-|
Db|-----------------------------------------------------|
Ab|----111111----111111----111111----111111-------------|
Eb|-----------------------------------------------------|
        * * *     * * *     * * *     * * *
eb|-----------------------------------------------------|
Bb|-----------------------------------------------------|
Gb|-14--------15--------14--------15--------14-15-15-14-|
Db|-----------------------------------------------------|
Ab|----121212----121212----121212----121212-------------|
Eb|-----------------------------------------------------|
        * * *     * * *     * * *     * * *
eb|-----------------------------------------------|
Bb|-----------------------------------------------|
Gb|-13--------14--------13--------14--------------|
Db|-----------------------------------------------| Drops out
Ab|----111111----111111----111111----111111111111-|
Eb|-----------------------------------------------|
        * * *     * * *     * * *     * * * * * *


                                  TIME:  5:59


Both guitars                        x4
eb|----------------------------------|
Bb|----------------------------------|
Gb|----------------------------------|
Db|---------------12----------10---9-|
Ab|-7-777-777-777-10-7-777-888---8---|
Eb|----------------------------------|
    * *** *** ***    * *** ***   *


                                  TIME:  6:08


Guitar 1                                         x2
eb|-----------------------------------------------|------|
Bb|-----------------------------------------------|------|
Gb|------11-10------------------11-12-------------|------|
Db|-9-----9--8----10----10-9-----9-10----12----10-|--9\--|
Ab|-7-xx-------xx--8-xx--8-7-xx-------xx-10-xx--8-|--7\--|
Eb|-----------------------------------------------|------|

Guitar 2                                   x2
eb|-----------------------------------------|-----|
Bb|-----------------------------------------|-----|
Gb|-----------------------------------------|-----|
Db|-----------------------------------------|-----|
Ab|-2-------------3---3-2-------------5---3-|--2--|
Eb|-0-------------1---1-0-------------3---1-|--0--|

----------------------------------------------------------------

8. WHEN THE NIGHT FALLS
Tuning: Eb

The clean intro is only on the Iced Earth version.

Intro (Clean)

Riff A                         x4
eb|-----------------------------|
Bb|-----------------------------|
Gb|------7-------------0--------|
Db|---5-----5---5---7-----7---7-|
Ab|-7---------7---5---------5---|
Eb|-----------------------------|


Riff B                         x2
eb|-----------------------------|
Bb|-----------------------------|
Gb|------9------10-------9------|
Db|---7-----7---------7-----7---|
Ab|-8---------8-----8---------8-|
Eb|-----------------------------|


Play Riff A  2x
Play Riff B  2x


Riff C
eb|-----------------------------|
Bb|-----------------------------|
Gb|------0-------------0--------|
Db|---4-----4---4---2-----2---2-|
Ab|-2---------2---3---------3---|
Eb|-----------------------------|

eb|-----------------------------|
Bb|-----------------------------|
Gb|------0-------------0--------|
Db|---4-----4---4---3-----3---3-|
Ab|-2---------2---1---------1---|
Eb|-----------------------------|

eb|-----------------------------|
Bb|-----------------------------|
Gb|------0-------------0--------|
Db|---4-----4---4---2-----2---2-|
Ab|-2---------2---3---------3---|
Eb|-----------------------------|

eb|-----------------------------|
Bb|-----------------------------|
Gb|------0----------------------|
Db|---4-----4---4-----3------5--|
Ab|-2---------2-----3------5----|
Eb|---------------1------3------|


Riff D
Guitar 1
eb|----------------------|
Bb|----------------------|
Gb|------9--7-9-10--9----|
Db|---7---------------9--|
Ab|-0--------------------|
Eb|----------------------|

eb|----------------------|
Bb|-------------------8--|
Gb|------9--7-9-10--9----|
Db|---7------------------|
Ab|-0--------------------|
Eb|----------------------|

eb|----------------------|
Bb|----------------------|
Gb|------9--7-9-10--9----|
Db|---7---------------9--|
Ab|-0--------------------|
Eb|----------------------|

eb|----------------------|
Bb|----------------------|
Gb|------9--7-9-10--9-0--|
Db|---7------------------|
Ab|-0--------------------|
Eb|----------------------|


Guitar 2              x4
eb|--------------------|
Bb|-----------------0--|
Gb|-----5---------4----|
Db|---7----7---5-------|
Ab|-0--------0---------|
Eb|--------------------|
                                                            

Play Riff B  2x

Riff C2
eb|-----------------------------|
Bb|-----------------------------|
Gb|------0-------------0--------|
Db|---4-----4---4---2-----2---2-|
Ab|-2---------2---3---------3---|
Eb|-----------------------------|

eb|-----------------------------|
Bb|-----------------------------|
Gb|------0-------------0--------|
Db|---4-----4---4---3-----3---3-|
Ab|-2---------2---1---------1---|
Eb|-----------------------------|

eb|-----------------------------|
Bb|-----------------------------|
Gb|------0-------------0--------|
Db|---4-----4---4---2-----2---2-|
Ab|-2---------2---3---------3---|
Eb|-----------------------------|

eb|---------------|
Bb|---------------|
Gb|------0--------|
Db|---4-----4---4-|
Ab|-2---------2---|
Eb|---------------|

End Intro:  This is where the DOP version starts:

(Distortion)
eb|-----------------|
Bb|-----------------|
Gb|-----------------|
Db|-----------------|
Ab|-3-3-3-3-5-5-5-5-|
Eb|-1-1-1-1-3-3-3-3-| 
    * * * * * * * * 

Riff 1
eb|---------------------------|
Bb|---------------------------|
Gb|---------------------------|
Db|-----------5-5-5-4---4---4-|
Ab|-2--2------7-7-7-5-0-5-0-5-|
Eb|-0--0--0-0-----------------|
          * *         *   *   Last time
eb|---------------------------|-------|
Bb|---------------------------|-------|
Gb|---------------------------|-------|
Db|-2--2--2-------------------|-------|
Ab|-3--3--3p0-----------------|--2----|
Eb|-----------3-333-2-222-1-0-|--0-0--|
              * *** * *** * *      *
                                "Look!"

Riff 2
Guitar 1 
eb|-------------------------|
Bb|-------------------------|
Gb|-------------------------|
Db|-------------------------| --------------|
Ab|-------------------------|               |
Eb|-000-000-000-000-000-000-|               |
    *** *** *** *** *** ***                 |
eb|------------------------------------|    |--> Play 2x
Bb|------------------------------------|    |
Gb|------------------------------------|    |
Db|------------------------------------| ---|
Ab|-7-------------5--------------2-----|
Eb|-5-0-0-000-000-3-0-0-000-000--0-0-0-|
      * * *** ***   * * *** ***    * *

eb|-------------------------|
Bb|-------------------------|
Gb|-------------------------|
Db|-------------------------|
Ab|-------------------------|
Eb|-000-000-000-000-000-000-|
    *** *** *** *** *** ***
eb|-----------------------------|
Bb|-----------------------------|
Gb|-----------------------------|
Db|-----------------------------|
Ab|-7-------------5-------------|
Eb|-5-5-5-5-5-5-5-3-3-3-3-3-3-3-|
      * * * * * *   * * * * * * 

Guitar 2
eb|-------------------------|
Bb|-------------------------|
Gb|-------------------------|
Db|-------------------------|
Ab|-------------------------|
Eb|-000-000-000-000-000-000-|
    *** *** *** *** *** ***           x2
eb|------------------------------------|
Bb|------------------------------------|
Gb|-14-----------12--------------9-----|
Db|------------------------------------|
Ab|-12-----------10--------------7-----|
Eb|------------------------------------|

eb|-----------------------------|
Bb|-----------------------------|
Gb|-----------------------------|
Db|-----------------------------|
Ab|-7-------------5-------------|
Eb|-5-5-5-5-5-5-5-3-3-3-3-3-3-3-|
      * * * * * *   * * * * * *



Riff 3 (Play 2x)
eb|--------------------------------|
Bb|--------------------------------|
Gb|--------------------------------|
Db|--------------------------------|
Ab|-2----5---4---2---0---2---5-4-2-|
Eb|-0--0---0---0---0---0---0-------|
       *   *   *   *   *   *   * *
eb|---------------------------|
Bb|---------------------------|
Gb|---------------------------|
Db|---------------------------|
Ab|-7------------5------------|
Eb|-5--5-555-555-3--3-333-333-|
       * *** ***    * *** ***


Riff 3a
eb|--------------------------------|
Bb|--------------------------------|
Gb|--------------------------------|
Db|--------------------------------|
Ab|-2----5---4---2---0---2---5-4-2-|
Eb|-0--0---0---0---0---0---0-------|
       * * * * * * * * * * * * * *
    "Look, out in the distant..."

Normal ending
eb|---------------------------|
Bb|---------------------------|
Gb|---------------------------|
Db|---------------------------|
Ab|-7------------5------------|
Eb|-5--5-555-555-3--3-333-333-|
       * *** ***    * *** ***
    "...sky..."

Last time
eb|-----------------------|
Bb|-----------------------|
Gb|-----------------------|
Db|-----------------------|
Ab|-7------------5--5-5-5-|
Eb|-5--5-555-555-3--3-3-3-|
       * *** ***  
   "...the moon..."


Riff 4
Guitar 1
eb|---------------------------|
Bb|---------------------------|
Gb|---------------------------|
Db|-7-9-----------7-----------|
Ab|-5-7--777-9-10--10-9-7-000-|
Eb|---------------------------|
         *** *  * * * * * *** 
eb|-----------------------------|
Bb|-----------------------------|
Gb|-----------------------------|
Db|-7-7-9-----------7-----------|
Ab|-5-5-7--777-9-10--10-9-7-000-|
Eb|-----------------------------|
           *** *  * * * * * ***
eb|-------------------------------|
Bb|-------------------------------|
Gb|-------------------------------|
Db|-7-7---------------------------|
Ab|-5-5-7------------5------------|
Eb|-----5--5-555-555-3--3-333-333-|
           * *** ***    * *** ***

Guitar 2
eb|-----------------------------------|
Bb|-----------------------------------|
Gb|-----------------------------------|
Db|-7-9---------------10--------------|
Ab|-5-7--101010-12-14----14-12-10-000-|
Eb|-----------------------------------|
          * * *  *  *  *  *  *  * ***
eb|-------------------------------------|
Bb|-------------------------------------|
Gb|-------------------------------------|
Db|-7-7-9---------------10--------------|
Ab|-5-5-7--101010-12-14----14-12-10-000-|
Eb|-------------------------------------|
            * * *  *  *  *  *  *  * ***
eb|-------------------------------|
Bb|-------------------------------|
Gb|-------------------------------|
Db|-7-7---------------------------|
Ab|-5-5-7------------5------------|
Eb|-----5--5-555-555-3--3-333-333-|
           * *** ***    * *** ***


Play Riff 3a  "See, the curtain of the night..."
Play Riff 4   but use this for the ending:

Guitar 2 plays notes in ()    x4
eb|----------------------------|---------|
Bb|----------------------------|---------|
Gb|----------------------------|---------|
Db|-(4-4-5)--------------------|-(4-4)---|
Ab|--5-5-7---------------------|--5-5----|
Eb|--------0-0-000-000-000-000-|-------0-|
           * * *** *** *** ***


Riff 5
Guitar 1 (Clean)
eb|--------------------------------------------|
Bb|--------------------------------------------|
Gb|--------------------------------------------|
Db|------9-7-9-10-9-7-----------9-7-9-10-9-7---|
Ab|----7--------------10-9----7-------------10-|
Eb|-0----------------------0-------------------|
  "Join us in our..."  
eb|--------------------------------------|
Bb|--------------------------------------|
Gb|-------------------------7-7-9--------|
Db|------9-7-9-10-9-7-------5-5-7--7-7-9-|
Ab|----7--------------10-9---------5-5-7-|
Eb|-0------------------------------------|
  "Let us fill..."

Guitar 2 (Distortion)
eb|--------------------------------|
Bb|--------------------------------|
Gb|--------------------------------|
Db|--------------------------------|
Ab|--------------------------------|
Eb|-0--------0--------0-0-0--------|
                      * *
eb|---------------------------------------------|
Bb|---------------------------------------------|
Gb|--------------------------------7-7-9--------|
Db|--------------------------------5-5-7--7-7-9-|
Ab|---------------------------------------5-5-7-|
Eb|-0----0-0-0--------0-0-0---------------------|
         * *          * *
   "Join us in our..."


Riff 1a
eb|---------------------------|
Bb|---------------------------|
Gb|---------------------------|
Db|-----------5-5-5-4---4---4-|
Ab|-2--2------7-7-7-5-0-5-0-5-|
Eb|-0--0--0-0-----------------|
          * *         *   *
eb|---------------------------|
Bb|---------------------------|
Gb|---------------------------|
Db|-2--2--2-------------------|
Ab|-3--3--3p0-----------------|
Eb|-----------3-333-2-222-1-0-|
              * *** * *** * *
             "When the night falls..."


Riff 6
Guitar 1
eb|-----------------------------------------|
Bb|-----------------------------------------|
Gb|-----------------------------------------|
Db|--------5-555-5-4-4----------7-777-7-5-5-|
Ab|-7--7\--------------5--5--55-------------|
Eb|-----------------------------------------|
                                             x2
eb|-------------------------------------------|
Bb|-------------------------------------------|
Gb|-------------------------------------------|
Db|----------5-555-5-4-4----------7-777-7-5-5-|
Ab|-7--7--77-------------5--5--55-------------|
Eb|-------------------------------------------|

eb|-------------------------------------------|
Bb|-------------------------------------------|
Gb|-------------------------------------------|
Db|----------5-555-5-4-4----------7-777-7-5---|
Ab|-7--7--77-------------5--5--55-----------5-|
Eb|-------------------------------------------|

Guitar 2
eb|-----------------------------------------|
Bb|-----------------------------------------|
Gb|-----------------------------5-555-5-4-4-|
Db|-----------------------------------------|
Ab|-----------------------------------------|
Eb|-----------------------------------------|
                                             x3
eb|-------------------------------------------|
Bb|-------------------------------------------|
Gb|----------4-444-4--------------5-555-5-4-4-|
Db|-5--5--55---------7-7-4--4--44-------------|
Ab|-------------------------------------------|
Eb|-------------------------------------------|



Riff 7
Guitar 1                        x2
eb|------------------------------|
Bb|------------------------------|
Gb|------------------------------|
Db|-9-----------------7----------|
Ab|-7--------9--------5--------7-|
Eb|----------7-----------------5-|

Guitar 2
eb|------------------------------------------|
Bb|------------------------------------------|
Gb|-9--9--9-999-9-7-7-------7-777-7-7-7-9----|
Db|-------------------9--9-----------------7-|
Ab|------------------------------------------|
Eb|------------------------------------------|

eb|-----------------------------------|
Bb|-----------------------------------|
Gb|-9-999-9-7-7---------------7-7-7h9-|
Db|-------------7--7--7-777-9---------|
Ab|-----------------------------------|
Eb|-----------------------------------|

eb|---------------------------------------|
Bb|---------------------------------------|
Gb|-9--9-999-9-7-7-------7-777-7-7-7-9----|
Db|----------------9--9-----------------7-|
Ab|---------------------------------------|
Eb|---------------------------------------|

eb|-------------------------------|
Bb|-------------------------------|
Gb|-9-999-9-7-7---------------7-7-|
Db|-------------7--7--7-777-9-----|
Ab|-------------------------------|
Eb|-------------------------------|


Riff 7a
Guitar 1                         Ending
eb|------------------------------|---------|
Bb|------------------------------|---------|
Gb|------------------------------|---------|
Db|-9-----------------7----------|-------7-|
Ab|-7--------9--------5--------7-|--7--9-5-|
Eb|----------7-----------------5-|--5--7---|


Guitar 2
eb|----------------------------------------|
Bb|-8-12-10----------8-8-12-10-------------|
Gb|---------12-7~--------------12-11b12-7~-|
Db|----------------------------------------|
Ab|----------------------------------------|
Eb|----------------------------------------|
    *                * * 
eb|-------------------------------------|
Bb|-8-8-12-10-----------8-8-12-10-------|
Gb|-----------12-11~--------------12-6~-|
Db|-------------------------------------|
Ab|-------------------------------------|
Eb|-------------------------------------|
    * *                 * *
eb|------------------------------------------|
Bb|-8-8-12-10----------8-8-12-10-------------|
Gb|-----------12-7~--------------12-11b12-7~-|
Db|------------------------------------------|
Ab|------------------------------------------|
Eb|------------------------------------------|
    * *                * * 
eb|-----------------------------------------------------|
Bb|-8-8-12-10-----------8-8-12-10----------------7-7-8~-|
Gb|-----------12-11~--------------12-6~--6-666-7-----a--|
Db|-----------------------------------------------------|
Ab|-----------------------------------------------------|
Eb|-----------------------------------------------------|
    * *                 * * 

Guitar 3
eb|-------------------------------------|
Bb|-------------------------------------|
Gb|-9-12-11-9-------9-9-12-11-9-7-------|
Db|-----------9~---------------------9~-|
Ab|-------------------------------------|
Eb|-------------------------------------|

eb|----------------------------------|
Bb|----------------------------------|
Gb|-9-9-12-11-9-7~----9-9-12-11-9----|
Db|-------------------------------7~-|
Ab|----------------------------------|
Eb|----------------------------------|

eb|---------------------------------------|
Bb|---------------------------------------|
Gb|-9-9-12-11-9-------9-9-12-11-9-7-------|
Db|-------------9~---------------------9~-|
Ab|---------------------------------------|
Eb|---------------------------------------|

eb|--------------------------------------------------|
Bb|--------------------------------------------------|
Gb|-9-9-12-11-9-7~----9-9-12-11-9-------------7-7-9~-|
Db|-------------------------------7~--7-777-9--------|
Ab|--------------------------------------------------|
Eb|--------------------------------------------------|



Riff 8 (Solo Rhythm)
eb|-------------------------------|
Bb|-------------------------------|
Gb|-------------------------------|
Db|-9-----------10-------------12-|
Ab|-7-7-777-777--8-7-7-777-777-10-|
Eb|-------------------------------|
      * *** ***    * * *** ***
eb|------------------------------|
Bb|------------------------------|
Gb|------------------------------|
Db|-------------10-------------7-|
Ab|-7-7-777-777--8--7-8-10-8-7-5-|
Eb|------------------------------|
    * * *** ***     * *  * * *


Riff 9 (Solo Rhythm)
eb|----------------------------------|
Bb|----------------------------------|
Gb|----------------------------------|
Db|-----------4--3----3--------------|
Ab|-2---------2--1----1-1-11-2-1-----|
Eb|-0----0-00--------------------2-1-|
         * **           * ** * * * *  
eb|--------------------------------------------|
Bb|--------------------------------------------|
Gb|--------------------------------------------|
Db|-----------4--3-----------------------------|
Ab|-2---------2--1-1-1-1-111-0-1-111-0-1-001-0-|
Eb|-0----0-00----------------------------------|
         * **      * * * *** * * *** * * *** *
eb|--------------------------------------------------|
Bb|--------------------------------------------------|
Gb|--------------------------------------------------|
Db|-------------------4\3-3-----3-----3--------------|
Ab|-2-----2-----2-----2\1-1-1-1-1-1-1-1-1-11-2-1-----|
Eb|-0-0-0-0-0-0-0-0-0----------------------------2-1-|
      * *   * *   * *       * *   * *   * ** * * * * 
eb|---------------------------------------------------|
Bb|---------------------------------------------------|
Gb|---------------------------------------------------|
Db|-------------------4\3-3-----3---------------------|
Ab|-2-----2-----2-----2\1-1-1-1-1-1-1-1-111-0-1-001-0-|
Eb|-0-0-0-0-0-0-0-0-0---------------------------------|
      * *   * *   * *       * *   * * * *** * * *** *


Solo
eb|------------------------------------12-|
Bb|---------12-13-12----12-12-13-15b17----|
Gb|---------------12----------------------|
Db|------14----------14-------------------|
Ab|-0-12----------------------------------|
Eb|---------------------------------------|

eb|----------12----------12-----------15---------|
Bb|-13-15b17----13-15b17----13-15b17-----15b17~--|
Gb|----------------------------------------------|
Db|----------------------------------------------|
Ab|----------------------------------------------|
Eb|----------------------------------------------|

eb|-------------------------20-19~~\-|
Bb|----------------19----19----------|
Gb|-------17----17----17-------------|
Db|----16----16----------------------|
Ab|-14-------------------------------|
Eb|----------------------------------|

eb|---------13h17p13-13h17p13-17p13-17p13-------|
Bb|-13h17p13------------------------------17~~\-|
Gb|---------------------------------------------|
Db|---------------------------------------------|
Ab|---------------------------------------------|
Eb|---------------------------------------------|

eb|-------------------------/15----14--------|
Bb|----------------15----17-----17----15-----|
Gb|----16-14-17-16----17-----------------16\-|
Db|-17---------------------------------------|
Ab|------------------------------------------|
Eb|------------------------------------------|

eb|-----------------------------------------------|
Bb|-12p9---12p9---10p9---12p9---13p9---12p9---10/-|
Gb|------9------9------9------9------9------9--a--|
Db|-----------------------------------------------|
Ab|-----------------------------------------------|
Eb|-----------------------------------------------|

eb|--------16-------17/18-------19-17h19p17-15\12-15-|
Bb|----15/-------18----------20----------------------|
Gb|-16--------19----------21-------------------------|
Db|--------------------------------------------------|
Ab|--------------------------------------------------|
Eb|--------------------------------------------------|

eb|-13h15p13\12-10-12/13-13\--10----10----10----10------\-|
Bb|---------------------------13b15-13b15-13b15-13b15r13\-|
Gb|-------------------------------------------------------|
Db|-------------------------------------------------------|
Ab|-------------------------------------------------------|
Eb|-------------------------------------------------------|

eb|-----------------------------------------------------|
Bb|-----9-12-9-----------12-15-12--------------17-------|
Gb|-9--------------12-----------------------16----16-14-|
Db|---9---------------12--------------14-17-------------|
Ab|------------12/----------------14/-------------------|
Eb|-----------------------------------------------------|

eb|-------19----19~~\-|
Bb|-18b19-------------|
Gb|-------------------|
Db|----------16-------|
Ab|-------------------|
Eb|-------------------|

Harmony section:
Guitar 1
eb|-15-15-15-15-14-13-13-13-13-13-12-11-11-11-11-11/13-11-10~-|
Bb|-----------------------------------------------------------|
Gb|-----------------------------------------------------------|
Db|-----------------------------------------------------------|
Ab|-----------------------------------------------------------|
Eb|-----------------------------------------------------------|

eb|-15-15-15-15-14-13-13-13-13-13-12-11-11-11-11-11-13-15-15~-|
Bb|-----------------------------------------------------------|
Gb|-----------------------------------------------------------|
Db|-----------------------------------------------------------|
Ab|-----------------------------------------------------------|
Eb|-----------------------------------------------------------|

Guitar 2 w/ harmony guitar on lower strings 
eb|-12-12-12-12-11-10-10-10-10-10-9-8-8-8-8-8-10-8------|
Bb|-----------------------------------------------------|
Gb|--9--9--9--9--8--7--7--7--7--7-6-5-5-5-5-8-10-8-7~---|
Db|-----------------------------------------------------|
Ab|-----------------------------------------------------|
Eb|-----------------------------------------------------|

eb|-12-12-12-12-11-10-10-10-10-10-9-8-8-8-8-10-12-----|
Bb|---------------------------------------------------|
Gb|--9--9--9--9--8--7--7--7--7--7-6-5-5-5-5--7--9-9~--|
Db|---------------------------------------------------|
Ab|---------------------------------------------------|
Eb|---------------------------------------------------|

End Solo


Riff 8a
eb|-------------------------------|
Bb|-------------------------------|
Gb|-------------------------------|
Db|-9-----------10-------------12-|
Ab|-7-7-777-777--8-7-7-777-777-10-|
Eb|-------------------------------|
      * *** ***    * * *** ***
   "Recall, the look..."
eb|------------------------------|
Bb|------------------------------|
Gb|------------------------------|
Db|-------------10-------------7-|
Ab|-7-7-777-777--8--7-8-10-8-7-5-|
Eb|------------------------------|
    * * *** ***     * *  * * *

Final time:
eb|------------------------------|
Bb|------------------------------|
Gb|------------------------------|
Db|-------------10-------------9-|
Ab|-7-7-777-777--8--7-8-10-8-7-7-|
Eb|------------------------------|
    * * *** ***     * *  * * *




Riff 10
Guitar 1
eb|--------------------------------|
Bb|--------------------------------|
Gb|--------------------------------|
Db|-7------------------------------|
Ab|-5--5-555-555-555-555-555-...-0-|
Eb|--------------------------------|
       * *** *** *** *** ***     *
 
Guitar 2 (Comes in later)
eb|----------------------------|
Bb|----------------------------|
Gb|----------------------------|
Db|-5------5-----------------7-|
Ab|------5---8---5-8-7---8-7-5-|
Eb|----------------------------| 



Riff 11
eb|-----------------------------|
Bb|-----------------------------|
Gb|-----------------------------|
Db|-7-----------5-------------7-|
Ab|-5-5-555-555---8-5-8-7-8-7-5-|
Eb|-----------------------------|
      * *** ***     * *   * *
eb|-----------------------------|
Bb|-----------------------------|
Gb|-----------------------------|
Db|-----------------------------|
Ab|-5-555-555-555-555-555-555-0-|
Eb|-----------------------------|
    * *** *** *** *** *** *** *



Riff 12
eb|------------------------------|
Bb|------------------------------|
Gb|------------------------------|
Db|-12-1212121212-10-10101010-10-|
Ab|-10-1010101010--8--8-8-8-8--8-|
Eb|------------------------------|
   "Hypnotizing, paralyzing..."
eb|------------------------------|
Bb|------------------------------|
Gb|------------------------------|
Db|-8--8-8-8-8---7--------7------|
Ab|-6--6-6-6-6-0-5--5-5-5-5--5-0-|
Eb|------------------------------|
                    * * *    * *
eb|------------------------------|
Bb|------------------------------|
Gb|------------------------------|
Db|-12-1212121212-10-10101010-10-|
Ab|-10-1010101010--8--8-8-8-8--8-|
Eb|------------------------------|
   "Tantalizing suicide..."
eb|-----------------------------|
Bb|-----------------------------|
Gb|-----------------------------|
Db|-8-----------7--------7------|
Ab|-6-6-666-886-5--5-5-5-5--5-0-|
Eb|-----------------------------|
      * *** ***    * * *    * *


Last time, play this:
eb|------------------------------|
Bb|------------------------------|
Gb|------------------------------|
Db|-12-1212121212-10-10101010-10-|
Ab|-10-1010101010--8--8-8-8-8--8-|
Eb|------------------------------|

eb|-------------|
Bb|-------------|
Gb|-------------|
Db|-8-----------|
Ab|-6-6-666-886-|
Eb|-------------|
      * *** ***


Riff 11a
eb|-----------------------------|
Bb|-----------------------------|
Gb|-----------------------------|
Db|-7---------------------------|
Ab|-5-5-555-555-555-555-555-555-|
Eb|-----------------------------|
      * *** *** *** *** *** ***
eb|------------------------------|
Bb|------------------------------|
Gb|------------------------------|
Db|-5-------------7--------------|
Ab|---8-5-8-7-8-7-5-5-555-555-00-|
Eb|------------------------------|
        * *   * *   * *** *** **

Riff 11b
eb|-----------------------------|
Bb|-----------------------------|
Gb|-----------------------------|
Db|-6---------------------------|
Ab|-4-4-444-444-444-444-444-444-|
Eb|-----------------------------|
      * *** *** *** *** *** ***
eb|------------------------------|
Bb|------------------------------|
Gb|------------------------------|
Db|-4-------------6--------------|
Ab|---7-4-7-6-7-6-4-4-444-444-00-|
Eb|------------------------------|
        * *   * *   * *** *** **


Play Riff 11a
Play Riff 11b

Riff 11c
eb|-----------------------------|
Bb|-----------------------------|
Gb|-----------------------------|
Db|-7---------------------------|
Ab|-5-5-555-555-555-555-555-555-|
Eb|-----------------------------|
      * *** *** *** *** *** ***
eb|-----------------------------|
Bb|-----------------------------|
Gb|-----------------------------|
Db|-5-------------7-------------|
Ab|---8-5-8-7-8-7-5-5-555-555-0-|
Eb|-----------------------------|
        * *   * *   * *** *** *



Riff 13 (Play 2x)
eb|-------------------------|
Bb|-------------------------|
Gb|-------------------------|
Db|-------5-----------5-----|
Ab|-5-555---8-7-5-555---5-8-|
Eb|-------------------------|
    * ***   * * * ***   * *
eb|--------------------------|
Bb|--------------------------|
Gb|--------------------------|
Db|-------5-7-8--------5-7-8-|
Ab|-6-666--------6-666-------|
Eb|--------------------------|
    * ***        * ***


Riff 13a (Play 2x)
eb|---------------------------|
Bb|---------------------------|
Gb|---------------------------|
Db|-------7------------7------|
Ab|-7-777---10-9-7-777---7-10-|
Eb|---------------------------|
    * ***    * * * ***    * *
eb|---------------------------|
Bb|---------------------------|
Gb|---------------------------|
Db|-------7-9-10-------7-9-10-|
Ab|-8-888--------8-888--------|
Eb|---------------------------|
    * ***        * ***


Riff 14 (Solo Rhythm)
eb|-------------------------------------------------|
Bb|-------------------------------------------------|
Gb|-------------------------------------------------|
Db|-------------------------------------------------|
Ab|-0-000-0-0-0-3-333-3-3-0-2-222-2-2-0-5-555-5-5-5-|
Eb|-------------------------------------------------|
    * *** * * * * *** * * * * *** * * * * *** * * * 
eb|----------------------------------------------|
Bb|----------------------------------------------|
Gb|----------------------------------------------|
Db|-------------------------------------7-7-7-7\-|
Ab|-0-000-0-0-0-3-333-3-3-0-2-222-2-2-0-5-5-5-5\-|
Eb|----------------------------------------------|
    * *** * * * * *** * * * * *** * * * 
eb|-------------------------------------------------|
Bb|-------------------------------------------------|
Gb|-------------------------------------------------|
Db|-------------------------------------------------|
Ab|-0-000-0-0-0-3-333-3-3-0-2-222-2-2-0-5-555-5-5-5-|
Eb|-------------------------------------------------|
    * *** * * * * *** * * * * *** * * * * *** * * * 
eb|----------------------------------------------|
Bb|----------------------------------------------|
Gb|----------------------------------------------|
Db|-------------------------------------------7\-|
Ab|-0-000-0-0-0-3-333-3-3-0-2-222-2-2-0-5-555-5\-|
Eb|----------------------------------------------|
    * *** * * * * *** * * * * *** * * * * ***


Solo                                            x4
eb|----------------------------------------------|
Bb|----------------------------------------------|
Gb|-7-5-0----------------------------------------|
Db|-------7-5-0-5-7-8-7-5-0----------------------|
Ab|-------------------------7-5-0-5-7-8-7-5-0-5~-|
Eb|----------------------------------------------|
    * * * * * * * * * * * * * * * * * * * * *

Harmony guitar (Comes in later)
eb|----------------------------------------------|
Bb|-6-5------------------------------------------|
Gb|-----4-5-4---4-5-7-5-4------------------------|
Db|-----------5-----------5-5-4---4-5-7-5-4---4~-|
Ab|-----------------------------5-----------7----|
Eb|----------------------------------------------|

End Solo


Lead into next section:
eb|------------------------|
Bb|------------------------|
Gb|------------------------|
Db|-5--4--2--------5--4----|
Ab|-3--2--0--------3--2--2-|
Eb|----------------------0-|


Play Riff 5   "Join us in our..."
Play Riff 1   Song fades out with this.
              On DOP version, it ends with the
              final chord of the chorus, E5.

Ending solo
eb|-12----12---------12-17-12----15-------|
Bb|-15b17-15b17~--15----------15----12----|
Gb|------------------------------------12-|
Db|---------------------------------------|
Ab|---------------------------------------|
Eb|---------------------------------------|

eb|-------------------------------|
Bb|----------------------3/4h5p4~-|
Gb|-14~~\--9~~\--4-6-4------------|
Db|--------------------5----------|
Ab|-------------------------------|
Eb|-------------------------------|

eb|-----------------------------------------|
Bb|-/11-12-12h13p12-13-13h14p13-14-14h15p14-|
Gb|-----------------------------------------|
Db|-----------------------------------------|
Ab|-----------------------------------------|
Eb|-----------------------------------------|


eb|-------------------------------------------------|
Bb|-15-15h16p15-16-16h17p16-17-17h18p17-18-18h19p18-|
Gb|-------------------------------------------------|
Db|-------------------------------------------------|
Ab|-------------------------------------------------|
Eb|-------------------------------------------------|

eb|-------------------------------------------------|
Bb|-19-19h20p19-20-20h21p20-21-21h22p21-22-22h23p22-|
Gb|-------------------------------------------------|
Db|-------------------------------------------------|
Ab|-------------------------------------------------|
Eb|-------------------------------------------------|

eb|----------------20----19-|
Bb|-23-23h24p23-24----24-19-|
Gb|-------------------------|
Db|-------------------------|
Ab|-------------------------|
Eb|-------------------------|

eb|-20--22-19-20----19-19--20----19--(19)\-0-|
Bb|-20--22-19-19----17-19--20-17-------------|
Gb|------------------------------------------|
Db|------------------------------------------|
Ab|------------------------------------------|
Eb|------------------------------------------|

eb|--------------------------------------|
Bb|-15b17--(17)r15-15~--12b13--(13)r12~--|
Gb|--------------------------------------|
Db|--------------------------------------|
Ab|--------------------------------------|
Eb|--------------------------------------|

(DOP version continues here, studio version fades out)
eb|---------------------------------------------|
Bb|---------------------------------12-10-------|
Gb|------------9------9-----12-9----------12-11-|
Db|----12-9------9------/10------10-------------|
Ab|-10------12-----12---------------------------|
Eb|---------------------------------------------|

eb|-15-14------15-14-------/19-17-15-------------------|
Bb|------15-12-------12-15-----------19-20p19p17\15----|
Gb|-------------------------------------------------16-|
Db|----------------------------------------------------|
Ab|----------------------------------------------------|
Eb|----------------------------------------------------|

eb|---------------------|
Bb|-17~~--------(17~~)--|
Gb|---------------------|
Db|---------------------|
Ab|---------------------|
Eb|---------------------|

eb|-------------------------------------------|
Bb|-15h17h20-15h17h20-15h17h20-15h20p15h17p15-|
Gb|-------------------------------------------|
Db|-------------------------------------------|
Ab|-------------------------------------------|
Eb|-------------------------------------------|

eb|-------------------------------------|
Bb|-20p15h17p15-20p15h17p15-20p15-17~~--|
Gb|-------------------------------------|
Db|-------------------------------------|
Ab|-------------------------------------|
Eb|-------------------------------------|

End Solo



Notation:

10^        = bend a quarter step.
10b11      = bend a half step.
10b12      = bend a full step.
10b12r10   = bend and release.
[10]12     = pre-bend.
[10]12r10  = pre-bend and release.
{14}       = pick the 14th fret while holding the most 
             previous bend.
<17>       = touch the string above the 17th fret while 
             previous note(s) is(are) still ringing.

10b13*     = tremolo bar bend, from the 10th fret to the 13th fret.
7d4*       = tremolo bar dive, from the 7th fret to the 4th fret. 
12~*       = tremolo bar vibrato.

x   =  mute with fret-hand
*   =  palm mute
X\\ =  pick slide
h   =  hammer-on
p   =  pull-off
~   =  vibrato
t   =  finger tap
/   =  slide up
\   =  slide down
h.  =  natural harmonics
a   =  artificial harmonics
(9) =  ghost note
tm  =  trem picking
tr  =  trill



comments
We did not receive enough feedback on this tab! Please rate:
print report bad tab
1 2 3 4 5
I want to post or [tab]
guest
You may want to rate the tab now too:
select rating
Please do not post tabs as comments. Select "correction" instead!