Oops, an error
Loading. Please wait.

Wolf Bass Tab

ver2
ver2

Whole song

Interactive

More versions @911Tabs.com
347 views 1 this week
no commentswrite comment
1 2 3 4 5
please rate
Autoscroll
+/-
esc
set tempo
stop
Contributor
Hey! There's an official Ultimate Guitar app which is ideal
for learning songs when you're away from computer. Get the app
WARNING: You are trying to view
                                    content from Ultimate-Guitar.com
                                    in an unauthorized application,
                                    which is prohibited.

                                    Please use an official Ultimate
                                    Guitar Tabs application for iPhone,
                                    iPad or Android to access legitimate
                                    chords, guitar, bass, and drum tabs
                                    from Ultimate-Guitar.com database.

                                    Type "ultimate guitar tabs" in Apple
                                    App Store's or Android Market's
                                    search to find the application.
                                     Wolf                                       

Transcribed by an unregistered user

                                                                      Iced Earth
Bass



      W                   Q.     Q.     E  E     Q.     H        E   
F#||-------------------|----------------------|---------------------|
C#||-------------------|----------------------|---------------------|
G#||-------------------|----------------------|---------------------|
D#||-------------------|--0------7------5--7--|--8------7--------L--|


  Q.     Q.     E  E     Q.     H        E     Q.     Q.     Q     
----------------------|---------------------|---------------------|
----------------------|---------------------|---------------------|
----------------------|---------------------|---------------------|
--0------7------5--7--|--8------7--------L--|--1------7------7----|


                                                             |--3--|   
  Q.     Q.     Q       Q.     Q.     E  E     Q.     Q.     E  E  E   
---------------------|----------------------|-------------------------|
---------------------|----------------------|-------------------------|
---------------------|----------------------|----------------5--7--9--|
--3------7------7----|--0------7------5--7--|--8------7------L--------|


  Q.     Q.     E  E     Q.     H        E     Q.     Q.     Q     
----------------------|---------------------|---------------------|
----------------------|---------------------|---------------------|
----------------------|---------------------|---------------------|
--0------7------5--7--|--8------7--------L--|--1------7------7----|


                                                             |--3--|   
  Q.     Q.     Q       Q.     Q.     E  E     Q.     Q.     E  E  E   
---------------------|----------------------|-------------------------|
---------------------|----------------------|-------------------------|
---------------------|----------------------|----------------5--7--9--|
--3------7------7----|--0------7------5--7--|--8------7------L--------|


  Q.     Q.     E  E     Q.     H        E     Q.     Q.     Q     
----------------------|---------------------|---------------------|
----------------------|---------------------|---------------------|
----------------------|---------------------|---------------------|
--0------7------5--7--|--8------7--------L--|--1------7------7----|


                                                             |--3--|   
  Q.     Q.     Q       Q.     Q.     E  E     Q.     Q.     E  E  E   
---------------------|----------------------|-------------------------|
---------------------|----------------------|-------------------------|
---------------------|----------------------|----------------5--7--9--|
--3------7------7----|--0------7------5--7--|--8------7------L--------|


  Q.     Q.     E  E     Q.     H        E     Q.     Q.     Q     
----------------------|---------------------|---------------------|
----------------------|---------------------|---------------------|
----------------------|---------------------|---------------------|
--0------7------5--7--|--8------7--------L--|--1------7------7----|


  Q.     Q.     Q       W                   H         
---------------------|-------------------|-----------|
---------------------|-------------------|-----------|
---------------------|-------------------|-----------|
--3------7------7----|--0----------------|--L--------|


  E  S S E  E  S S E  E  E     E  S S E  E  S S E  S S E   
----------------------------|-----------------------------|
----------------------------|-----------------------------|
----------------------0--2--|--3--------------------------|
--0--0-0-0--0--0-0-0--------|-----0-0-0--0--0-0-0--0-0-0--|


  E  S S E  E  S S E  E  E     E  S S E  E  S S E  S S E   
----------------------------|-----------------------------|
----------------------------|-----------------------------|
----------------------0--2--|--3--------------------------|
--0--0-0-0--0--0-0-0--------|-----0-0-0--0--0-0-0--0-0-0--|


  E  S S E  E  S S E  S S E     E  S S E  E  S S E  S S E   
-----------------------------|-----------------------------|
-----------------------------|-----------------------------|
-----------------------------|-----------------------------|
--1--1-1-1--1--1-1-1--1-1-1--|--1--1-1-1--1--1-1-1--1-1-1--|


  E  S S E  E  S S E  E  E     E  S S E  E  S S E  S S E   
----------------------------|-----------------------------|
----------------------------|-----------------------------|
----------------------0--2--|--3--------------------------|
--0--0-0-0--0--0-0-0--------|-----0-0-0--0--0-0-0--0-0-0--|


  E  S S E  E  S S E  E  E     E  S S E  E  S S E  S S E   
----------------------------|-----------------------------|
----------------------------|-----------------------------|
----------------------0--2--|--3--------------------------|
--0--0-0-0--0--0-0-0--------|-----0-0-0--0--0-0-0--0-0-0--|


  E  S S E  E  S S E  S S E     E  S S E  E  S S E  S S E   
-----------------------------|-----------------------------|
-----------------------------|-----------------------------|
-----------------------------|-----------------------------|
--1--1-1-1--1--1-1-1--1-1-1--|--1--1-1-1--1--1-1-1--1-1-1--|


  E  S S E  E  S S E  E  E     E  S S E  E  S S E  E  E   
----------------------------|----------------------------|
----------------------------|----------------------------|
----------------------0--2--|--3-------------------0--2--|
--0--0-0-0--0--0-0-0--------|-----0-0-0--0--0-0-0--------|


  E  S S E  E  S S E  E  E     E  S S E  E  S S E  S S E   
----------------------------|-----------------------------|
----------------------------|-----------------------------|
--3-------------------------|-----------------------------|
-----0-0-0--0--0-0-0--0--0--|--1--1-1-1--1--1-1-1--1-1-1--|


  E  S S E  E  S S E  E  E     E  S S E  E  S S E  E  E   
----------------------------|----------------------------|
----------------------------|----------------------------|
----------------------0--2--|--3-------------------0--2--|
--0--0-0-0--0--0-0-0--------|-----0-0-0--0--0-0-0--------|


  E  S S E  E  S S E  E  E     E  S S E  E  S S E  S S E   
----------------------------|-----------------------------|
----------------------------|-----------------------------|
--3-------------------------|-----------------------------|
-----0-0-0--0--0-0-0--0--0--|--1--1-1-1--1--1-1-1--1-1-1--|


  E  S S E  E  E  E  E  E     E  S S E  E  E  E  E  E   
---------------------------|---------------------------|
---------------------------|---------------------------|
------------2--------2-----|------------2--------2-----|
--3--3-3-3-----3--3-----3--|--1--1-1-1-----1--1-----1--|


  E  S S E  E  S S E  E   E     E  S S E  E  S S E  E   E   
-----------------------------|-----------------------------|
-----------------------------|-----------------------------|
----------------------2h--3--|----------------------3p--2--|
--0--0-0-0--0--0-0-0---------|--0--0-0-0--0--0-0-0---------|


  E  S S E  E  E  E  E  E     E  S S E  E  E  E  E  E   
---------------------------|---------------------------|
---------------------------|---------------------------|
------------2--------2-----|------------2--------2-----|
--3--3-3-3-----3--3-----3--|--1--1-1-1-----1--1-----1--|


  E  S S E  E  S S E  E   E     E  S S E  E  S S E  E   E   
-----------------------------|-----------------------------|
-----------------------------|-----------------------------|
----------------------2h--3--|----------------------3p--2--|
--0--0-0-0--0--0-0-0---------|--0--0-0-0--0--0-0-0---------|


  E  S S E  E  S S E  E  E     E  S S E  E  S S E  E  E   
----------------------------|----------------------------|
----------------------------|----------------------------|
----------------------0--2--|--3-------------------0--2--|
--0--0-0-0--0--0-0-0--------|-----0-0-0--0--0-0-0--------|


  E  S S E  E  S S E  E  E     E  S S E  E  S S E  S S E   
----------------------------|-----------------------------|
----------------------------|-----------------------------|
--3-------------------------|-----------------------------|
-----0-0-0--0--0-0-0--0--0--|--1--1-1-1--1--1-1-1--1-1-1--|


  E  S S E  E  S S E  E  E     E  S S E  E  S S E  E  E   
----------------------------|----------------------------|
----------------------------|----------------------------|
----------------------0--2--|--3-------------------0--2--|
--0--0-0-0--0--0-0-0--------|-----0-0-0--0--0-0-0--------|


  E  S S E  E  S S E  E  E     E  S S E  E  S S E  S S E   
----------------------------|-----------------------------|
----------------------------|-----------------------------|
--3-------------------------|-----------------------------|
-----0-0-0--0--0-0-0--0--0--|--1--1-1-1--1--1-1-1--1-1-1--|


  E  S S E  E  E  E  E  E     E  S S E  E  E  E  E  E   
---------------------------|---------------------------|
---------------------------|---------------------------|
------------2--------2-----|------------2--------2-----|
--3--3-3-3-----3--3-----3--|--1--1-1-1-----1--1-----1--|


  E  S S E  E  S S E  E   E     E  S S E  E  S S E  E   E   
-----------------------------|-----------------------------|
-----------------------------|-----------------------------|
----------------------2h--3--|----------------------3p--2--|
--0--0-0-0--0--0-0-0---------|--0--0-0-0--0--0-0-0---------|


  E  S S E  E  E  E  E  E     E  S S E  E  E  E  E  E   
---------------------------|---------------------------|
---------------------------|---------------------------|
------------2--------2-----|------------2--------2-----|
--3--3-3-3-----3--3-----3--|--1--1-1-1-----1--1-----1--|


  E  S S E  E  S S E  E   E     E  S S E  E  S S E  E   E   
-----------------------------|-----------------------------|
-----------------------------|-----------------------------|
----------------------2h--3--|----------------------3p--2--|
--0--0-0-0--0--0-0-0---------|--0--0-0-0--0--0-0-0---------|


  S S S S S S S S S S S S S S S S    S S S S S S S S S S S S S S S S  
----------------------------------|----------------------------------|
----------------------------------|--5-5-5-5-5-5-5-5-5-5-5-5-5-5-5-5-|
--7-7-7-7-7-7-7-7-7-7-7-7-7-7-7-7-|----------------------------------|
----------------------------------|----------------------------------|


  S S S S S S S S S S S S S S S S    S S S S S S S S S S S S S S S S  
----------------------------------|----------------------------------|
--5-5-5-5-5-5-5-5-5-5-5-5-5-5-5-5-|--0-0-0-0-0-0-0-0-0-0-0-0-0-0-0-0-|
----------------------------------|----------------------------------|
----------------------------------|----------------------------------|


  S S S S S S S S S S S S S S S S    S S S S S S S S S S S S S S S S  
----------------------------------|----------------------------------|
--3-3-3-3-3-3-3-3-3-3-3-3-3-3-3-3-|--3-3-3-3-3-3-3-3-3-3-3-3-3-3-3-3-|
----------------------------------|----------------------------------|
----------------------------------|----------------------------------|


  S S S S S S S S S S S S S S S S    S S S S S S S S S S S S S S S S  
----------------------------------|----------------------------------|
--5-5-5-5-5-5-3-3-3-3-3-3-2-2-2-2-|--3-3-3-3-3-3-2-2-2-2-2-2-0-0-0-0-|
----------------------------------|----------------------------------|
----------------------------------|----------------------------------|


  S S S S S S S S S S S S S S S S    S S S S S S S S S S S S S S S S  
----------------------------------|----------------------------------|
----------------------------------|--5-5-5-5-5-5-5-5-5-5-5-5-5-5-5-5-|
--7-7-7-7-7-7-7-7-7-7-7-7-7-7-7-7-|----------------------------------|
----------------------------------|----------------------------------|


  S S S S S S S S S S S S S S S S    S S S S S S S S S S S S S S S S  
----------------------------------|----------------------------------|
--5-5-5-5-5-5-5-5-5-5-5-5-5-5-5-5-|--0-0-0-0-0-0-0-0-0-0-0-0-0-0-0-0-|
----------------------------------|----------------------------------|
----------------------------------|----------------------------------|


  S S S S S S S S S S S S S S S S    S S S S S S S S S S S S S S S S  
----------------------------------|----------------------------------|
--3-3-3-3-3-3-3-3-3-3-3-3-3-3-3-3-|--3-3-3-3-3-3-3-3-3-3-3-3-3-3-3-3-|
----------------------------------|----------------------------------|
----------------------------------|----------------------------------|


  S S S S S S S S S S S S S S S S    S S S S S S S S S S S S S S S S  
----------------------------------|----------------------------------|
--5-5-5-5-5-5-3-3-3-3-3-3-2-2-2-2-|--3-3-3-3-3-3-2-2-2-2-2-2-0-0-0-0-|
----------------------------------|----------------------------------|
----------------------------------|----------------------------------|


  E  S S E  E  S S E  E  E     E  S S E  E  S S E  E  E   
----------------------------|----------------------------|
----------------------------|----------------------------|
----------------------0--2--|--3-------------------0--2--|
--0--0-0-0--0--0-0-0--------|-----0-0-0--0--0-0-0--------|


  E  S S E  E  S S E  E  E     E  S S E  E  S S E  S S E   
----------------------------|-----------------------------|
----------------------------|-----------------------------|
--3-------------------------|-----------------------------|
-----0-0-0--0--0-0-0--0--0--|--1--1-1-1--1--1-1-1--1-1-1--|


  E  S S E  E  S S E  E  E     E  S S E  E  S S E  E  E   
----------------------------|----------------------------|
----------------------------|----------------------------|
----------------------0--2--|--3-------------------0--2--|
--0--0-0-0--0--0-0-0--------|-----0-0-0--0--0-0-0--------|


  E  S S E  E  S S E  E  E     E  S S E  E  S S E  S S E   
----------------------------|-----------------------------|
----------------------------|-----------------------------|
--3-------------------------|-----------------------------|
-----0-0-0--0--0-0-0--0--0--|--1--1-1-1--1--1-1-1--1-1-1--|


  E  S S E  E  E  E  E  E     E  S S E  E  E  E  E  E   
---------------------------|---------------------------|
---------------------------|---------------------------|
------------2--------2-----|------------2--------2-----|
--3--3-3-3-----3--3-----3--|--1--1-1-1-----1--1-----1--|


  E  S S E  E  S S E  E   E     E  S S E  E  S S E  E   E   
-----------------------------|-----------------------------|
-----------------------------|-----------------------------|
----------------------2h--3--|----------------------3p--2--|
--0--0-0-0--0--0-0-0---------|--0--0-0-0--0--0-0-0---------|


  E  S S E  E  E  E  E  E     E  S S E  E  E  E  E  E   
---------------------------|---------------------------|
---------------------------|---------------------------|
------------2--------2-----|------------2--------2-----|
--3--3-3-3-----3--3-----3--|--1--1-1-1-----1--1-----1--|


  E  S S E  E  S S E  E   E     E  S S E  E  S S E  E   E   
-----------------------------|-----------------------------|
-----------------------------|-----------------------------|
----------------------2h--3--|----------------------3p--2--|
--0--0-0-0--0--0-0-0---------|--0--0-0-0--0--0-0-0---------|


  E  S S E  E  S S E  E  E     E  S S E  E  S S E  E  E   
----------------------------|----------------------------|
----------------------------|----------------------------|
----------------------0--2--|--3-------------------0--2--|
--0--0-0-0--0--0-0-0--------|-----0-0-0--0--0-0-0--------|


  E  S S E  E  S S E  E  E     E  S S E  E  S S E  S S E   
----------------------------|-----------------------------|
----------------------------|-----------------------------|
--3-------------------------|-----------------------------|
-----0-0-0--0--0-0-0--0--0--|--1--1-1-1--1--1-1-1--1-1-1--|


  E  S S E  E  S S E  E  E     E  S S E  E  S S E  E  E   
----------------------------|----------------------------|
----------------------------|----------------------------|
----------------------0--2--|--3-------------------0--2--|
--0--0-0-0--0--0-0-0--------|-----0-0-0--0--0-0-0--------|


  E  S S E  E  S S E  E  E     E  S S E  E  S S E  S S E   
----------------------------|-----------------------------|
----------------------------|-----------------------------|
--3-------------------------|-----------------------------|
-----0-0-0--0--0-0-0--0--0--|--1--1-1-1--1--1-1-1--1-1-1--|


  E  S S E  E  E  E  E  E     E  S S E  E  E  E  E  E   
---------------------------|---------------------------|
---------------------------|---------------------------|
------------2--------2-----|------------2--------2-----|
--3--3-3-3-----3--3-----3--|--1--1-1-1-----1--1-----1--|


  E  S S E  E  S S E  E   E     E  S S E  E  S S E  E   E   
-----------------------------|-----------------------------|
-----------------------------|-----------------------------|
----------------------2h--3--|----------------------3p--2--|
--0--0-0-0--0--0-0-0---------|--0--0-0-0--0--0-0-0---------|


  E  S S E  E  E  E  E  E     E  S S E  E  E  E  E  E   
---------------------------|---------------------------|
---------------------------|---------------------------|
------------2--------2-----|------------2--------2-----|
--3--3-3-3-----3--3-----3--|--1--1-1-1-----1--1-----1--|


  E  S S E  E  S S E  E   E     E  S S E  E  S S E  E   E   
-----------------------------|-----------------------------|
-----------------------------|-----------------------------|
----------------------2h--3--|----------------------3p--2--|
--0--0-0-0--0--0-0-0---------|--0--0-0-0--0--0-0-0---------|


  S S S S S S S S S S S S S S S S    S S S S S S S S S S S S S S S S  
----------------------------------|----------------------------------|
----------------------------------|--5-5-5-5-5-5-5-5-5-5-5-5-5-5-5-5-|
--7-7-7-7-7-7-7-7-7-7-7-7-7-7-7-7-|----------------------------------|
----------------------------------|----------------------------------|


  S S S S S S S S S S S S S S S S    S S S S S S S S S S S S S S S S  
----------------------------------|----------------------------------|
--5-5-5-5-5-5-5-5-5-5-5-5-5-5-5-5-|--0-0-0-0-0-0-0-0-0-0-0-0-0-0-0-0-|
----------------------------------|----------------------------------|
----------------------------------|----------------------------------|


  S S S S S S S S S S S S S S S S    S S S S S S S S S S S S S S S S  
----------------------------------|----------------------------------|
--3-3-3-3-3-3-3-3-3-3-3-3-3-3-3-3-|--3-3-3-3-3-3-3-3-3-3-3-3-3-3-3-3-|
----------------------------------|----------------------------------|
----------------------------------|----------------------------------|


  S S S S S S S S S S S S S S S S    S S S S S S S S S S S S S S S S  
----------------------------------|----------------------------------|
--5-5-5-5-5-5-3-3-3-3-3-3-2-2-2-2-|--3-3-3-3-3-3-2-2-2-2-2-2-0-0-0-0-|
----------------------------------|----------------------------------|
----------------------------------|----------------------------------|


  S S S S S S S S S S S S S S S S    S S S S S S S S S S S S S S S S  
----------------------------------|----------------------------------|
----------------------------------|--5-5-5-5-5-5-5-5-5-5-5-5-5-5-5-5-|
--7-7-7-7-7-7-7-7-7-7-7-7-7-7-7-7-|----------------------------------|
----------------------------------|----------------------------------|


  S S S S S S S S S S S S S S S S    S S S S S S S S S S S S S S S S  
----------------------------------|----------------------------------|
--5-5-5-5-5-5-5-5-5-5-5-5-5-5-5-5-|--0-0-0-0-0-0-0-0-0-0-0-0-0-0-0-0-|
----------------------------------|----------------------------------|
----------------------------------|----------------------------------|


  S S S S S S S S S S S S S S S S    S S S S S S S S S S S S S S S S  
----------------------------------|----------------------------------|
--3-3-3-3-3-3-3-3-3-3-3-3-3-3-3-3-|--3-3-3-3-3-3-3-3-3-3-3-3-3-3-3-3-|
----------------------------------|----------------------------------|
----------------------------------|----------------------------------|


  S S S S S S S S S S S S S S S S    S S S S S S S S S S S S S S S S  
----------------------------------|----------------------------------|
--5-5-5-5-5-5-3-3-3-3-3-3-2-2-2-2-|--3-3-3-3-3-3-2-2-2-2-2-2-0-0-0-0-|
----------------------------------|----------------------------------|
----------------------------------|----------------------------------|


  E  E  E  E  E  E  E  E     E  E  E  E  E  E  E  E   
--------------------------|--------------------------|
--------------------------|--------------------------|
--------------------------|--------------------------|
--0--0--0--0--0--0--0--0--|--0--0--0--0--0--0--0--0--|


  E  E  E  E  E  E  E  E     E  E  E  E  E  E  E  E   
--------------------------|--------------------------|
--------------------------|--------------------------|
--------------------------|--------------------------|
--0--0--0--0--0--0--0--0--|--0--0--0--0--0--0--0--0--|


  E  E  E  E  E  E  E  E     E  E  E  E  E  E  E  E   
--------------------------|--------------------------|
--------------------------|--------------------------|
--------------------------|--------------------------|
--0--0--0--0--0--0--0--0--|--0--0--0--0--0--0--0--0--|


  E  E  E  E  E  E  E  E     H        H           E  E  E  E  E  E  E  E   
--------------------------|--------------------|--------------------------|
--------------------------|--------------------|--------------------------|
--------------------------|--3--------3--------|--------------------------|
--0--0--0--0--0--0--0--0--|--------------------|--0--0--0--0--0--0--0--0--|


  E  E  E  E  E  E  E  E     E  E  E  E  E  E  E  E   
--------------------------|--------------------------|
--------------------------|--------------------------|
--------------------------|--------------------------|
--0--0--0--0--0--0--0--0--|--0--0--0--0--0--0--0--0--|


  E  E  E  E  E  E  E  E     E  E  E  E  E  E  E  E   
--------------------------|--------------------------|
--------------------------|--------------------------|
--------------------------|--------------------------|
--0--0--0--0--0--0--0--0--|--0--0--0--0--0--0--0--0--|


  E  E  E  E  E  E  E  E     E  E  E  E  E  E  E  E     H        H         
--------------------------|--------------------------|--------------------|
--------------------------|--------------------------|--------------------|
--------------------------|--------------------------|--3--------3--------|
--0--0--0--0--0--0--0--0--|--0--0--0--0--0--0--0--0--|--------------------|


  E  E  E  E  E  E  E  E     H        H           E  E  E  E  E  E  E  E   
--------------------------|--------------------|--------------------------|
--------------------------|--------------------|--------------------------|
--------------------------|--3--------3--------|--------------------------|
--0--0--0--0--0--0--0--0--|--------------------|--0--0--0--0--0--0--0--0--|


  H        H           E  E  E  E  E  E  E  E     H        H         
--------------------|--------------------------|--------------------|
--------------------|--------------------------|--------------------|
--3--------3--------|--------------------------|--3--------3--------|
--------------------|--0--0--0--0--0--0--0--0--|--------------------|


  H        H           H        H           E  S S E  E  S S E  E  E   
--------------------|--------------------|----------------------------|
--------------------|--------------------|----------------------------|
-----------0--------|--3--------5--------|----------------------0--2--|
--3-----------------|--------------------|--0--0-0-0--0--0-0-0--------|


  E  S S E  E  S S E  E  E     E  S S E  E  S S E  E  E   
----------------------------|----------------------------|
----------------------------|----------------------------|
--3-------------------0--2--|--3-------------------------|
-----0-0-0--0--0-0-0--------|-----0-0-0--0--0-0-0--0--0--|


  E  S S E  E  S S E  S S E     E  S S E  E  S S E  E  E   
-----------------------------|----------------------------|
-----------------------------|----------------------------|
-----------------------------|----------------------0--2--|
--1--1-1-1--1--1-1-1--1-1-1--|--0--0-0-0--0--0-0-0--------|


  E  S S E  E  S S E  E  E     E  S S E  E  S S E  E  E   
----------------------------|----------------------------|
----------------------------|----------------------------|
--3-------------------0--2--|--3-------------------------|
-----0-0-0--0--0-0-0--------|-----0-0-0--0--0-0-0--0--0--|


  E  S S E  E  S S E  S S E     E  S S E  E  E  E  E  E   
-----------------------------|---------------------------|
-----------------------------|---------------------------|
-----------------------------|------------2--------2-----|
--1--1-1-1--1--1-1-1--1-1-1--|--3--3-3-3-----3--3-----3--|


  E  S S E  E  E  E  E  E     E  S S E  E  S S E  E   E   
---------------------------|-----------------------------|
---------------------------|-----------------------------|
------------2--------2-----|----------------------2h--3--|
--1--1-1-1-----1--1-----1--|--0--0-0-0--0--0-0-0---------|


  E  S S E  E  S S E  E   E     E  S S E  E  E  E  E  E   
-----------------------------|---------------------------|
-----------------------------|---------------------------|
----------------------3p--2--|------------2--------2-----|
--0--0-0-0--0--0-0-0---------|--3--3-3-3-----3--3-----3--|


  E  S S E  E  E  E  E  E     E  S S E  E  S S E  E   E   
---------------------------|-----------------------------|
---------------------------|-----------------------------|
------------2--------2-----|----------------------2h--3--|
--1--1-1-1-----1--1-----1--|--0--0-0-0--0--0-0-0---------|


  E  S S E  E  S S E  E   E     E  S S E  E  S S E  E  E   
-----------------------------|----------------------------|
-----------------------------|----------------------------|
----------------------3p--2--|----------------------0--2--|
--0--0-0-0--0--0-0-0---------|--0--0-0-0--0--0-0-0--------|


  E  S S E  E  S S E  E  E     E  S S E  E  S S E  E  E   
----------------------------|----------------------------|
----------------------------|----------------------------|
--3-------------------0--2--|--3-------------------------|
-----0-0-0--0--0-0-0--------|-----0-0-0--0--0-0-0--0--0--|


  E  S S E  E  S S E  S S E     E  S S E  E  S S E  E  E   
-----------------------------|----------------------------|
-----------------------------|----------------------------|
-----------------------------|----------------------0--2--|
--1--1-1-1--1--1-1-1--1-1-1--|--0--0-0-0--0--0-0-0--------|


  E  S S E  E  S S E  E  E     E  S S E  E  S S E  E  E   
----------------------------|----------------------------|
----------------------------|----------------------------|
--3-------------------0--2--|--3-------------------------|
-----0-0-0--0--0-0-0--------|-----0-0-0--0--0-0-0--0--0--|


  E  S S E  E  S S E  S S E     E  S S E  E  E  E  E  E   
-----------------------------|---------------------------|
-----------------------------|---------------------------|
-----------------------------|------------2--------2-----|
--1--1-1-1--1--1-1-1--1-1-1--|--3--3-3-3-----3--3-----3--|


  E  S S E  E  E  E  E  E     E  S S E  E  S S E  E   E   
---------------------------|-----------------------------|
---------------------------|-----------------------------|
------------2--------2-----|----------------------2h--3--|
--1--1-1-1-----1--1-----1--|--0--0-0-0--0--0-0-0---------|


  E  S S E  E  S S E  E   E     E  S S E  E  E  E  E  E   
-----------------------------|---------------------------|
-----------------------------|---------------------------|
----------------------3p--2--|------------2--------2-----|
--0--0-0-0--0--0-0-0---------|--3--3-3-3-----3--3-----3--|


  E  S S E  E  E  E  E  E     E  S S E  E  S S E  E   E   
---------------------------|-----------------------------|
---------------------------|-----------------------------|
------------2--------2-----|----------------------2h--3--|
--1--1-1-1-----1--1-----1--|--0--0-0-0--0--0-0-0---------|


  E  S S E  E  S S E  E   E     S S S S S S S S S S S S S S S S  
-----------------------------|----------------------------------|
-----------------------------|----------------------------------|
----------------------3p--2--|--7-7-7-7-7-7-7-7-7-7-7-7-7-7-7-7-|
--0--0-0-0--0--0-0-0---------|----------------------------------|


  S S S S S S S S S S S S S S S S    S S S S S S S S S S S S S S S S  
----------------------------------|----------------------------------|
--5-5-5-5-5-5-5-5-5-5-5-5-5-5-5-5-|--5-5-5-5-5-5-5-5-5-5-5-5-5-5-5-5-|
----------------------------------|----------------------------------|
----------------------------------|----------------------------------|


  S S S S S S S S S S S S S S S S    S S S S S S S S S S S S S S S S  
----------------------------------|----------------------------------|
--0-0-0-0-0-0-0-0-0-0-0-0-0-0-0-0-|--3-3-3-3-3-3-3-3-3-3-3-3-3-3-3-3-|
----------------------------------|----------------------------------|
----------------------------------|----------------------------------|


  S S S S S S S S S S S S S S S S    S S S S S S S S S S S S S S S S  
----------------------------------|----------------------------------|
--3-3-3-3-3-3-3-3-3-3-3-3-3-3-3-3-|--5-5-5-5-5-5-3-3-3-3-3-3-2-2-2-2-|
----------------------------------|----------------------------------|
----------------------------------|----------------------------------|


  S S S S S S S S S S S S S S S S    S S S S S S S S S S S S S S S S  
----------------------------------|----------------------------------|
--3-3-3-3-3-3-2-2-2-2-2-2-0-0-0-0-|----------------------------------|
----------------------------------|--7-7-7-7-7-7-7-7-7-7-7-7-7-7-7-7-|
----------------------------------|----------------------------------|


  S S S S S S S S S S S S S S S S    S S S S S S S S S S S S S S S S  
----------------------------------|----------------------------------|
--5-5-5-5-5-5-5-5-5-5-5-5-5-5-5-5-|--5-5-5-5-5-5-5-5-5-5-5-5-5-5-5-5-|
----------------------------------|----------------------------------|
----------------------------------|----------------------------------|


  S S S S S S S S S S S S S S S S    S S S S S S S S S S S S S S S S  
----------------------------------|----------------------------------|
--0-0-0-0-0-0-0-0-0-0-0-0-0-0-0-0-|--3-3-3-3-3-3-3-3-3-3-3-3-3-3-3-3-|
----------------------------------|----------------------------------|
----------------------------------|----------------------------------|


  S S S S S S S S S S S S S S S S    S S S S S S S S S S S S S S S S  
----------------------------------|----------------------------------|
--3-3-3-3-3-3-3-3-3-3-3-3-3-3-3-3-|--5-5-5-5-5-5-3-3-3-3-3-3-2-2-2-2-|
----------------------------------|----------------------------------|
----------------------------------|----------------------------------|


  S S S S S S S S S S S S S S S S    S S S S S S S S S S S S S S S S  
----------------------------------|----------------------------------|
--3-3-3-3-3-3-2-2-2-2-2-2-0-0-0-0-|----------------------------------|
----------------------------------|--7-7-7-7-7-7-7-7-7-7-7-7-7-7-7-7-|
----------------------------------|----------------------------------|


  S S S S S S S S S S S S S S S S    S S S S S S S S S S S S S S S S  
----------------------------------|----------------------------------|
--5-5-5-5-5-5-5-5-5-5-5-5-5-5-5-5-|--5-5-5-5-5-5-5-5-5-5-5-5-5-5-5-5-|
----------------------------------|----------------------------------|
----------------------------------|----------------------------------|


  S S S S S S S S S S S S S S S S    S S S S S S S S S S S S S S S S  
----------------------------------|----------------------------------|
--0-0-0-0-0-0-0-0-0-0-0-0-0-0-0-0-|--3-3-3-3-3-3-3-3-3-3-3-3-3-3-3-3-|
----------------------------------|----------------------------------|
----------------------------------|----------------------------------|


  S S S S S S S S S S S S S S S S    S S S S S S S S S S S S S S S S  
----------------------------------|----------------------------------|
--3-3-3-3-3-3-3-3-3-3-3-3-3-3-3-3-|--5-5-5-5-5-5-3-3-3-3-3-3-2-2-2-2-|
----------------------------------|----------------------------------|
----------------------------------|----------------------------------|


  S S S S S S S S S S S S S S S S    S S S S S S S S S S S S S S S S  
----------------------------------|----------------------------------|
--3-3-3-3-3-3-2-2-2-2-2-2-0-0-0-0-|----------------------------------|
----------------------------------|--7-7-7-7-7-7-7-7-7-7-7-7-7-7-7-7-|
----------------------------------|----------------------------------|


  S S S S S S S S S S S S S S S S    S S S S S S S S S S S S S S S S  
----------------------------------|----------------------------------|
--5-5-5-5-5-5-5-5-5-5-5-5-5-5-5-5-|--5-5-5-5-5-5-5-5-5-5-5-5-5-5-5-5-|
----------------------------------|----------------------------------|
----------------------------------|----------------------------------|


  S S S S S S S S S S S S S S S S    S S S S S S S S S S S S S S S S  
----------------------------------|----------------------------------|
--0-0-0-0-0-0-0-0-0-0-0-0-0-0-0-0-|--3-3-3-3-3-3-3-3-3-3-3-3-3-3-3-3-|
----------------------------------|----------------------------------|
----------------------------------|----------------------------------|


  S S S S S S S S S S S S S S S S    S S S S S S S S S S S S S S S S  
----------------------------------|----------------------------------|
--3-3-3-3-3-3-3-3-3-3-3-3-3-3-3-3-|--5-5-5-5-5-5-3-3-3-3-3-3-2-2-2-2-|
----------------------------------|----------------------------------|
----------------------------------|----------------------------------|


  S S S S S S S S S S S S S S S S    S S S S S S S S S S S S S S S S  
----------------------------------|----------------------------------|
--3-3-3-3-3-3-2-2-2-2-2-2-0-0-0-0-|----------------------------------|
----------------------------------|--7-7-7-7-7-7-7-7-7-7-7-7-7-7-7-7-|
----------------------------------|----------------------------------|


  S S S S S S S S S S S S S S S S    S S S S S S S S S S S S S S S S  
----------------------------------|----------------------------------|
--5-5-5-5-5-5-5-5-5-5-5-5-5-5-5-5-|--5-5-5-5-5-5-5-5-5-5-5-5-5-5-5-5-|
----------------------------------|----------------------------------|
----------------------------------|----------------------------------|


  S S S S S S S S S S S S S S S S    S S S S S S S S S S S S S S S S  
----------------------------------|----------------------------------|
--0-0-0-0-0-0-0-0-0-0-0-0-0-0-0-0-|--3-3-3-3-3-3-3-3-3-3-3-3-3-3-3-3-|
----------------------------------|----------------------------------|
----------------------------------|----------------------------------|


  S S S S S S S S S S S S S S S S    S S S S S S S S S S S S S S S S  
----------------------------------|----------------------------------|
--3-3-3-3-3-3-3-3-3-3-3-3-3-3-3-3-|--5-5-5-5-5-5-3-3-3-3-3-3-2-2-2-2-|
----------------------------------|----------------------------------|
----------------------------------|----------------------------------|


  S S S S S S S S S S S S S S S S    S S S S S S S S S S S S S S S S  
----------------------------------|----------------------------------|
--3-3-3-3-3-3-2-2-2-2-2-2-0-0-0-0-|----------------------------------|
----------------------------------|--7-7-7-7-7-7-7-7-7-7-7-7-7-7-7-7-|
----------------------------------|----------------------------------|


  S S S S S S S S S S S S S S S S    S S S S S S S S S S S S S S S S  
----------------------------------|----------------------------------|
--5-5-5-5-5-5-5-5-5-5-5-5-5-5-5-5-|--5-5-5-5-5-5-5-5-5-5-5-5-5-5-5-5-|
----------------------------------|----------------------------------|
----------------------------------|----------------------------------|


  S S S S S S S S S S S S S S S S    S S S S S S S S S S S S S S S S  
----------------------------------|----------------------------------|
--0-0-0-0-0-0-0-0-0-0-0-0-0-0-0-0-|--3-3-3-3-3-3-3-3-3-3-3-3-3-3-3-3-|
----------------------------------|----------------------------------|
----------------------------------|----------------------------------|


  S S S S S S S S S S S S S S S S    S S S S S S S S S S S S S S S S  
----------------------------------|----------------------------------|
--3-3-3-3-3-3-3-3-3-3-3-3-3-3-3-3-|--5-5-5-5-5-5-3-3-3-3-3-3-2-2-2-2-|
----------------------------------|----------------------------------|
----------------------------------|----------------------------------|


  S S S S S S S S S S S S S S S S    E  E  E  E  E  E  E  E   
----------------------------------|--------------------------|
--3-3-3-3-3-3-2-2-2-2-2-2-0-0-0-0-|--------------------------|
----------------------------------|--------------------------|
----------------------------------|--0--0--0--0--0--0--0--0--|


  E  E  E  E  E  E  E  E     E  E  E  E  E  E  E  E   
--------------------------|--------------------------|
--------------------------|--------------------------|
--------------------------|--------------------------|
--0--0--0--0--0--0--0--0--|--0--0--0--0--0--0--0--0--|


  E  E  E  E  E  E  E  E     E  E  E  E  E  E  E  E   
--------------------------|--------------------------|
--------------------------|--------------------------|
--------------------------|--------------------------|
--0--0--0--0--0--0--0--0--|--0--0--0--0--0--0--0--0--|


  E  E  E  E  E  E  E  E     E  E  E  E  E  E  E  E     H        H         
--------------------------|--------------------------|--------------------|
--------------------------|--------------------------|--------------------|
--------------------------|--------------------------|--3--------3--------|
--0--0--0--0--0--0--0--0--|--0--0--0--0--0--0--0--0--|--------------------|


  H        H           H        H           W                  
--------------------|--------------------|-------------------||
--------------------|--------------------|-------------------||
-----------0--------|--3--------5--------|-------------------||
--3-----------------|--------------------|--0----------------||




Duration Legend
---------------
W - whole
H - half
Q - quarter
E - 8th
S - 16th
T - 32nd
X - 64th
. - note dotted
|-n-|  - n-tuplets


Tablature Legend
----------------
L - tied note
x - dead note
g - grace note
(n) - ghost note
> - accentuded note
NH - natural harmonic
AH - artificial harmonic
TH - tapped harmonic
SH - semi harmonic
PH - pitch harmonic
h - hammer on
p - pull off
b - bend
br - bendRelease
pb - preBend
pbr - preBendRelease
brb - bendReleaseBend
\n/ - tremolo bar dip
\n - tremolo bar dive
-/n - tremolo bar Release up
/n\ - tremolo bar inverted dip
/n - tremolo bar return
-\n - tremolo bar Release down
S - shift slide
s - legato slide
/ -  slide into from below or out of upwards
\ -  slide into from above or out of downwards
~ - vibrato
W - wide vibrato
tr - trill
TP - tremolo picking
T - tapping
S - slap
P - pop
< - fade in
^ - brush up
v - brush down
comments
We did not receive enough feedback on this tab! Please rate:
print report bad tab
1 2 3 4 5
I want to post or [tab]
guest
You may want to rate the tab now too:
select rating
Please do not post tabs as comments. Select "correction" instead!