Oops, an error
Loading. Please wait.

Written On The Walls Tab

ver3
ver3

Whole song

More versions @911Tabs.com
122 views 1 this week
no commentswrite comment
1 2 3 4 5
please rate
Autoscroll
+/-
esc
set tempo
stop
Contributor
WARNING: You are trying to view
                                    content from Ultimate-Guitar.com
                                    in an unauthorized application,
                                    which is prohibited.

                                    Please use an official Ultimate
                                    Guitar Tabs application for iPhone,
                                    iPad or Android to access legitimate
                                    chords, guitar, bass, and drum tabs
                                    from Ultimate-Guitar.com database.

                                    Type "ultimate guitar tabs" in Apple
                                    App Store's or Android Market's
                                    search to find the application.
#----------------------------------PLEASE NOTE---------------------------------#
#This file is the author's own work and represents their interpretation of the #
#song. You may only use this file for private study, scholarship, or research. #
#------------------------------------------------------------------------------#

WRITTEN ON THE WALLS
As recorded by Iced Earth
(From the 1991 Album ICED EARTH)


Transcribed by Russ Elton (webmaster@abysslord.com) (Erikiux)

 Words by Adam Music by Schaffer, Shawver, Abell, Adam
Arranged by Russ Elton (webmaster@abysslord.com)
 

Gtr I (Eb Ab Db Gb Bb Eb) - 'Distortion Guitar'
Gtr II (Eb Ab Db Gb Bb Eb) - 'Distortion Guitar'
Gtr III (Eb Ab Db Gb Bb Eb) - 'Lead Guitar'
Gtr IV (Eb Ab Db Gb Bb Eb) - 'Acoustic Guitar'
Gtr V (Eb Ab Db Gb Bb Eb) - 'Harmony Guitar'


   Intro
    Q=186
    G5
   4/4
    Gtr III
    PM----------------------------------------
    E E  E E  E E  E  E    E  E E E  E E E E
||----------------------|--------------------|
||o---------------------|--------------------|
||----------------------|--------------------|
||--0-0-12-0-13-0-10-12-|--0--0-8-0-10-0-7-8-|
||o---------------------|--------------------|
||----------------------|--------------------|
|
|   Gtrs I, II
|   W                     +W
||----------------------|--------------------|
||o---------------------|--------------------|
||----------------------|--------------------|
||----------------------|--------------------|
||o-5-------------------|-(5)----------------|
||--3-------------------|-(3)----------------|


  F#5
 ----------------------------------------|
  E E  E E  E E  E  E    E  E E E  E E E E
|---------------------|---------------------|
|---------------------|---------------------|
|---------------------|---------------------|
|-0-0-12-0-13-0-10-12-|--0--0-8-0-10-0-7-8--|
|---------------------|---------------------|
|---------------------|---------------------|
|
| W                     +W
|---------------------|---------------------|
|---------------------|---------------------|
|---------------------|---------------------|
|---------------------|---------------------|
|-4-------------------|-(4)-----------------|
|-2-------------------|-(2)-----------------|


  A5
  PM----------------------------------------
  E E  E E  E E  E  E    E  E E E  E E E E
|---------------------|--------------------|
|---------------------|--------------------|
|---------------------|--------------------|
|-0-0-12-0-13-0-10-12-|--0--0-8-0-10-0-7-8-|
|---------------------|--------------------|
|---------------------|--------------------|
|
| W                     +W
|---------------------|--------------------|
|---------------------|--------------------|
|---------------------|--------------------|
|---------------------|--------------------|
|-7-------------------|-(7)----------------|
|-5-------------------|-(5)----------------|


  E5
 ----------------------------------------|
  E E  E E  E E  E  E    E  E E E  E E E E
|---------------------|---------------------||
|---------------------|--------------------o||
|---------------------|---------------------||
|-0-0-12-0-13-0-10-12-|--0--0-8-0-10-0-7-8--||
|---------------------|--------------------o||
|---------------------|---------------------||
|
| W                     +W
|---------------------|---------------------||
|---------------------|--------------------o||
|---------------------|---------------------||
|---------------------|---------------------||
|-2-------------------|-(2)----------------o||
|-0-------------------|-(0)-----------------||


 Intro Solo
  Q=208
  G5
   |--3--|  |--3--|  |--3--|  |---3---|
   E  E  E  E  E  E  E  E  E  E  E    E
|----------15h20p15---------------------|
|-15h20p15----------15h20p15------------|
|----------------------------15h19p==15-|
|---------------------------------------|
|---------------------------------------|
|---------------------------------------|
|
|                             PM---|
|  H.                         E    E
|---------------------------------------|
|---------------------------------------|
|--7------------------------------------|
|--5--------------------------5----5----|
|---------------------------------------|
|---------------------------------------|


  Eb/G     G5       C5/G     G5    F#5
   |--3--|  |--3--|  |--3--|  |---3---|
   E  E  E  E  E  E  E  E  E  E  E    E
|----------15h20p15---------------------|
|-15h20p15----------15h20p15------------|
|----------------------------15h19p==15-|
|---------------------------------------|
|---------------------------------------|
|---------------------------------------|
|
|  Q        Q        Q        E    E
|---------------------------------------|
|---------------------------------------|
|--8--------7--------5--------7----6----|
|--5--------5--------5--------5----4----|
|---------------------------------------|
|---------------------------------------|


   |--3---|  |--3--|  |--3--|  |---3---|
   E   E  E  E  E  E  E  E  E  E  E    E
|-----------14h19p14---------------------|
|-14h=19p14----------14h19p14------------|
|-----------------------------14h18p==14-|
|----------------------------------------|
|----------------------------------------|
|----------------------------------------|
|
|                              PM---|
| +H.                          E    E
|----------------------------------------|
|----------------------------------------|
|-(6)------------------------------------|
|-(4)--------------------------4----4----|
|----------------------------------------|
|----------------------------------------|


  D/F#     F#5      B5/F#    F#5   A5
   |--3--|  |--3--|  |--3--|  |---3---|
   E  E  E  E  E  E  E  E  E  E  E    E
|----------14h19p14----------------------|
|-14h19p14----------14h19p14-------------|
|----------------------------14h18p==14\-|
|----------------------------------------|
|----------------------------------------|
|----------------------------------------|
|
|  Q        Q        Q        E    E
|----------------------------------------|
|----------------------------------------|
|--7--------6--------4--------6----9-----|
|--4--------4--------4--------4----7-----|
|----------------------------------------|
|----------------------------------------|


                                   F/A     A5     D5/A   A5  E5
   |--3--| |-3--| |-3--| |--3--|    |-3--| |-3--| |-3--| |--3--|
   E   E E E  E E E  E E E E   E    E  E E E  E E E  E E E E   E
|----------5h10p5----------------|---------5h10p5----------------|
|--5h=10p5--------5h10p5---------|--5h10p5--------5h10p5---------|
|------------------------5h9p==5-|-----------------------5h9p==5-|
|--------------------------------|-------------------------------|
|--------------------------------|-------------------------------|
|--------------------------------|-------------------------------|
|
|                        PM--|
| +H.                    E   E      Q      Q      Q      E   E
|--------------------------------|-------------------------------|
|--------------------------------|-------------------------------|
|-(9)----------------------------|-10------9------7------9-------|
|-(7)--------------------7---7---|--7------7------7------7---9---|
|--------------------------------|---------------------------7---|
|--------------------------------|-------------------------------|


   |--3---|  |--3--|  |--3--|  |---3---|
   E   E  E  E  E  E  E  E  E  E  E    E
|-----------12h17p12---------------------|
|-12h=17p12----------12h17p12------------|
|-----------------------------12h16p==12-|
|----------------------------------------|
|----------------------------------------|
|----------------------------------------|
|
|                              PM---|
| +H.                          E    E
|----------------------------------------|
|----------------------------------------|
|----------------------------------------|
|-(9)------------------------------------|
|-(7)--------------------------7----7----|
|----------------------------------------|


  C/E      E5       A5/E     E5    G5
   |--3--|  |--3--|  |--3--|  |---3---|
   E  E  E  E  E  E  E  E  E  E  E    E
|----------12h17p12---------------------|
|-12h17p12----------12h17p12------------|
|----------------------------12h16p==12-|
|---------------------------------------|
|---------------------------------------|
|---------------------------------------|
|
|  Q        Q        Q        E    E
|---------------------------------------|
|---------------------------------------|
|----------------------------------7----|
|-10--------9--------7--------9----5----|
|--7--------7--------7--------7---------|
|---------------------------------------|


   |--3---|  |--3--|  |--3--|  |---3---|
   E   E  E  E  E  E  E  E  E  E  E    E
|-----------15h20p15---------------------|
|-15h=20p15----------15h20p15------------|
|-----------------------------15h19p==15-|
|----------------------------------------|
|----------------------------------------|
|----------------------------------------|
|
|                              PM---|
| +H.                          E    E
|----------------------------------------|
|----------------------------------------|
|-(7)------------------------------------|
|-(5)--------------------------5----5----|
|----------------------------------------|
|----------------------------------------|


  Eb/G     G5       C5/G     G5    F#5
   |--3--|  |--3--|  |--3--|  |---3---|
   E  E  E  E  E  E  E  E  E  E  E    E
|----------15h20p15---------------------|
|-15h20p15----------15h20p15------------|
|----------------------------15h19p==15-|
|---------------------------------------|
|---------------------------------------|
|---------------------------------------|
|
|  Q        Q        Q        E    E
|---------------------------------------|
|---------------------------------------|
|--8--------7--------5--------7----6----|
|--5--------5--------5--------5----4----|
|---------------------------------------|
|---------------------------------------|


   |--3---|  |--3--|  |--3--|  |---3---|
   E   E  E  E  E  E  E  E  E  E  E    E
|-----------14h19p14---------------------|
|-14h=19p14----------14h19p14------------|
|-----------------------------14h18p==14-|
|----------------------------------------|
|----------------------------------------|
|----------------------------------------|
|
|                              PM---|
| +H.                          E    E
|----------------------------------------|
|----------------------------------------|
|-(6)------------------------------------|
|-(4)--------------------------4----4----|
|----------------------------------------|
|----------------------------------------|


  D/F#     F#5      B5/F#    F#5   A5
   |--3--|  |--3--|  |--3--|  |---3---|
   E  E  E  E  E  E  E  E  E  E  E    E
|----------14h19p14----------------------|
|-14h19p14----------14h19p14-------------|
|----------------------------14h18p==14\-|
|----------------------------------------|
|----------------------------------------|
|----------------------------------------|
|
|  Q        Q        Q        E    E
|----------------------------------------|
|----------------------------------------|
|--7--------6--------4--------6----9-----|
|--4--------4--------4--------4----7-----|
|----------------------------------------|
|----------------------------------------|


                                   F/A     A5     D5/A   A5  E5
   |--3--| |-3--| |-3--| |--3--|    |-3--| |-3--| |-3--| |--3--|
   E   E E E  E E E  E E E E   E    E  E E E  E E E  E E E E   E
|----------5h10p5----------------|---------5h10p5----------------|
|--5h=10p5--------5h10p5---------|--5h10p5--------5h10p5---------|
|------------------------5h9p==5-|-----------------------5h9p==5-|
|--------------------------------|-------------------------------|
|--------------------------------|-------------------------------|
|--------------------------------|-------------------------------|
|
|                        PM--|
| +H.                    E   E      Q      Q      Q      E   E
|--------------------------------|-------------------------------|
|--------------------------------|-------------------------------|
|-(9)----------------------------|-10------9------7------9-------|
|-(7)--------------------7---7---|--7------7------7------7---9---|
|--------------------------------|---------------------------7---|
|--------------------------------|-------------------------------|


   |--3---|  |--3--|  |--3--|  |---3---|
   E   E  E  E  E  E  E  E  E  E  E    E
|-----------12h17p12---------------------|
|-12h=17p12----------12h17p12------------|
|-----------------------------12h16p==12-|
|----------------------------------------|
|----------------------------------------|
|----------------------------------------|
|
|                              PM---|
| +H.                          E    E
|----------------------------------------|
|----------------------------------------|
|----------------------------------------|
|-(9)------------------------------------|
|-(7)--------------------------7----7----|
|----------------------------------------|


  C/E      E5       A5/E     E5         G5
                                         ~~~~~~~~~~~~~~~~
   |--3--|  |--3--|  |--3--|  |--3--|
   E  E  E  E  E  E  E  E  E  E  E  E    W           +W
|----------12h17p12-------------------|-15--------|-(15)------------||
|-12h17p12----------12h17p12----------|-----------|-----------------||
|----------------------------12h16p12-|-----------|-----------------||
|-------------------------------------|-----------|-----------------||
|-------------------------------------|-----------|-----------------||
|-------------------------------------|-----------|-----------------||
|
|  Q        Q        Q        Q          W           +H.      +E  E
|-------------------------------------|-----------|-----------------||
|-------------------------------------|-----------|-----------------||
|-------------------------------------|-----------|-----------------||
|-10--------9--------7--------9-------|-----------|-----------------||
|--7--------7--------7--------7-------|--5--------|--(5)------(5)---||
|-------------------------------------|--3--------|--(3)------(3)-0-||


 Pre-Verse
    >
    ~~~~~~~~~~~~~~~~~~~~~~~~~~~~~
   +W                        +W
|-(15)--------------------|-(15)-----------------------|
|-------------------------|----------------------------|
|-------------------------|----------------------------|
|-------------------------|----------------------------|
|-------------------------|----------------------------|
|-------------------------|----------------------------|
|
|       PM-------------------------------------------|
|   Q   E S S E S S E S S     E  S S E S S E S S E S S
|-------------------------|----------------------------|
|-------------------------|----------------------------|
|-------------------------|----------------------------|
|-------------------------|----------------------------|
|---5---------------------|----------------------------|
|---3---3-3-3-3-3-3-3-3-3-|---3--3-3-3-3-3-3-3-3-3-0-0-|


  F#5
  W                      W
|----------------------|--------------------------|
|----------------------|--------------------------|
|----------------------|--------------------------|
|----------------------|--------------------------|
|----------------------|--------------------------|
|----------------------|--------------------------|
|
|    PM----------------------------------------|
| Q  E S S E S S E S S   E S S E S S E S S E S S
|----------------------|--------------------------|
|----------------------|--------------------------|
|----------------------|--------------------------|
|----------------------|--------------------------|
|-4--------------------|--------------------------|
|-2--2-2-2-2-2-2-2-2-2-|-2-2-2-2-2-2-2-2-2-2-0-0--|


  A5
  Gtrs I, II
     PM----------------------------------------|
  Q  E S S E S S E S S   E S S E S S E S S E S S
|----------------------|-------------------------|
|----------------------|-------------------------|
|----------------------|-------------------------|
|----------------------|-------------------------|
|-7--------------------|-------------------------|
|-5--5-5-5-5-5-5-5-5-5-|-5-5-5-5-5-5-5-5-5-5-0-0-|


  E5
     PM------------------------------------|
  Q  E S S E E E S S   E E E S S E S S E S S
|--------------------|-----------------------||
|--------------------|-----------------------||
|--------------------|-----------------------||
|--------------------|-----------------------||
|-2------------------|-----------------------||
|-0--0-0-0-0-0-0-0-0-|-0-0-0-0-0-0-0-0-0-0-0-||


   Verse
    $
    G5
       PM----------------------------------------|
    Q  E S S E S S E S S   E S S E S S E S S E S S
||-----------------------|-------------------------|
||o----------------------|-------------------------|
||-----------------------|-------------------------|
||-----------------------|-------------------------|
||o-5--------------------|-------------------------|
||--3--3-3-3-3-3-3-3-3-3-|-3-3-3-3-3-3-3-3-3-3-0-0-|


  F#5
     PM----------------------------------------|
  Q  E S S E S S E S S   E S S E S S E S S E S S
|----------------------|-------------------------|
|----------------------|-------------------------|
|----------------------|-------------------------|
|----------------------|-------------------------|
|-4--------------------|-------------------------|
|-2--2-2-2-2-2-2-2-2-2-|-2-2-2-2-2-2-2-2-2-2-0-0-|


  A5
     PM----------------------------------------|
  Q  E S S E S S E S S   E S S E S S E S S E S S
|----------------------|-------------------------|
|----------------------|-------------------------|
|----------------------|-------------------------|
|----------------------|-------------------------|
|-7--------------------|-------------------------|
|-5--5-5-5-5-5-5-5-5-5-|-5-5-5-5-5-5-5-5-5-5-0-0-|


  E5
     PM------------------------------------|
  Q  E S S E E E S S   E E E S S E S S E S S
|--------------------|------------------------||
|--------------------|-----------------------o||
|--------------------|------------------------||
|--------------------|------------------------||
|-2------------------|-----------------------o||
|-0--0-0-0-0-0-0-0-0-|-0-0-0-0-0-0-0-0-0-0-0--||


 Bridge
  G5                                                F#5
  Gtr III
  PM|     PM    PM    PM        PM    PM    PM      PM---
  E E   E E   E E   E E      E  E   E E   E E    E  E
|-------------------------|-----------------------------|
|-------------------------|-----------------------------|
|-------7-----8-----7-----|--5------7-----8------7------|
|-5-5-----5-----5-----5---|-----5-----5-----5-------4---|
|-------------------------|-----------------------------|
|-------------------------|-----------------------------|
|
| Gtr II
| W                         +H.                 +E  E
|-------------------------|-----------------------------|
|-------------------------|-----------------------------|
|-7-----------------------|-(7)-----------------(7)-6---|
|-5-----------------------|-(5)-----------------(5)-4---|
|-------------------------|-----------------------------|
|-------------------------|-----------------------------|
|
| Gtr I
| PM-----------------------------------------------------
| E S S E S S E S S E S S    E  S S E S S E S S  E  S S
|-------------------------|-----------------------------|
|-------------------------|-----------------------------|
|-------------------------|-----------------------------|
|-5-5-5-5-5-5-5-5-5-5-5-5-|--5--5-5-5-5-5-5-5-5--5--4-4-|
|-------------------------|-----------------------------|
|-------------------------|-----------------------------|


                                                      A5
 -----|     PM    PM    PM        PM    PM    PM      PM
   E  E   E E   E E   E E      E  E   E E   E E    E  E
|---------------------------|--------------------------------|
|---------------------------|--------------------------------|
|---------6-----7-----6-----|--4------6-----7------6---------|
|--4--4-----4-----4-----4---|-----4-----4-----4-------7------|
|---------------------------|--------------------------------|
|---------------------------|--------------------------------|
|
| +W                          +H.                 +E  E
|---------------------------|--------------------------------|
|---------------------------|--------------------------------|
|-(6)-----------------------|-(6)-----------------(6)-9------|
|-(4)-----------------------|-(4)-----------------(4)-7------|
|---------------------------|--------------------------------|
|---------------------------|--------------------------------|
|
|-------------------------------------------------------|
|  E  S S E S S E S S E S S    E  S S E S S E S S  E  S S
|---------------------------|--------------------------------|
|---------------------------|--------------------------------|
|---------------------------|--------------------------------|
|--4--4-4-4-4-4-4-4-4-4-4-4-|--4--4-4-4-4-4-4-4-4--4--7-7----|
|---------------------------|--------------------------------|
|---------------------------|--------------------------------|


                                                        E5
   PM-|     PM     PM    PM        PM    PM     PM      PM---
   E  E   E E    E E   E E      E  E   E E    E E    E  E
|----------------------------|------------------------------|
|----------------------------|------------------------------|
|---------9-----10-----9-----|--7------9-----10------9------|
|--7--7-----7------7-----7---|-----7-----7------7-----------|
|----------------------------|--------------------------7---|
|----------------------------|------------------------------|
|
| +W                           +H.                  +E  E
|----------------------------|------------------------------|
|----------------------------|------------------------------|
|-(9)------------------------|-(9)------------------(9)-----|
|-(7)------------------------|-(7)------------------(7)-9---|
|----------------------------|--------------------------7---|
|----------------------------|------------------------------|
|
|  PM--------------------------------------------------------
|  E  S S E S S  E S S E S S    E  S S E S S  E S S  E  S S
|----------------------------|------------------------------|
|----------------------------|------------------------------|
|----------------------------|------------------------------|
|--7--7-7-7-7-7--7-7-7-7-7-7-|--7--7-7-7-7-7--7-7-7--7------|
|----------------------------|--------------------------7-7-|
|----------------------------|------------------------------|


                                                      D.S.
 -----|     PM     PM    PM        PM    PM     PM    PM
   E  E   E E    E E   E E      E  E   E E    E E   E E
|----------------------------|-------------------------------||
|----------------------------|-------------------------------||
|----------------------------|-------------------------------||
|---------9-----10-----9-----|--7------9-----10-----9--------||
|--7--7-----7------7-----7---|-----7-----7------7-----7------||
|----------------------------|-------------------------------||
|
| +W                           +W
|----------------------------|-------------------------------||
|----------------------------|-------------------------------||
|----------------------------|-------------------------------||
|-(9)------------------------|-(9)---------------------------||
|-(7)------------------------|-(7)---------------------------||
|----------------------------|-------------------------------||
|
|-------------------------------------------------------|
|  E  S S E S S  E S S E S S    E  S S E S S  E S S E S S
|----------------------------|-------------------------------||
|----------------------------|-------------------------------||
|----------------------------|-------------------------------||
|----------------------------|-------------------------------||
|--7--7-7-7-7-7--7-7-7-7-7-7-|--7--7-7-7-7-7--7-7-7-7-7-7----||
|----------------------------|-------------------------------||


 Interlude
  Q=127
  E5
  Gtrs I, II
              >
  W          +W           +W           +W           Wx3
|----------|------------|------------|------------|--------|
|----------|------------|------------|------------|--------|
|----------|------------|------------|------------|--------|
|----------|------------|------------|------------|--------|
|-2--------|-(2)--------|-(2)--------|-(2)--------|--------|
|-0--------|-(0)--------|-(0)--------|-(0)--------|--------|


    N.C.
    Gtr II
    W          W          W          W
||-----------|----------|----------|------|
||o----------|----------|----------|------|
||--5--------|-9--------|-4--------|-7----|
||-----------|----------|----------|------|
||o----------|----------|----------|------|
||-----------|----------|----------|------|
|
|   Gtr I
|   W          W          W          W
||-----------|----------|----------|------|
||o----------|----------|----------|------|
||-----------|----------|----------|------|
||-----------|----------|----------|------|
||o-7--------|-2--------|-5--------|-0----|
||-----------|----------|----------|------|


  W          W          W          W
|----------|----------|----------|------|
|----------|----------|----------|------|
|-5--------|-9--------|-4--------|-7----|
|----------|----------|----------|------|
|----------|----------|----------|------|
|----------|----------|----------|------|
|
| W          W          W          W
|----------|----------|----------|------|
|----------|----------|----------|------|
|----------|----------|----------|------|
|----------|----------|----------|------|
|-7--------|-2--------|-5--------|-0----|
|----------|----------|----------|------|


  W          W          W          H     S S S  S S S S S
|----------|----------|----------|------10-8-7-------------||
|----------|----------|----------|-------------10-8-7-----o||
|-5--------|-9--------|-4--------|-7------------------9-7--||
|----------|----------|----------|-------------------------||
|----------|----------|----------|------------------------o||
|----------|----------|----------|-------------------------||
|
| W          W          W          W
|----------|----------|----------|-------------------------||
|----------|----------|----------|------------------------o||
|----------|----------|----------|-------------------------||
|----------|----------|----------|-------------------------||
|-7--------|-2--------|-5--------|-0----------------------o||
|----------|----------|----------|-------------------------||


  N.C.(E)                     N.C.(B)
  W                           W
|---------------------------|---------------------------|
|---------------------------|---------------------------|
|-5-------------------------|-9-------------------------|
|---------------------------|---------------------------|
|---------------------------|---------------------------|
|---------------------------|---------------------------|
|
| PM-----------------------------------------------------
| E S S E S S S S S S E S S   E S S E S S S S S S E S S
|---------------------------|---------------------------|
|---------------------------|---------------------------|
|---------------------------|---------------------------|
|---------------------------|---------------------------|
|-7-7-7-7-7-7-7-7-7-7-7-7-7-|-2-2-2-2-2-2-2-2-2-2-2-2-2-|
|---------------------------|---------------------------|


  N.C.(D)                     N.C.(A)
  W                           W
|---------------------------|------------------------------|
|---------------------------|------------------------------|
|-4-------------------------|-7----------------------------|
|---------------------------|------------------------------|
|---------------------------|------------------------------|
|---------------------------|------------------------------|
|
|-----------------------------------------------------|
| E S S E S S S S S S E S S   E S S E S S S S S S E S S
|---------------------------|------------------------------|
|---------------------------|------------------------------|
|---------------------------|------------------------------|
|---------------------------|------------------------------|
|-5-5-5-5-5-5-5-5-5-5-5-5-5-|-0-0-0-0-0-0-0-0-0-0-0-0-0----|
|---------------------------|------------------------------|


  N.C.(E)                     N.C.(B)
  W                           W
|---------------------------|---------------------------|
|---------------------------|---------------------------|
|-5-------------------------|-9-------------------------|
|---------------------------|---------------------------|
|---------------------------|---------------------------|
|---------------------------|---------------------------|
|
| PM-----------------------------------------------------
| E S S E S S S S S S E S S   E S S E S S S S S S E S S
|---------------------------|---------------------------|
|---------------------------|---------------------------|
|---------------------------|---------------------------|
|---------------------------|---------------------------|
|-7-7-7-7-7-7-7-7-7-7-7-7-7-|-2-2-2-2-2-2-2-2-2-2-2-2-2-|
|---------------------------|---------------------------|


  N.C.(D)                     N.C.(A)
  W                           H            S S S  S S S S S
|---------------------------|-------------10-8-7---------------||
|---------------------------|--------------------10-8-7--------||
|-4-------------------------|-7-------------------------9-7----||
|---------------------------|----------------------------------||
|---------------------------|----------------------------------||
|---------------------------|----------------------------------||
|
|-------------------------------------------------------|
| E S S E S S S S S S E S S   E S S E S S  S S S  S E   E
|---------------------------|----------------------------------||
|---------------------------|----------------------------------||
|---------------------------|----------------------------------||
|---------------------------|----------------------------------||
|-5-5-5-5-5-5-5-5-5-5-5-5-5-|-0-0-0-0-0-0--0-0-0--0-0---0------||
|---------------------------|----------------------------------||


 Breakdown
  Q=110
  Am    Asus2 Am  A5    E5 Em
  Gtr I
  PM
  E E Q    H            W
|---------------------|------------------|
|---------------------|------------------|
|---------------------|------------------|
|---------------------|------------------|
|---------------------|------------------|
|-0-------------------|------------------|
|
| Gtr IV
| Q   E E +E  E E S S   Q  E E +E  E E E
|-0---0-0-(0)-0-0-----|------0-(0)-------|
|-1---1-0-(0)-1-1-----|------------0-----|
|-2---2-2-(2)-2-2-2-2-|----0---------0---|
|-2---2-2-(2)-2-2-2-2-|----2-----------0-|
|-0---0-0-(0)-0-0-0-0-|-2--2-------------|
|---------------------|-0--0-------------|


  Am   Asus2 Am  A5    E5 Em
  W                    W
|--------------------|--------------------|
|--------------------|--------------------|
|--------------------|--------------------|
|--------------------|--------------------|
|--------------------|--------------------|
|--------------------|--------------------|
|
| Q  E E +E  E E S S   Q  E E +E  E E E
|-0--0-0-(0)-0-0-----|------0-(0)---------|
|-1--1-0-(0)-1-1-----|------------0-------|
|-2--2-2-(2)-2-2-2-2-|----0---------0-----|
|-2--2-2-(2)-2-2-2-2-|----2-----------0---|
|-0--0-0-(0)-0-0-0-0-|-2--2---------------|
|--------------------|-0--0---------------|


    Am   Asus2     A5    E5 Em
    Gtr IV
    Q  E E +E  E E S S   Q  E E +E  E E E
||--0--0-0-(0)-0-0-----|------0-(0)-------|
||o-1--1-0-(0)-1-1-----|------------0-----|
||--2--2-2-(2)-2-2-2-2-|----0---------0---|
||--2--2-2-(2)-2-2-2-2-|----2-----------0-|
||o-0--0-0-(0)-0-0-0-0-|-2--2-------------|
||---------------------|-0--0-------------|


  Am   Asus2 Am  A5    E5 Em
  Q  E E +E  E E S S   Q  E E +E  E E E   3x
|-0--0-0-(0)-0-0-----|------0-(0)---------||
|-1--1-0-(0)-1-1-----|------------0------o||
|-2--2-2-(2)-2-2-2-2-|----0---------0-----||
|-2--2-2-(2)-2-2-2-2-|----2-----------0---||
|-0--0-0-(0)-0-0-0-0-|-2--2--------------o||
|--------------------|-0--0---------------||


  Am   Asus2 Am  A5    E5 Em              Am   Asus2 Am  A5    E5        N.C.(A)
  Gtr I
                                                                         PM|
  W                    W                  W                    H    Q  E S S
|--------------------|------------------|--------------------|----------------||
|--------------------|------------------|--------------------|----------------||
|--------------------|------------------|--------------------|----------------||
|--------------------|------------------|--------------------|----------------||
|--------------------|------------------|--------------------|-----------0-0--||
|--------------------|------------------|--------------------|----------------||
|
| Gtr IV
| Q  E E +E  E E S S   Q  E E +E  E E E   Q  E E +E  E E S S   W
|-0--0-0-(0)-0-0-----|------0-(0)-------|-0--0-0-(0)-0-0-----|----------------||
|-1--1-0-(0)-1-1-----|------------0-----|-1--1-0-(0)-1-1-----|----------------||
|-2--2-2-(2)-2-2-2-2-|----0---------0---|-2--2-2-(2)-2-2-2-2-|----------------||
|-2--2-2-(2)-2-2-2-2-|----2-----------0-|-2--2-2-(2)-2-2-2-2-|----------------||
|-0--0-0-(0)-0-0-0-0-|-2--2-------------|-0--0-0-(0)-0-0-0-0-|-2--------------||
|--------------------|-0--0-------------|--------------------|-0--------------||


 Bridge
  Q=132
                                          N.C.(E)
  Gtr II
  E E E a E +E  E Q       E E E E +E  E Q
|-----------------------|---------------------|
|-----------------------|---------------------|
|-----4-4s5-(5)-4-------|-----4-5-(5)-4-------|
|---2-------------2-----|---2-----------2-----|
|-----------------------|---------------------|
|-----------------------|---------------------|
|
| Gtr I
| PM--|         PM  PM------|             PM---
| E E E   E  E  E E S S   E E Q    Q    E S S
|-----------------------|---------------------|
|-----------------------|---------------------|
|-----------------------|---------------------|
|-----------------------|---------------------|
|-0-0-0---------0---0-0-|-0-0-----------------|
|-----------------------|-----------------0-0-|


                                          N.C.(A)
  E E E a E +E  E Q       E E E E +E  E E E
|-----------------------|---------------------|
|-----------------------|---------------------|
|-----------------------|---------------------|
|-----4-4s5-(5)-4-------|-----4-5-(5)-4-------|
|---2-------------2-----|---2-----------2p0---|
|-----------------------|---------------------|
|
|-----|         PM  PM    PM--|           PM|
| E E E   E  E  E E S S   E E E E  Q    E S S
|-----------------------|---------------------|
|-----------------------|---------------------|
|-----------------------|---------------------|
|-----------------------|---------------------|
|-----------------------|-----------------0-0-|
|-0-0-0---------0---0-0-|-0-0-0---------------|


                                          N.C.(E)
  E E E a E +E  E Q       E E E E +E  E Q
|-----------------------|---------------------|
|-----------------------|---------------------|
|-----4-4s5-(5)-4-------|-----4-5-(5)-4-------|
|---2-------------2-----|---2-----------2-----|
|-----------------------|---------------------|
|-----------------------|---------------------|
|
| PM--|         PM  PM------|             PM---
| E E E   E  E  E E S S   E E Q    Q    E S S
|-----------------------|---------------------|
|-----------------------|---------------------|
|-----------------------|---------------------|
|-----------------------|---------------------|
|-0-0-0---------0---0-0-|-0-0-----------------|
|-----------------------|-----------------0-0-|


                                            Q=210
                                              A5
  E E E a E +E  E Q       E E E E +E  E E E   W          +W
|-----------------------|-------------------|----------|--------||
|-----------------------|-------------------|----------|--------||
|-----------------------|-------------------|----------|--------||
|-----4-4s5-(5)-4-------|-----4-5-(5)-4-----|-2--------|-(2)----||
|---2-------------2-----|---2-----------2p0-|-0--------|-(0)----||
|-----------------------|-------------------|----------|--------||
|
|-----|         PM  PM    PM--|
| E E E   E  E  E E S S   E E E E  H          W          +W
|-----------------------|-------------------|----------|--------||
|-----------------------|-------------------|----------|--------||
|-----------------------|-------------------|----------|--------||
|-----------------------|-------------------|-2--------|-(2)----||
|-----------------------|-------------------|-0--------|-(0)----||
|-0-0-0---------0---0-0-|-0-0-0-------------|----------|--------||


 Pre-Solo
                                 N.C.
  Gtr II
  Q  Q     H            W
|--------------------|-----------------------|
|--------------------|-----------------------|
|--------------------|-----------------------|
|-2------------------|-----------------------|
|-0------------------|-----------------------|
|--------------------|-----------------------|
|
| Gtr I
|    PM----------|         PM--|
| Q  E S S E S S E E   +E  E E E S S E S S E
|--------------------|-----------------------|
|--------------------|-----------------------|
|--------------------|-----------------------|
|-2----------------2-|-(2)-------3p2p0-------|
|-0--0-0-0-0-0-0-0-0-|-(0)-0-0-0-------3p2p0-|
|--------------------|-----------------------|


  E5                             N.C.
  Q  Q     H            W
|--------------------|-----------------------|
|--------------------|-----------------------|
|--------------------|-----------------------|
|--------------------|-----------------------|
|-2------------------|-----------------------|
|-0------------------|-----------------------|
|
|    PM----------|         PM--|
| Q  E S S E S S E E   +E  E E E E E S S E
|--------------------|-----------------------|
|--------------------|-----------------------|
|--------------------|-----------------------|
|--------------------|-----------------------|
|-2----------------2-|-(2)-----------3p2p0---|
|-0--0-0-0-0-0-0-0-0-|-(0)-0-0-0-2h3---------|


  A5                             N.C.
  W                    +W
|--------------------|-----------------------|
|--------------------|-----------------------|
|--------------------|-----------------------|
|-2------------------|-(2)-------------------|
|-0------------------|-(0)-------------------|
|--------------------|-----------------------|
|
|    PM----------|         PM--|
| Q  E S S E S S E E   +E  E E E S S E S S E
|--------------------|-----------------------|
|--------------------|-----------------------|
|--------------------|-----------------------|
|-2----------------2-|-(2)-------3p2p0-------|
|-0--0-0-0-0-0-0-0-0-|-(0)-0-0-0-------3p2p0-|
|--------------------|-----------------------|


  E5                             N.C.
  Q  Q     H            W
|--------------------|-----------------------||
|--------------------|-----------------------||
|--------------------|-----------------------||
|--------------------|-----------------------||
|-2------------------|-----------------------||
|-0------------------|-----------------------||
|
|    PM----------|         PM--|
| Q  E S S E S S E E   +E  E E E E E S S E
|--------------------|-----------------------||
|--------------------|-----------------------||
|--------------------|-----------------------||
|--------------------|-----------------------||
|-2----------------2-|-(2)-----------3p2p0---||
|-0--0-0-0-0-0-0-0-0-|-(0)-0-0-0-2h3---------||


 Guitar Solo
  Gtr III
  W                     W
|--------------------|-----------------------|
|--------------------|-----------------------|
|--------------------|-----------------------|
|--------------------|-----------------------|
|--------------------|-----------------------|
|--------------------|-----------------------|
|
| Gtrs I, II
|    PM----------|         PM--|
| Q  E S S E S S E E   +E  E E E S S E S S E
|--------------------|-----------------------|
|--------------------|-----------------------|
|--------------------|-----------------------|
|-2----------------2-|-(2)-------3p2p0-------|
|-0--0-0-0-0-0-0-0-0-|-(0)-0-0-0-------3p2p0-|
|--------------------|-----------------------|


  W                     W
|--------------------|-----------------------|
|--------------------|-----------------------|
|--------------------|-----------------------|
|--------------------|-----------------------|
|--------------------|-----------------------|
|--------------------|-----------------------|
|
|    PM----------|         PM--|
| Q  E S S E S S E E   +E  E E E E E S S E
|--------------------|-----------------------|
|--------------------|-----------------------|
|--------------------|-----------------------|
|--------------------|-----------------------|
|-2----------------2-|-(2)-----------3p2p0---|
|-0--0-0-0-0-0-0-0-0-|-(0)-0-0-0-2h3---------|


  W                     W
|--------------------|-----------------------|
|--------------------|-----------------------|
|--------------------|-----------------------|
|--------------------|-----------------------|
|--------------------|-----------------------|
|--------------------|-----------------------|
|
|    PM----------|         PM--|
| Q  E S S E S S E E   +E  E E E S S E S S E
|--------------------|-----------------------|
|--------------------|-----------------------|
|--------------------|-----------------------|
|-2----------------2-|-(2)-------3p2p0-------|
|-0--0-0-0-0-0-0-0-0-|-(0)-0-0-0-------3p2p0-|
|--------------------|-----------------------|


  W                     W
|--------------------|-----------------------|
|--------------------|-----------------------|
|--------------------|-----------------------|
|--------------------|-----------------------|
|--------------------|-----------------------|
|--------------------|-----------------------|
|
|    PM----------|         PM--|
| Q  E S S E S S E E   +E  E E E E E S S E
|--------------------|-----------------------|
|--------------------|-----------------------|
|--------------------|-----------------------|
|--------------------|-----------------------|
|-2----------------2-|-(2)-----------3p2p0---|
|-0--0-0-0-0-0-0-0-0-|-(0)-0-0-0-2h3---------|


  W                     W
|--------------------|-----------------------|
|--------------------|-----------------------|
|--------------------|-----------------------|
|--------------------|-----------------------|
|--------------------|-----------------------|
|--------------------|-----------------------|
|
|    PM----------|         PM--|
| Q  E S S E S S E E   +E  E E E S S E S S E
|--------------------|-----------------------|
|--------------------|-----------------------|
|--------------------|-----------------------|
|-2----------------2-|-(2)-------3p2p0-------|
|-0--0-0-0-0-0-0-0-0-|-(0)-0-0-0-------3p2p0-|
|--------------------|-----------------------|


  W                     W
|--------------------|-----------------------|
|--------------------|-----------------------|
|--------------------|-----------------------|
|--------------------|-----------------------|
|--------------------|-----------------------|
|--------------------|-----------------------|
|
|    PM----------|         PM--|
| Q  E S S E S S E E   +E  E E E E E S S E
|--------------------|-----------------------|
|--------------------|-----------------------|
|--------------------|-----------------------|
|--------------------|-----------------------|
|-2----------------2-|-(2)-----------3p2p0---|
|-0--0-0-0-0-0-0-0-0-|-(0)-0-0-0-2h3---------|


  W                     W
|--------------------|-----------------------|
|--------------------|-----------------------|
|--------------------|-----------------------|
|--------------------|-----------------------|
|--------------------|-----------------------|
|--------------------|-----------------------|
|
|    PM----------|         PM--|
| Q  E S S E S S E E   +E  E E E S S E S S E
|--------------------|-----------------------|
|--------------------|-----------------------|
|--------------------|-----------------------|
|-2----------------2-|-(2)-------3p2p0-------|
|-0--0-0-0-0-0-0-0-0-|-(0)-0-0-0-------3p2p0-|
|--------------------|-----------------------|


  W                     W
|--------------------|-----------------------|
|--------------------|-----------------------|
|--------------------|-----------------------|
|--------------------|-----------------------|
|--------------------|-----------------------|
|--------------------|-----------------------|
|
|    PM----------|         PM--|
| Q  E S S E S S E E   +E  E E E E E S S E
|--------------------|-----------------------|
|--------------------|-----------------------|
|--------------------|-----------------------|
|--------------------|-----------------------|
|-2----------------2-|-(2)-----------3p2p0---|
|-0--0-0-0-0-0-0-0-0-|-(0)-0-0-0-2h3---------|


  Gtr V
  W                     W
|--------------------|-------------------------|
|--------------------|-------------------------|
|--------------------|-------------------------|
|--------------------|-------------------------|
|--------------------|-------------------------|
|--------------------|-------------------------|
|
| Gtr III
| W                     W
|--------------------|-------------------------|
|--------------------|-------------------------|
|--------------------|-------------------------|
|--------------------|-------------------------|
|--------------------|-------------------------|
|--------------------|-------------------------|
|
| Gtrs I, II
|    PM----------|         PM----------------|
| Q  E S S E S S E E   +E  E E S S E S S E S S
|--------------------|-------------------------|
|--------------------|-------------------------|
|--------------------|-------------------------|
|-7----------------7-|-(7)---------------------|
|-5--5-5-5-5-5-5-5-5-|-(5)-5-5-5-5-5-5-5-5-0-0-|
|--------------------|-------------------------|


  W                     W
|--------------------|---------------------------|
|--------------------|---------------------------|
|--------------------|---------------------------|
|--------------------|---------------------------|
|--------------------|---------------------------|
|--------------------|---------------------------|
|
| W                     W
|--------------------|---------------------------|
|--------------------|---------------------------|
|--------------------|---------------------------|
|--------------------|---------------------------|
|--------------------|---------------------------|
|--------------------|---------------------------|
|
|    PM----------|         PM----------------|
| Q  E S S E S S E E   +E  E E S S E S S E S S
|--------------------|---------------------------|
|--------------------|---------------------------|
|--------------------|---------------------------|
|-3----------------3-|-(3)-----------------------|
|-1--1-1-1-1-1-1-1-1-|-(1)-1-1-1-1-1-1-1-1-0-0---|
|--------------------|---------------------------|


  W                     W
|--------------------|-------------------------|
|--------------------|-------------------------|
|--------------------|-------------------------|
|--------------------|-------------------------|
|--------------------|-------------------------|
|--------------------|-------------------------|
|
| W                     W
|--------------------|-------------------------|
|--------------------|-------------------------|
|--------------------|-------------------------|
|--------------------|-------------------------|
|--------------------|-------------------------|
|--------------------|-------------------------|
|
|    PM----------|         PM----------------|
| Q  E S S E S S E E   +E  E E S S E S S E S S
|--------------------|-------------------------|
|--------------------|-------------------------|
|--------------------|-------------------------|
|-5----------------5-|-(5)---------------------|
|-3--3-3-3-3-3-3-3-3-|-(3)-3-3-3-3-3-3-3-3-0-0-|
|--------------------|-------------------------|


  W                     W
|--------------------|-------------------|
|--------------------|-------------------|
|--------------------|-------------------|
|--------------------|-------------------|
|--------------------|-------------------|
|--------------------|-------------------|
|
| W                     W
|--------------------|-------------------|
|--------------------|-------------------|
|--------------------|-------------------|
|--------------------|-------------------|
|--------------------|-------------------|
|--------------------|-------------------|
|
|    PM----------|         PM--|
| Q  E S S E S S E E   +E  E E E Q  Q
|--------------------|-------------------|
|--------------------|-------------------|
|--------------------|-------------------|
|-2----------------3-|-(3)-5-3-5-7--5----|
|-0--0-0-0-0-0-0-0-1-|-(1)-3-1-3-5--3----|
|--------------------|-------------------|


  W                     W
|--------------------|-------------------------|
|--------------------|-------------------------|
|--------------------|-------------------------|
|--------------------|-------------------------|
|--------------------|-------------------------|
|--------------------|-------------------------|
|
| W                     W
|--------------------|-------------------------|
|--------------------|-------------------------|
|--------------------|-------------------------|
|--------------------|-------------------------|
|--------------------|-------------------------|
|--------------------|-------------------------|
|
|    PM----------|         PM----------------|
| Q  E S S E S S E E   +E  E E S S E S S E S S
|--------------------|-------------------------|
|--------------------|-------------------------|
|--------------------|-------------------------|
|-7----------------7-|-(7)---------------------|
|-5--5-5-5-5-5-5-5-5-|-(5)-5-5-5-5-5-5-5-5-0-0-|
|--------------------|-------------------------|


  W                     W
|--------------------|---------------------------|
|--------------------|---------------------------|
|--------------------|---------------------------|
|--------------------|---------------------------|
|--------------------|---------------------------|
|--------------------|---------------------------|
|
| W                     W
|--------------------|---------------------------|
|--------------------|---------------------------|
|--------------------|---------------------------|
|--------------------|---------------------------|
|--------------------|---------------------------|
|--------------------|---------------------------|
|
|    PM----------|         PM----------------|
| Q  E S S E S S E E   +E  E E S S E S S E S S
|--------------------|---------------------------|
|--------------------|---------------------------|
|--------------------|---------------------------|
|-3----------------3-|-(3)-----------------------|
|-1--1-1-1-1-1-1-1-1-|-(1)-1-1-1-1-1-1-1-1-0-0---|
|--------------------|---------------------------|


  W                     W
|--------------------|-------------------------|
|--------------------|-------------------------|
|--------------------|-------------------------|
|--------------------|-------------------------|
|--------------------|-------------------------|
|--------------------|-------------------------|
|
| W                     W
|--------------------|-------------------------|
|--------------------|-------------------------|
|--------------------|-------------------------|
|--------------------|-------------------------|
|--------------------|-------------------------|
|--------------------|-------------------------|
|
|    PM----------|         PM----------------|
| Q  E S S E S S E E   +E  E E S S E S S E S S
|--------------------|-------------------------|
|--------------------|-------------------------|
|--------------------|-------------------------|
|-5----------------5-|-(5)---------------------|
|-3--3-3-3-3-3-3-3-3-|-(3)-3-3-3-3-3-3-3-3-0-0-|
|--------------------|-------------------------|


  W                     W
|--------------------|-------------------||
|--------------------|-------------------||
|--------------------|-------------------||
|--------------------|-------------------||
|--------------------|-------------------||
|--------------------|-------------------||
|
| W                     W
|--------------------|-------------------||
|--------------------|-------------------||
|--------------------|-------------------||
|--------------------|-------------------||
|--------------------|-------------------||
|--------------------|-------------------||
|
|    PM----------|         PM--|
| Q  E S S E S S E E   +E  E E E Q  Q
|--------------------|-------------------||
|--------------------|-------------------||
|--------------------|-------------------||
|-2----------------3-|-(3)-5-3-5-7--5----||
|-0--0-0-0-0-0-0-0-1-|-(1)-3-1-3-5--3----||
|--------------------|-------------------||


 Bridge
  Q=208
  G5                                                F#5
  Gtr III
  PM|     PM    PM    PM        PM    PM    PM      PM---
  E E   E E   E E   E E      E  E   E E   E E    E  E
|-------------------------|-----------------------------|
|-------------------------|-----------------------------|
|-------7-----8-----7-----|--5------7-----8------7------|
|-5-5-----5-----5-----5---|-----5-----5-----5-------4---|
|-------------------------|-----------------------------|
|-------------------------|-----------------------------|
|
| Gtr II
| W                         +H.                 +E  E
|-------------------------|-----------------------------|
|-------------------------|-----------------------------|
|-7-----------------------|-(7)-----------------(7)-6---|
|-5-----------------------|-(5)-----------------(5)-4---|
|-------------------------|-----------------------------|
|-------------------------|-----------------------------|
|
| Gtr I
| PM-----------------------------------------------------
| E S S E S S E S S E S S    E  S S E S S E S S  E  S S
|-------------------------|-----------------------------|
|-------------------------|-----------------------------|
|-------------------------|-----------------------------|
|-5-5-5-5-5-5-5-5-5-5-5-5-|--5--5-5-5-5-5-5-5-5--5--4-4-|
|-------------------------|-----------------------------|
|-------------------------|-----------------------------|


                                                      A5
 -----|     PM    PM    PM        PM    PM    PM      PM
   E  E   E E   E E   E E      E  E   E E   E E    E  E
|---------------------------|--------------------------------|
|---------------------------|--------------------------------|
|---------6-----7-----6-----|--4------6-----7------6---------|
|--4--4-----4-----4-----4---|-----4-----4-----4-------7------|
|---------------------------|--------------------------------|
|---------------------------|--------------------------------|
|
| +W                          +H.                 +E  E
|---------------------------|--------------------------------|
|---------------------------|--------------------------------|
|-(6)-----------------------|-(6)-----------------(6)-9------|
|-(4)-----------------------|-(4)-----------------(4)-7------|
|---------------------------|--------------------------------|
|---------------------------|--------------------------------|
|
|-------------------------------------------------------|
|  E  S S E S S E S S E S S    E  S S E S S E S S  E  S S
|---------------------------|--------------------------------|
|---------------------------|--------------------------------|
|---------------------------|--------------------------------|
|--4--4-4-4-4-4-4-4-4-4-4-4-|--4--4-4-4-4-4-4-4-4--4--7-7----|
|---------------------------|--------------------------------|
|---------------------------|--------------------------------|


  A5                                                  E5
  PM|     PM     PM    PM        PM    PM     PM      PM---
  E E   E E    E E   E E      E  E   E E    E E    E  E
|--------------------------|------------------------------|
|--------------------------|------------------------------|
|-------9-----10-----9-----|--7------9-----10------9------|
|-7-7-----7------7-----7---|-----7-----7------7-----------|
|--------------------------|--------------------------7---|
|--------------------------|------------------------------|
|
| W                          +H.                  +E  E
|--------------------------|------------------------------|
|--------------------------|------------------------------|
|-9------------------------|-(9)------------------(9)-----|
|-7------------------------|-(7)------------------(7)-9---|
|--------------------------|--------------------------7---|
|--------------------------|------------------------------|
|
| PM-------------------------------------------------------
| E S S E S S  E S S E S S    E  S S E S S  E S S  E  S S
|--------------------------|------------------------------|
|--------------------------|------------------------------|
|--------------------------|------------------------------|
|-7-7-7-7-7-7--7-7-7-7-7-7-|--7--7-7-7-7-7--7-7-7--7------|
|--------------------------|--------------------------7-7-|
|--------------------------|------------------------------|


                                                D.S.
                                             N.C.
                              7/8
 -----|     PM     PM    PM        PM    PM
   E  E   E E    E E   E E      E  E   E E    E E E
|----------------------------|-----------------------||
|----------------------------|-----------------------||
|----------------------------|-----------------------||
|---------9-----10-----9-----|--7------9-----10-9-7--||
|--7--7-----7------7-----7---|-----7-----7-----------||
|----------------------------|-----------------------||
|
| +W                           +H             Q   E
|----------------------------|-----------------------||
|----------------------------|-----------------------||
|----------------------------|-----------------------||
|-(9)------------------------|-(9)-------------------||
|-(7)------------------------|-(7)-------------------||
|----------------------------|-----------------------||
|
|-------------------------------------------------|
|  E  S S E S S  E S S E S S    E  S S E S S  E E E
|----------------------------|-----------------------||
|----------------------------|-----------------------||
|----------------------------|-----------------------||
|----------------------------|---------------10-9-7--||
|--7--7-7-7-7-7--7-7-7-7-7-7-|--7--7-7-7-7-7---------||
|----------------------------|-----------------------||


   Verse
    Q.=126
    N.C.(F#)                                              G5          E5
   12/8
    Gtr II
    PM------------|                         PM----------|
    E S S E  E  S  S E E S S E E S S  E   E S S E E S S E  E  S  S  E E S S E
||--------------------------------------|-------------------------------------|
||o-------------------------------------|-------------------------------------|
||--------------------------------------|-------------------------------------|
||-------------------9-7-7-7-9-7-7-7----|-------------------------------------|
||o-9-9-9-9-10-10-10-----------------10-|-9-9-9-9-9-9-9-9-10-10-10-10-7-7-7-7-|
||--------------------------------------|-------------------------------------|
|
|   Gtr I
|   PM--------------------------------------------------|
|   E S S E  E  S  S E E S S E E S S  E   E S S E E S S E  E  E     E E E   E
||--------------------------------------|-------------------------------------|
||o-------------------------------------|-------------------------------------|
||--------------------------------------|-------------------------------------|
||--------------------------------------|-----------------12-12----12-9-9---9-|
||o-9-9-9-9--9--9--9-9-9-9-9-9-9-9-9--9-|-9-9-9-9-9-9-9-9-10-10----10-7-7---7-|
||--------------------------------------|-------------------------------------|


  N.C.(E)                                           F5         D5
  PM----------|                       PM----------|
  E S S E E S S E E S S E E S S E   E S S E E S S E  E  S S  E E S S E  3x
|---------------------------------|-------------------------------------||
|---------------------------------|------------------------------------o||
|---------------------------------|-------------------------------------||
|---------------7-5-5-5-7-5-5-5---|-------------------------------------||
|-7-7-7-7-8-8-8-----------------8-|-7-7-7-7-7-7-7-7--8--8-8--8-5-5-5-5-o||
|---------------------------------|-------------------------------------||
|
| PM----------------------------------------------|
| E S S E E S S E E S S E E S S E   E S S E E S S E  E  E    E E E   E  3x
|---------------------------------|-------------------------------------||
|---------------------------------|------------------------------------o||
|---------------------------------|-------------------------------------||
|---------------------------------|-----------------10-10---10-7-7---7--||
|-7-7-7-7-7-7-7-7-7-7-7-7-7-7-7-7-|-7-7-7-7-7-7-7-7--8--8----8-5-5---5-o||
|---------------------------------|-------------------------------------||


   Outro
    F#5
    Gtr III
    PM-----------------|
    E   S  S  E  E   S  S  E  E   S  S  E  E  S  S  E
||----------------------------------------------------|
||o---------------------------------------------------|
||----------------------------------------------------|
||-------------------------9--7---7--7--9--7--7--7----|
||o-9---9--9--9-10--10-10--------------------------10-|
||----------------------------------------------------|
|
|   Gtr II
|   PM-------------------------------------------------
|   E   S  S  E  E   S  S  E  E   S  S  E  E  S  S  E
||----------------------------------------------------|
||o---------------------------------------------------|
||----------------------------------------------------|
||--9--11-11-11-12--11-11-11--9--11-11-11-12-11-11-11-|
||o---------------------------------------------------|
||----------------------------------------------------|
|
|   Gtr I
|   Q.           Q.          +H.
||---------------2-----------(2)----------------------|
||o--------------2-----------(2)----------------------|
||----------------------------------------------------|
||----------------------------------------------------|
||o-4-----------(4)----------(4)----------------------|
||--2-----------(2)----------(2)----------------------|


                            A5          F#5
   E   Q        Q.          H.
|-----------------------------------------------------|
|-----------------------------------------------------|
|-----------------------------------------------------|
|-----------------------------------------------------|
|--9--------------------------------------------------|
|-----------------------------------------------------|
|
|-------------------------------------------------|
|  E   S  S  E  E   S  S  E E   S  S  E  E   S  S  E
|-----------------------------------------------------|
|-----------------------------------------------------|
|-----------------------------------------------------|
|--9--11-11-11-12--11-11-11-9--11-11-11-12--11-11-11--|
|-----------------------------------------------------|
|-----------------------------------------------------|
|
| +H.                       Q.           Q.
|-(2)-------------------------------------------------|
|-(2)-------------------------------------------------|
|-----------------------------------------------------|
|---------------------------2-------------------------|
|-(4)-----------------------0------------4------------|
|-(2)------------------------------------2------------|


  E5
  PM-------------|
  E  S S E  E  S S E  E  S S E  E S S E
|---------------------------------------|
|---------------------------------------|
|---------------------------------------|
|------------------7--5--5-5-7--5-5-5---|
|-7--7-7-7--8--8-8--------------------8-|
|---------------------------------------|
|
| PM-------------------------------------
| E  S S E  E  S S E  E  S S E  E S S E
|---------------------------------------|
|---------------------------------------|
|---------------------------------------|
|-7--9-9-9-10--9-9-9--7--9-9-9-10-9-9-9-|
|---------------------------------------|
|---------------------------------------|
|
| Q.        Q.       +H.
|-----------0--------(0)----------------|
|-----------0--------(0)----------------|
|---------------------------------------|
|---------------------------------------|
|-2--------(2)-------(2)----------------|
|-0--------(0)-------(0)----------------|


                      A5       E5
   E  Q      Q.       H.
|-----------------------------------------||
|----------------------------------------o||
|-----------------------------------------||
|-----------------------------------------||
|--7-------------------------------------o||
|-----------------------------------------||
|
|--------------------------------------|
|  E  S S E  E  S S E E  S S E  E  S S E
|-----------------------------------------||
|----------------------------------------o||
|-----------------------------------------||
|--7--9-9-9-10--9-9-9-7--9-9-9-10--9-9-9--||
|----------------------------------------o||
|-----------------------------------------||
|
| +H.                 Q.        Q.
|-(0)-------------------------------------||
|-(0)------------------------------------o||
|-----------------------------------------||
|---------------------2-------------------||
|-(2)-----------------0---------2--------o||
|-(0)---------------------------0---------||


  Q=120
  N.C.
 4/4
  Gtr II
  W          +H      E E E E   W          +H      E E E  E
|----------|-----------------|----------|------------------|
|----------|-----------------|----------|------------------|
|----------|-----------------|----------|------------------|
|----------|-----------------|----------|------------------|
|-9--------|-(9)----12s9-9s7-|-7--------|-(7)----12s7-7s=9-|
|----------|-----------------|----------|------------------|
|
| Gtr I
| W          +H      E E E E   W          +H      E E E  E
|----------|-----------------|----------|------------------|
|----------|-----------------|----------|------------------|
|----------|-----------------|----------|------------------|
|----------|-----------------|----------|------------------|
|-4--------|-(4)-------------|----------|---------7s9-9s11-|
|-2--------|-(2)-----9s5-5s7-|-7--------|-(7)--------------|


     W           +H      E E E E   W          +H      E E E  E   4x
||------------|------------------|----------|--------------------||
||o-----------|------------------|----------|-------------------o||
||------------|------------------|----------|--------------------||
||------------|------------------|----------|--------------------||
||o--9--------|--(9)----12s9-9s7-|-7--------|-(7)----12s7-7s=9--o||
||------------|------------------|----------|--------------------||
|
|    W           +H      E E E E   W          +H      E E E  E   4x
||------------|------------------|----------|--------------------||
||o-----------|------------------|----------|-------------------o||
||------------|------------------|----------|--------------------||
||------------|------------------|----------|--------------------||
||o-12--------|-(12)-------------|----------|---------7s9-9s11--o||
||------------|----------9s5-5s7-|-7--------|-(7)----------------||




--------------------------------------------------------------------------------


Duration Legend
---------------
W - whole; H - half; Q - quarter; E - 8th; S - 16th; T - 32nd; X - 64th; a - acciaccatura
+ - note tied to previous; . - note dotted; .. - note double dotted
Uncapitalized letters represent notes that are staccato (1/2 duration)
Irregular groupings are notated above the duration line
Duration letters will always appear directly above the note/fret number it represents the
duration for.  Duration letters with no fret number below them represent rests.  Multi-
bar rests are notated in the form Wxn, where n is the number of bars to rest for.  Low
melody durations appear below the staff

Tablature Legend
----------------
 h   - hammer-on
 p   - pull-off
 b   - bend
 pb  - pre-bend
 r   - bend release (if no number after the r, then release immediately)
 /\  - slide into or out of (from/to "nowhere")
 s   - legato slide
 S   - shift slide
 - natural harmonic
[n]  - artificial harmonic
n(n) - tapped harmonic
 ~   - vibrato
 tr  - trill
 T   - tap
 TP  - trem. picking
 PM  - palm muting
\n/  - tremolo bar dip; n = amount to dip
 \n  - tremolo bar down
 n/  - tremolo bar up
/n\  - tremolo bar inverted dip
 =   - hold bend; also acts as connecting device for hammers/pulls
 <> - volume swell (louder/softer)
 x   - on rhythm slash represents muted slash
 o   - on rhythm slash represents single note slash

Misc Legend
-----------
 |  - bar
||  - double bar
||o - repeat start
o|| - repeat end
*|  - double bar (ending)
 :  - bar (freetime)
 $  - Segno
 &  - Coda
Tempo markers -  = BPM(8/16=s8/s16), where s8 = swing 8ths, s16 = swing 16ths

comments
We did not receive enough feedback on this tab! Please rate:
print report bad tab
1 2 3 4 5
I want to post or [tab]
guest
You may want to rate the tab now too:
select rating
Please do not post tabs as comments. Select "correction" instead!