Oops, an error
Loading. Please wait.

Hear Me Tab

ver2
ver2

Whole song

More versions @911Tabs.com
3,634 views 27 this week
1 commentread comment
1 2 3 4 5
excellent!
x 5
Autoscroll
+/-
esc
set tempo
stop
Contributor
WARNING: You are trying to view
                                    content from Ultimate-Guitar.com
                                    in an unauthorized application,
                                    which is prohibited.

                                    Please use an official Ultimate
                                    Guitar Tabs application for iPhone,
                                    iPad or Android to access legitimate
                                    chords, guitar, bass, and drum tabs
                                    from Ultimate-Guitar.com database.

                                    Type "ultimate guitar tabs" in Apple
                                    App Store's or Android Market's
                                    search to find the application.
Okay I'm the one who submitted the other tab with only the intro and bridge but 
now I've figured out the whole song so you can just view this one instead of the other one haha
--This isn't how Wayne plays it live but this is how I play it by ear--

NO CAPO
STANDARD TUNING


   [INTRO]

e|---------------------------|     |-----------------------------|
B|-7-9h/12-12---7-9h---------|     |-----7-9h/12-12---7-9h-------|
G|------------------8-8------|     |----------------------8-11~--|
D|---------------------------|     |-----------------------------|
A|---------------------------|     |-----------------------------|
E|---------------------------|[x3] |-----------------------------|
                 (Repeat until first verse begins)

Try to hear my voice
You can leave, now it's your choice


   [First VERSE]

(For this part you'll have to listen to when he plays it)
e|---------------------------------------------------------------|
B|----17--16--14---12-------12-------9----9---9---9---9---12--9--|
G|-/16--16--16---13----13-13---/11-11---11--11--11--11--11--11---|
D|---------------------------------------------------------------|
A|---------------------------------------------------------------|
E|---------------------------------------------------------------|
     Maybe if I fall asleep, I won't breathe right

e|--------------------------------------------------------11-----|
B|----17--16--14---12-------12-------9----9---9---9---9-------9--|
G|-/16--16--16---13----13-13---/11-11---11--11--11--11--11--11---|
D|---------------------------------------------------------------|
A|---------------------------------------------------------------|
E|---------------------------------------------------------------|
     Maybe if I leave tonight, I won't come back


   [PRE-CHORUS]

(If you listen closely to the song you'll hear Wayne play this)
e|----------14--11-----------------------------------------------|
B|-----12------------(repeat until chorus begins)----------------|
G|--13----13-----------------------------------------------------|
D|---------------------------------------------------------------|
A|---------------------------------------------------------------|
E|---------------------------------------------------------------|
     I said it before, I won't say it again
     Love is a game to you, it's not pretend
     Maybe if I fall asleep, I won't breathe right


   [CHORUS]

e|-7-7-7-7-7-7-7-7--4-4-4-4-4-4-4-4--4-4-4-4-4-4-4-4-4-4-4-4-4-4-4-4|
B|-7-7-7-7-7-7-7-7--5-5-5-5-5-5-5-5--4-4-4-4-4-4-4-4-4-4-4-4-4-4-4-4|
G|-8-8-8-8-8-8-8-8--6-6-6-6-6-6-6-6--4-4-4-4-4-4-4-4-4-4-4-4-4-4-4-4|
D|-9-9-9-9-9-9-9-9--6-6-6-6-6-6-6-6--6-6-6-6-6-6-6-6-6-6-6-6-6-6-6-6|
A|-9-9-9-9-9-9-9-9--4-4-4-4-4-4-4-4--6-6-6-6-6-6-6-6-6-6-6-6-6-6-6-6|
E|-7-7-7-7-7-7-7-7--x-x-x-x-x-x-x-x--4-4-4-4-4-4-4-4-4-4-4-4-4-4-4-4|
     Can nobody hear me?
     I've got a lot that's on my mind

e|-7-7-7-7-7-7-7-7--4-4-4-4-4-4-4-4--4-4-4-4-4-4-4-4--7-7-7-7-7-7-7-7|
B|-7-7-7-7-7-7-7-7--5-5-5-5-5-5-5-5--4-4-4-4-4-4-4-4--9-9-9-9-9-9-9-9|
G|-8-8-8-8-8-8-8-8--6-6-6-6-6-6-6-6--4-4-4-4-4-4-4-4--9-9-9-9-9-9-9-9|
D|-9-9-9-9-9-9-9-9--6-6-6-6-6-6-6-6--6-6-6-6-6-6-6-6--9-9-9-9-9-9-9-9|
A|-9-9-9-9-9-9-9-9--4-4-4-4-4-4-4-4--6-6-6-6-6-6-6-6--7-7-7-7-7-7-7-7|
E|-7-7-7-7-7-7-7-7--x-x-x-x-x-x-x-x--4-4-4-4-4-4-4-4--x-x-x-x-x-x-x-x|
     I cannot breathe
     Can you hear it, too?


[repeat INTRO]


   [SECOND VERSE]

     You kiss and you kiss
     And you love and you love
     You've got a history list and the rest is above
     And if you're warm then you can't relate to me

e|---------------------------------------------------------------|
B|----17--16--14---12-------12-------9----9---9---9---9---12--9--|
G|-/16--16--16---13----13-13---/11-11---11--11--11--11--11--11---|
D|---------------------------------------------------------------|
A|---------------------------------------------------------------|
E|---------------------------------------------------------------|
     From the floor to the floor
     And the sky to the sky
     You've got to love and adore and the rest is a lie

e|---------------------------------------------------------------|
B|----17--16--14---12-------12-------9----9---9---9---9---16--9--|
G|-/16--16--16---13----13-13---/11-11---11--11--11--11--11--11---|
D|---------------------------------------------------------------|
A|---------------------------------------------------------------|
E|---------------------------------------------------------------|
     And if you're warm, then you can't relate to me


[repeat PRE-CHORUS and CHORUS]


   [BRIDGE]
(Spacing is aligned with Dan's singing)

e|---------------------------------------------------------------|
B|---------------------------------------------------------------|
G|-8-----9-------------------------------------------------------|
D|------------11----11--13--9-----8/6~---------------------------|
A|---------------------------------------------------------------|
E|---------------------------------------------------------------|
   Leave your shoes at  the door  ba-by
   I     am   all   you a-  dore  late-ly...

e|---------------------------------------------------------------|
B|------------------------------------------9-11-12~-------------|
G|-8----9------------------------------11-11-----11~-------------|
D|----------11~------11--11-13---9---9---------------------------|
A|---------------------------------------------------------------|
E|---------------------------------------------------------------|
   Come with me,     and we will run a-waaay...


[repeat CHORUS]


End with
e|---4~---|
B|---4~---|
G|---4~---|
D|---6~---|
A|---6~---|
E|---4~---|

(You can repeat the intro again instead of the one chord
Or you can play both the chord and the intro it doesn't matter)

Thanks for viewing!
comments
print report bad tab
1 comment total.
0 reply
suupitstracy wrote on April 15 2013, 03:26 am

e|---------------------------------------------------------------|
B|----17--16--14---12-------12-------9----9---9---9---9---16--9--|
G|-/16--16--16---13----13-13---/11-11---11--11--11--11--11--11---|
D|---------------------------------------------------------------|
A|---------------------------------------------------------------|
E|---------------------------------------------------------------|
I forgot to correct that here-----------------------------^^--
in the second verse, instead of playing the 16th fret on the B string, you can play the 11th fret on the high e string

I want to post or [tab]
guest
You may want to rate the tab now too:
select rating
Please do not post tabs as comments. Select "correction" instead!