Oops, an error
Loading. Please wait.

Radioactive Acoustic Tab

ver3
ver3

Whole song

Interactive

More versions @911Tabs.com
16,240 views 193 this week
no commentswrite comment
1 2 3 4 5
excellent!
x 6
Autoscroll
+/-
esc
set tempo
stop
Contributor
Hey! There's an official Ultimate Guitar app which is ideal
for learning songs when you're away from computer. Get the app
WARNING: You are trying to view
                                    content from Ultimate-Guitar.com
                                    in an unauthorized application,
                                    which is prohibited.

                                    Please use an official Ultimate
                                    Guitar Tabs application for iPhone,
                                    iPad or Android to access legitimate
                                    chords, guitar, bass, and drum tabs
                                    from Ultimate-Guitar.com database.

                                    Type "ultimate guitar tabs" in Apple
                                    App Store's or Android Market's
                                    search to find the application.
-------------------------------------------------------------------------------
 Imagine Dragons - Radioactive
----------------------------------------------
Tabbed by: ChrisRGuitar
E-mail: chrisrguitar@gmail.com

This is a fingerstyle tab version of Imagine Dragon's "Radioactive". If you want to hear 
how the tab sounds you can go to http://youtu.be/WIPMQm85zK0 to see a video performance 
of this version of the song.

I have created nearly 100 other similar fingerstyle arrangements of songs like this, 
that you can email me at the address above to receive them free of charge. :)

Good luck & I hope you enjoy!

Tuning: Standard

1   1   &   2   &   3   &   4   &    1   &   2   &   3   &   4   &
e|---------------------------------|-------------0-------------------|
B|--------------1---------------3--|-------------------------3-------|
G|--2---0---2-----------0---2------|-2---0---2-----------0-----------|
D|--2------------------------------|---------------------------------|
A|--0---------------0--------------|-3---------------3---------------|
E|---------------------------------|---------------------------------|

3   1   &   2   &   3   &   4   &    1   &   2   &   3   &   4   &
e|---------------------------------|---------------------------------|
B|--------------1---------------3--|-----------------1---------------|
G|--2---0---2-----------0---2------|-2---0---2-----------0---2-------|
D|--0------------------------------|-2-------------------------------|
A|---------------------------------|-0---------------0---------------|
E|--3---------------3--------------|---------------------------------|

5   1   &   2   &   3   &   4   &    1   &   2   &   3   &   4   &
e|---------------------------------|-------------0-------------------|
B|--------------1---------------3--|-------------------------3-------|
G|--2---0---2-----------0---2------|-2---0---2-----------0-----------|
D|--2------------------------------|---------------------------------|
A|--0---------------0--------------|-3---------------3---------------|
E|---------------------------------|---------------------------------|

7   1   &   2   &   3   &   4   &    1   &   2   &   3   &   4   &
e|---------------------------------|---------------------------------|
B|--------------1---------------3--|-----------------1---------------|
G|--2---0---2-----------0---2------|-2---0---2-----------0---2-------|
D|--0------------------------------|-2-------------------------------|
A|---------------------------------|-0---------------0---------------|
E|--3---------------3--------------|---------------------------------|

9   1   &   2   &   3   &   4   &     1   &   2   &   3   &   4   &
e|---------------------------------|------------------0-------0-------|
B|---------------------------------|------------------------------3---|
G|--2------------------------------|o---------------------------------|
D|--2------------------------------|o-------------2-------------------|
A|--0------------------------------|--0-------0-----------------------|
E|---------------------------------|----------------------------------|

11  1   &   2   &   3   &   4   &    1   &   2   &   3   &   4   &
e|------------------0-------0------|---------------------------------|
B|------------------------------3--|-------------0---0-------0-------|
G|--------------0------------------|---------------------------------|
D|---------------------------------|---------------------------------|
A|--3-------3----------------------|---------------------------------|
E|---------------------------------|-3-------3-----------------------|

13  1   &   2   &   3   &   4   &    1   &   2   &   3   &   4   &
e|---------------------------------|-----------------0-------0-------|
B|--1---1---0-------1-------0------|-----------------------------3---|
G|---------------------------------|---------------------------------|
D|--0------------------------------|-------------2-------------------|
A|---------------------------------|-0-------0-----------------------|
E|---------------------------------|---------------------------------|

15  1   &   2   &   3   &   4   &    1   &   2   &   3   &   4   &
e|---------------------------------|---------------------------------|
B|---------------------------------|-------------------------0-------|
G|--------------0---0---0---0------|-----------------------------2---|
D|---------------------------------|---------------------0-----------|
A|--3-------3----------------------|---------------------------------|
E|---------------------------------|-3-------3-----------------------|

17  1   &   2   &   3   &   4   &    1   &   2   &   3   &   4   &
e|---------------------------------|-----------------0-------0-------|
B|---------------------------------|-----------------------------3---|
G|---------------------------------|---------------------------------|
D|---------------------------------|-------------2-------------------|
A|---------------------------------|-0-------0-----------------------|
E|---------------------------------|---------------------------------|

19  1   &   2   &   3   &   4   &    1   &   2   &   3   &   4   &
e|------------------0-------0------|---------------------------------|
B|------------------------------3--|-------------0---0-------0-------|
G|--------------0------------------|---------------------------------|
D|---------------------------------|---------------------------------|
A|--3-------3----------------------|---------------------------------|
E|---------------------------------|-3-------3-----------------------|

21  1   &   2   &   3   &   4   &    1   &   2   &   3   &   4   &
e|---------------------------------|-----------------0-------0-------|
B|--1---1---0-------1-------0------|-----------------------------3---|
G|---------------------------------|---------------------------------|
D|--0------------------------------|-------------2-------------------|
A|---------------------------------|-0-------0-----------------------|
E|---------------------------------|---------------------------------|

23  1   &   2   &   3   &   4   &    1   &   2   &   3   &   4   &
e|---------------------------------|---------------------------------|
B|---------------------------------|-------------------------0-------|
G|--------------0---0---0---0------|-----------------------------2---|
D|---------------------------------|---------------------0-----------|
A|--3-------3----------------------|---------------------------------|
E|---------------------------------|-3-------3-----------------------|

25  1   &   2   &   3   &   4   &    1   &   2   &   3   &   4   &
e|---------------------------------|---------5-------5-------5-------|
B|---------------------------------|---------5-------5-------5-------|
G|----------2-------2-------2------|-2-------2-------2-------2-------|
D|---------------------------------|---------2---------------2-------|
A|---------------------------------|-0---------------0---------------|
E|---------------------------------|---------------------------------|

27  1   &   2   &   3   &   4   &    1   &   2   &   3   &   4   &
e|--3-------3-------0--------------|---------3-------3-------3-------|
B|--1---------------1--------------|---------3-------3-------3-------|
G|--0-----------------------0------|-0-------0-------0-------0-------|
D|----------2---------------2------|---------0---------------0-------|
A|--3---------------3--------------|---------------------------------|
E|---------------------------------|-3---------------3---------------|

29  1   &   2   &   3   &   4   &    1   &   2   &   3   &   4   &
e|--2---------------2--------------|-0-------0-------0---------------|
B|--3---------------3--------------|-1---3-------3---1---------------|
G|--2---------------2--------------|-2---------------2-------2-------|
D|--0---------------0--------------|---------2---------------2-------|
A|---------------------------------|-0---------------0---------------|
E|---------------------------------|---------------------------------|

31  1   &   2   &   3   &   4   &    1   &   2   &   3   &   4   &
e|----------0-------0--------------|-0-------0-------0---------------|
B|--------------3---1--------------|-0---3-------3---0---------------|
G|------------------0-------2------|-0---------------0-------2-------|
D|----------2---------------2------|---------0---------------0-------|
A|--3---------------3--------------|---------------------------------|
E|---------------------------------|-3---------------3---------------|

33  1   &   2   &   3   &   4   &    1   &   2   &   3   &   4   &
e|---------------------------------|-----0---------------------------|
B|--------------------------1------|---------3---1---3---------------|
G|----------2---2---2--------------|-----------------2-------2-------|
D|----------0---------------0------|---------2---------------2-------|
A|---------------------------------|-0---------------0---------------|
E|--2---------------2--------------|---------------------------------|

35  1   &   2   &   3   &   4   &    1   &   2   &   3   &   4   &
e|------0--------------------------|-----3---3---3---2-------2-------|
B|----------3---1---3--------------|-----3-----------0---------------|
G|------------------0-------2------|-----0-----------0---------------|
D|----------2---------------2------|---------0---------------0-------|
A|--3---------------3--------------|---------------------------------|
E|---------------------------------|-3---------------3---------------|

37  1   &   2   &   3   &   4   &    1   &   2   &   3   &   4   &
e|------2---2---2---2-------0------|-----0---------------------------|
B|------3-----------3-------3------|---------3---1---3---------------|
G|------2-----------2-------2------|-----------------2-------2-------|
D|----------4---------------4------|---------2---------------2-------|
A|--5---------------5--------------|-0---------------0---------------|
E|---------------------------------|---------------------------------|

39  1   &   2   &   3   &   4   &    1   &   2   &   3   &   4   &
e|------0--------------------------|-----3---3---3---2-------2-------|
B|----------3---1---3--------------|-----0---0---0---0-------0-------|
G|------------------0-------2------|-----0---0---0---0-------0-------|
D|----------2---------------2------|---------------------------------|
A|--3---------------3--------------|---------------------------------|
E|---------------------------------|-3-------------------------------|

41  1   &   2   &   3   &   4   &    1   &   2   &   3   &   4   &
e|------2---2---2---2-------0------|---------------------------------|
B|------3---3---3---3-------3------|-1---------------1-----3-----0---|
G|------2---2---2---2-------2-----o|---------------------------------|
D|--------------------------------o|---------------------------------|
A|---------------------------------|-0-------------------------------|
E|---------------------------------|---------------------------------|

43  1   &   2   &   3   &   4   &    1   &   2   &   3   &   4   &
e|---------------------------------|---------------------------------|
B|---------------------------------|-0---------------0---------------|
G|---------------------------------|-----------------------2-----0---|
D|------------------------------0--|-0-------------------------------|
A|--3------------------------------|---------------------------------|
E|---------------------------------|---------------------------------|

45  1   &   2   &   3   &   4   &    1   &   2   &   3   &   4   &
e|---------------------------------|---------------------------------|
B|---------------------------------|-1---------------1-----3-----0---|
G|--0------------------------------|---------------------------------|
D|--0------------------------------|---------------------------------|
A|---------------------------------|-0-------------------------------|
E|---------------------------------|---------------------------------|

47  1   &   2   &   3   &   4   &    1   &   2   &   3   &   4   &
e|---------------------------------|---------------------------------|
B|---------------------------------|-0---------------0---------------|
G|---------------------------------|-----------------------2-----0---|
D|------------------------------0--|-0-------------------------------|
A|--3------------------------------|---------------------------------|
E|---------------------------------|---------------------------------|

49  1   &   2   &   3   &   4   &
e|---------------------------------|
B|---------------------------------|
G|--0------------------------------|
D|--0------------------------------|
A|---------------------------------|
E|---------------------------------|

50  1   &   2   &   3   &   4   &    1   &   2   &   3   &   4   &
e|---------------------------------|---------5-------5-------5-------|
B|---------------------------------|---------5-------5-------5-------|
G|----------2-------2-------2------|-2-------2-------2-------2-------|
D|---------------------------------|---------2---------------2-------|
A|---------------------------------|-0---------------0---------------|
E|---------------------------------|---------------------------------|

52  1   &   2   &   3   &   4   &    1   &   2   &   3   &   4   &
e|--3-------3-------0--------------|---------3-------3-------3-------|
B|--1---------------1--------------|---------3-------3-------3-------|
G|--0-----------------------0------|-0-------0-------0-------0-------|
D|----------2---------------2------|---------0---------------0-------|
A|--3---------------3--------------|---------------------------------|
E|---------------------------------|-3---------------3---------------|

54  1   &   2   &   3   &   4   &    1   &   2   &   3   &   4   &
e|--2---------------2--------------|-0-------0-------0---------------|
B|--3---------------3--------------|-1---3-------3---1---------------|
G|--2---------------2--------------|-2---------------2-------2-------|
D|--0---------------0--------------|---------2---------------2-------|
A|---------------------------------|-0---------------0---------------|
E|---------------------------------|---------------------------------|

56  1   &   2   &   3   &   4   &    1   &   2   &   3   &   4   &
e|----------0-------0--------------|-0-------0-------0---------------|
B|--------------3---1--------------|-0---3-------3---0---------------|
G|------------------0-------2------|-0---------------0-------2-------|
D|----------2---------------2------|---------0---------------0-------|
A|--3---------------3--------------|---------------------------------|
E|---------------------------------|-3---------------3---------------|

58  1   &   2   &   3   &   4   &    1   &   2   &   3   &   4   &
e|---------------------------------|-----0---------------------------|
B|--------------------------1------|---------3---1---3---------------|
G|----------2---2---2--------------|-----------------2-------2-------|
D|----------0---------------0------|---------2---------------2-------|
A|---------------------------------|-0---------------0---------------|
E|--2---------------2--------------|---------------------------------|

60  1   &   2   &   3   &   4   &    1   &   2   &   3   &   4   &
e|------0--------------------------|-----3---3---3---2-------2-------|
B|----------3---1---3--------------|-----3-----------0---------------|
G|------------------0-------2------|-----0-----------0---------------|
D|----------2---------------2------|---------0---------------0-------|
A|--3---------------3--------------|---------------------------------|
E|---------------------------------|-3---------------3---------------|

62  1   &   2   &   3   &   4   &    1   &   2   &   3   &   4   &
e|------2---2---2---2-------0------|-----0---------------------------|
B|------3-----------3-------3------|---------3---1---3---------------|
G|------2-----------2-------2------|-----------------2-------2-------|
D|----------4---------------4------|---------2---------------2-------|
A|--5---------------5--------------|-0---------------0---------------|
E|---------------------------------|---------------------------------|

64  1   &   2   &   3   &   4   &    1   &   2   &   3   &   4   &
e|------0--------------------------|-----3---3---3---2-------2-------|
B|----------3---1---3--------------|-----0---0---0---0-------0-------|
G|------------------0-------2------|-----0---0---0---0-------0-------|
D|----------2---------------2------|---------------------------------|
A|--3---------------3--------------|---------------------------------|
E|---------------------------------|-3-------------------------------|

66  1   &   2   &   3   &   4   &    1   &   2   &   3   &   4   &
e|------2---2---2---2-------0------|---------------------------------|
B|------3---3---3---3-------3------|---------------------------------|
G|------2---2---2---2-------2------|---------------------------------|
D|---------------------------------|---------------------------------|
A|---------------------------------|---------------------------------|
E|---------------------------------|---------------------------------|
comments
print report bad tab
I want to post or [tab]
guest
You may want to rate the tab now too:
select rating
Please do not post tabs as comments. Select "correction" instead!