Oops, an error
Loading. Please wait.

A Creeping Dose Tab

1,505 views 3 this week
1 commentread comment
1 2 3 4 5
excellent!
x 2
Autoscroll
+/-
esc
set tempo
stop
Contributor
Difficulty
Tuning
intermediate
C# G# C# F# A# D#
Hey! There's an official Ultimate Guitar app which is ideal
for learning songs when you're away from computer. Get the app
WARNING: You are trying to view
                                    content from Ultimate-Guitar.com
                                    in an unauthorized application,
                                    which is prohibited.

                                    Please use an official Ultimate
                                    Guitar Tabs application for iPhone,
                                    iPad or Android to access legitimate
                                    chords, guitar, bass, and drum tabs
                                    from Ultimate-Guitar.com database.

                                    Type "ultimate guitar tabs" in Apple
                                    App Store's or Android Market's
                                    search to find the application.
----------------------------------------------------------------------------
                            A Creeping Dose
                           In Fear and Faith
----------------------------------------------------------------------------

Wow; A word that leave an endless expression for this song. InFAF has blown rock music 
out of the water with this one and I could not be happier. This is where the Academy 
Awards should be going to. Enjoy!

Username: dkm817 (same on X box live)
Youtube Cover: http://www.youtube.com/watch?v=e6v4W5hpp5c
Email: guitardrums@rockfan.com

Guitar 1 Rhythmic (C# G# C# F# A# D#)
Guitar 2 Lead     (C# G# C# F# A# D#)

Tab Guide...
===========================================================================
(end of measures)

===========================================================================
===========================================================================
(end of parts)

===========================================================================
===========================================================================
===========================================================================
(end of song)

(If there is a “continued” it is because the numbers could not
fit on 1 line or connecting times played.)


Intro 1 (3/4)

Guitar 1
D#-------------------------------------------------------------------------|
A#-------------------------------------------------------------------------|
F#-------------------------------------------------------------------------|
C#-5--5--5--5--5--5--5--5--5--5--5--5--4--4--4--4--4--4--4--4--4--4--4--4--|
G#-5--5--5--5--5--5--5--5--5--5--5--5--4--4--4--4--4--4--4--4--4--4--4--4--|
C#-5--5--5--5--5--5--5--5--5--5--5--5--4--4--4--4--4--4--4--4--4--4--4--4--|
Pm    .  .  .  .  .  .                    .  .  .  .

Guitar 2
D#-------------------------------------------------------------------------|
A#----------------------------------------------------------------3--4--3--|
F#-------2--3-----------2--3-----------------2--3-----------2--3-----------|
C#-5--5--------5--5--5--------5--5--5--4--4--------4--4--4-----------------|
G#-------------------------------------------------------------------------|
C#-------------------------------------------------------------------------|
Pm    .        .     .        .     .     .        .     .

===========================================================================

Guitar 1
D#-------------------------------------------------------------------------|
A#-------------------------------------------------------------------------|
F#-------------------------------------5--5--5--5--5--5--5--5--5--5--5--5--|
C#-3--3--3--3--3--3--3--3--3--3--3--3--5--5--5--5--5--5--5--5--5--5--5--5--|
G#-3--3--3--3--3--3--3--3--3--3--3--3--3--3--3--3--3--3--3--3--3--3--3--3--|
C#-3--3--3--3--3--3--3--3--3--3--3--3--------------------------------------|
Pm    .  .  .  .  .                       .  .  .  .

Guitar 2
D#-------------------------------------------------------------------------|
A#-------------------------------------------------------------4--1--3-----|
F#-------2--3-----------2--3-----5-----------2--3-----------2-----------3--|
C#-3--3--------3--3--3--------3-----3--2--2--------2--2--2-----------------|
G#-------------------------------------------------------------------------|
C#-------------------------------------------------------------------------|
Pm    .        .     .        .     .     .        .     .

===========================================================================

Guitar 1
D#-------------------------------------------------------------------------|
A#-------------------------------------------------------------------------|
F#-------------------------------------------------------------------------|
C#-5--5--5--5--5--5--5--5--5--5--5--5--4--4--4--4--4--4--4--4--4--4--4--4--|
G#-5--5--5--5--5--5--5--5--5--5--5--5--4--4--4--4--4--4--4--4--4--4--4--4--|
C#-5--5--5--5--5--5--5--5--5--5--5--5--4--4--4--4--4--4--4--4--4--4--4--4--|
Pm    .  .  .  .  .  .                    .  .  .  .

Guitar 2
D#-------------------------------------------------------------------------|
A#----------------------------------------------------------------3--4--3--|
F#-------2--3-----------2--3-----------------2--3-----------2--3-----------|
C#-5--5--------5--5--5--------5--5--5--4--4--------4--4--4-----------------|
G#-------------------------------------------------------------------------|
C#-------------------------------------------------------------------------|
Pm    .        .     .        .     .     .        .     .

===========================================================================

Guitar 1
D#-------------------------------------------------------------------------|
A#-------------------------------------------------------------------------|
F#-------------------------------------5--5--5--5--5--5--5--5--5--5--5--5--|
C#-3--3--3--3--3--3--3--3--3--3--3--3--5--5--5--5--5--5--5--5--5--5--5--5--|
G#-3--3--3--3--3--3--3--3--3--3--3--3--3--3--3--3--3--3--3--3--3--3--3--3--|
C#-3--3--3--3--3--3--3--3--3--3--3--3--------------------------------------|
Pm    .  .  .  .  .                       .  .  .  .

Guitar 2
D#-------------------------------------------------------------------------|
A#-------------------------------------------------------------4--1--3-----|
F#-------2--3-----------2--3-----5-----------2--3-----------2-----------3--|
C#-3--3--------3--3--3--------3-----3--2--2--------2--2--2-----------------|
G#-------------------------------------------------------------------------|
C#-------------------------------------------------------------------------|
Pm    .        .     .        .     .     .        .     .

===========================================================================

Guitar 1
D#-------------------------------------------------------------------------|
A#-------------3--4--6-----------------------------------------------------|
F#-------------------------------------------------------------------------|
C#-1--1--1--1-----------0~~~~~~~~~~~~~~~~~~~~~~~~~~~~~~~~~~~~~~~~~~~-------|
G#-1--1--1--1-----------0~~~~~~~~~~~~~~~~~~~~~~~~~~~~~~~~~~~~~~~~~~~-------|
C#-1--1--1--1-----------0~~~~~~~~~~~~~~~~~~~~~~~~~~~~~~~~~~~~~~~~~~~-------|

Guitar 2
D#-------------------------------------------------------------------------|
A#-4--1--3-----3--4--6-----------------------------------------------------|
F#----------3-----------7~~~~~~~~~~~~~~~~~~~~~~~~~~~~~~~~~~~~~~~~~~~-------|
C#----------------------7~~~~~~~~~~~~~~~~~~~~~~~~~~~~~~~~~~~~~~~~~~~-------|
G#----------------------5~~~~~~~~~~~~~~~~~~~~~~~~~~~~~~~~~~~~~~~~~~~-------|
C#-------------------------------------------------------------------------|

===========================================================================
===========================================================================


Intro 2 (3/4)

Guitar 1
D#-------------------------------------------------------------------------|
A#-------------------------------------------------------------------------|
F#-------------------------------------------------------------------------|
C#-5--5--5--5--x--5--5--x--5--5--5--5--4--4--4--4--x--4--4--x--4--4--4--4--|
G#-5--5--5--5--x--5--5--x--5--5--5--5--4--4--4--4--x--4--4--x--4--4--4--4--|
C#-5--5--5--5--x--5--5--x--5--5--5--5--4--4--4--4--x--4--4--x--4--4--4--4--|

Guitar 2
D#-------------------------------------------------------------------------|
A#-------------------------------------------------------------2--3--------|
F#-7--3------------7--3----------7--3--6--2-----------6--2-----------2--3--|
C#-------5~~~~~~~--------5~~~~~~-------------4~~~~~~~-------4--------------|
G#-------------------------------------------------------------------------|
C#-------------------------------------------------------------------------|

===========================================================================

Guitar 1
D#-------------------------------------------------------------------------|
A#-------------------------------------------------------------------------|
F#-------------------------------------------------------------------------|
C#-3--3--3--3--x--3--3--x--3--0--1--3--1--1--1--1--1--1--1--0~~~~-0--1--3--|
G#-3--3--3--3--x--3--3--x--3--0--1--3--1--1--1--1--1--1--1--0~~~~-0--1--3--|
C#-3--3--3--3--x--3--3--x--3--0--1--3--1--1--1--1--1--1--1--0~~~~-0--1--3--|
Pm                            .  .  .                 .  .        .  .  .

Guitar 2
D#-------------------------------------------------------------------------|
A#-------------------------------------------------------------------------|
F#-5--3-----------5--3------------------------5-6-5---7-----7~~~~----------|
C#-------3~~~~~~~--------3~~~~-0--1--3-----8-------------8--------0--1--3--|
G#-----------------------------0--1--3--6-----------6-------------0--1--3--|
C#-----------------------------0--1--3----------------------------0--1--3--|
Pm                             .  .  .                            .  .  .

===========================================================================

Guitar 1
D#-------------------------------------------------------------------------|
A#-------------------------------------------------------------------------|
F#-------------------------------------------------------------------------|
C#-5--5--5~~~~-5--5--5--5~~~~-5--5--5--4--4--4~~~~-4--4--4--4--4--4--2--3--|
G#-5--5--5~~~~-5--5--5--5~~~~-5--5--5--4--4--4~~~~-4--4--4--4--4--4--2--3--|
C#-5--5--5~~~~-5--5--5--5~~~~-5--5--5--4--4--4~~~~-4--4--4--4--4--4--2--3--|
Pm             .              .  .  .              .     .  .     .  .  .

Guitar 2
D#-------------------------------------------------------------------------|
A#-------------------------------------------------------------2--3--------|
F#-7--3------------7--3----------7--3--6--2-----------6--2-----------2--3--|
C#-------5~~~~~~~--------5~~~~~~-------------4~~~~~~~-------4--------------|
G#-------------------------------------------------------------------------|
C#-------------------------------------------------------------------------|

===========================================================================

Guitar 1
D#-------------------------------------------------------------------------|
A#-------------------------------------------------------------------------|
F#-------------------------------------------------------------------------|
C#-3--3--3~~~~-3--3--3--3~~~~-0--1--3--1--1--1~~~~-1--1--1--0~~~~-0--1--3--|
G#-3--3--3~~~~-3--3--3--3~~~~-0--1--3--1--1--1~~~~-1--1--1--0~~~~-0--1--3--|
C#-3--3--3~~~~-3--3--3--3~~~~-0--1--3--1--1--1~~~~-1--1--1--0~~~~-0--1--3--|
Pm             .              .  .  .                 .  .        .  .  .

Guitar 2
D#-------------------------------------------------------------------------|
A#-------------------------------------------------------------------------|
F#-5--3-----------5--3------------------------5-6-5---7-----7~~~~----------|
C#-------3~~~~~~~--------3~~~~-0--1--3-----8-------------8--------0--1--3--|
G#-----------------------------0--1--3--6-----------6-------------0--1--3--|
C#-----------------------------0--1--3----------------------------0--1--3--|
Pm                             .  .  .                            .  .  .

===========================================================================
===========================================================================


Break Off 1 (4/4)

Guitar 1
D#-----------------------------------------------------------------|
A#-----------------------------------------------------------------|
F#-11~~~~~-11~~~~~-11~~~~~-11~~~~~---------------------------------|
C#-12~~~~~-12~~~~~-12~~~~~-12~~~~~-0---0-------0---0---0-----------|
G#---------------------------------0---0-------0---0---0-----------|
C#---------------------------------0---0-------0---0---0-----------|

===================================================================
===================================================================


Verse 1 (4/4)

Guitar 1
D#---------------------------------11------11--8---10------10------|
A#-------------------------------------8---------------8-------8---|
F#-----------------------------------------------------------------|
C#-----------------------------------------------------------------|
G#-----------------------------------------------------------------|
C#-5~~~~~~-5~~~~~~-5~~~~~~-5~~~~~~---------------------------------|
Pm                                     .               .       .

Guitar 2
D#-----------------------------------------------------------------|
A#-----------------------------------------------------------------|
F#-----------------------------------------------------------------|
C#-----------------------------------------------------------------|
G#-----------------------------------------------------------------|
C#-5~~~~~~-5~~~~~~-5~~~~~~-5~~~~~~---------------------------------|

===================================================================

Guitar 1 & 2
D#-----------------------------------------------------------------|
A#-----------------------------------------------------------------|
F#-----------------------------------------------------------------|
C#---------------------------------0---0-------0---0---0---4---4---|
G#---------------------------------0---0-------0---0---0---4---4---|
C#-5~~~~~~-5~~~~~~-5~~~~~~-5~~~~~~-0---0-------0---0---0---4---4---|

===================================================================

Guitar 1
D#-----------------------------------------------------------------|
A#-----------------------------------------------------------------|
F#-----------------------------------------------------------------|
C#-----------------------------------------------------------------|
G#-----------------------------------------------------------------|
C#-5~~~~~~-5~~~~~~-5~~~~~~-5~~~~~~---------------------------------|

Guitar 2
D#---------------------------------18------18------17--------------|
A#-------------------------------------15------15------15--19--15--|
F#-----------------------------------------------------------------|
C#-----------------------------------------------------------------|
G#-----------------------------------------------------------------|
C#-5~~~~~~-5~~~~~~-5~~~~~~-5~~~~~~---------------------------------|
Pm                                     .       .       .       .

===================================================================

Guitar 1 & 2
D#-----------------------------------------------------------------|
A#-----------------------------------------------------------------|
F#-----------------------------------------------------------------|
C#---------------------------------0---0-------0---4---4---7---7---|
G#---------------------------------0---0-------0---4---4---7---7---|
C#-5~~~~~~-5~~~~~~-5~~~~~~-5~~~~~~-0---0-------0---4---4---7---7---|
Pm                                                 .   .   .   .

===================================================================

Guitar 1
D#-----------------------------------------10--11--8---11--10--9---|
A#-----------------------------------------------------------------|
F#-----------------------------------------------------------------|
C#-----------------------------------------------------------------|
G#-----------------------------------------------------------------|
C#-5~~~~~~-5~~~~~~-5~~~~~~-5~~~~~~---------------------------------|

Guitar 2
D#-----------------------------------------------------------------|
A#-----------------------------------------------------------------|
F#-----------------------------------------------------------------|
C#-----------------------------------------------------------------|
G#-----------------------------------------------------------------|
C#-5~~~~~~-5~~~~~~-5~~~~~~-5~~~~~~---------------------------------|

===================================================================

Guitar 1 & 2
D#-----------------------------------------------------------------|
A#-----------------------------------------------------------------|
F#-----------------------------------------------------------------|
C#---------------------------------0---0-------0---0---0---4---4---|
G#---------------------------------0---0-------0---0---0---4---4---|
C#-5~~~~~~-5~~~~~~-5~~~~~~-5~~~~~~-0---0-------0---0---0---4---4---|

===================================================================

Guitar 1
D#-----------------------------------------------------------------|
A#-----------------------------------------------------------------|
F#-----------------------------------------------------------------|
C#-----------------------------------------------------------------|
G#-----------------------------------------------------------------|
C#-5~~~~~~-5~~~~~~-5~~~~~~-5~~~~~~---------------------------------|

Guitar 2
D#---------------------------------10~~~~~~~~~~/~~~~~~~22~~~~~~~~~-|
A#-----------------------------------------------------------------|
F#-----------------------------------------------------------------|
C#-----------------------------------------------------------------|
G#-----------------------------------------------------------------|
C#-5~~~~~~-5~~~~~~-5~~~~~~-5~~~~~~---------------------------------|

===================================================================

Guitar 1 & 2
D#---------------------------------5---5---------------------------|
A#---------------------------------5---5-------10--10--10------10--|
F#---------------------------------x---x-------9---9---9-------9---|
C#-----------------------------x-x-4---4---x---7---7---7---x---7---|
G#-----------------------------x-x-4---4---x---7---7---7---x---7---|
C#-5~~~~~~-5~~~~~~-5~~~~~~-5---x-x-4---4---x---7---7---7---x---7---|

===================================================================
===================================================================


Break Off 2 (4/4)

Guitar 1 & 2
D#-----------------------------------------------------------------|
A#-----------------------------------------------------------------|
F#-----------------------------------------------------------------|
C#-0---------------------------------------------------------------|
G#-0---------------------------------------------------------------|
C#-0---------------------------------------------------------------|

===================================================================
===================================================================


Chorus (4/4)

(x2)

Guitar 1 & 2
D#-----------------------------------------------------------------|
A#-----------------------------------------------------------------|
F#-----------------------------------------------------------------|
C#-5---5---5---5---5---5---5---5---4---4---4---4---4---4---4---4---|
G#-5---5---5---5---5---5---5---5---4---4---4---4---4---4---4---4---|
C#-5---5---5---5---5---5---5---5---4---4---4---4---4---4---4---4---|

===================================================================

Guitar 1 & 2
D#-----------------------------------------------------------------|
A#-----------------------------------------------------------------|
F#-5---5---5---5---5---5---5---5-----------------------------------|
C#-5---5---5---5---5---5---5---5---1---1---1---1---1---1---1---1---|
G#-3---3---3---3---3---3---3---3---1---1---1---1---1---1---1---1---|
C#---------------------------------1---1---1---1---1---1---1---1---|

===================================================================

Guitar 1 & 2
D#-----------------------------------------------------------------|
A#-----------------------------------------------------------------|
F#-----------------------------------------------------------------|
C#-1---1---1---1---1---1---1---1---1---1---1---1---1---1---1---1---|
G#-1---1---1---1---1---1---1---1---1---1---1---1---1---1---1---1---|
C#-1---1---1---1---1---1---1---1---1---1---1---1---1---1---1---1---|

===================================================================

Guitar 1 & 2
D#-----------------------------------------------------------------|
A#-----------------------------------------------------------------|
F#-----------------------------------------------------------------|
C#-4---4---4---4---4---4---4---4---4---4---4---4---4---4---4---4---|
G#-4---4---4---4---4---4---4---4---4---4---4---4---4---4---4---4---|
C#-4---4---4---4---4---4---4---4---4---4---4---4---4---4---4---4---|

===================================================================
===================================================================


Bridge 1 (4/4)

Guitar 1 & 2
D#-----------------------------------------------------------------|
A#-----------------------------------------------------------------|
F#-----------------------------------------------------------------|
C#-5~~~~~~~~~~~~~~-5~~~~~~~~~~~~~~-4~~~~~~~~~~~~~~-4~~~~~~~~~~~~~~-|
G#-5~~~~~~~~~~~~~~-5~~~~~~~~~~~~~~-4~~~~~~~~~~~~~~-4~~~~~~~~~~~~~~-|
C#-5~~~~~~~~~~~~~~-5~~~~~~~~~~~~~~-4~~~~~~~~~~~~~~-4~~~~~~~~~~~~~~-|

===================================================================

Guitar 1 & 2
D#-----------------------------------------------------------------|
A#-----------------------------------------------------------------|
F#---------------------------------5~~~~~~~~~~~~~~-5~~~~~~~~~~~~~~-|
C#-3~~~~~~~~~~~~~~-3~~~~~~~~~~~~~~-5~~~~~~~~~~~~~~-5~~~~~~~~~~~~~~-|
G#-3~~~~~~~~~~~~~~-3~~~~~~~~~~~~~~-3~~~~~~~~~~~~~~-3~~~~~~~~~~~~~~-|
C#-3~~~~~~~~~~~~~~-3~~~~~~~~~~~~~~---------------------------------|

===================================================================

Guitar 1 & 2
D#-----------------------------------------------------------------|
A#-----------------------------------------------------------------|
F#---------------------------------------------------------5-------|
C#-1~~~~~~~~~~~~~~~~~~~~~~~~~~~~~~~~~~~~~~~~~~~~~~-1~~~~~~-5-------|
G#-1~~~~~~~~~~~~~~~~~~~~~~~~~~~~~~~~~~~~~~~~~~~~~~-1~~~~~~-3-------|
C#-1~~~~~~~~~~~~~~~~~~~~~~~~~~~~~~~~~~~~~~~~~~~~~~-1~~~~~~---------|
Pm                                                         .

===================================================================

Guitar 1 & 2
D#-----------------------------------------------------------------|
A#-----------------------------------------------------------------|
F#-----------------------------------------------------------------|
C#-0~~~~~~~~~~~~~~~~~~~~~~~~~~~~~~~~~~~~~~~~~~~~~~~~~~~~~~~~~~~~~~-
G#-0~~~~~~~~~~~~~~~~~~~~~~~~~~~~~~~~~~~~~~~~~~~~~~~~~~~~~~~~~~~~~~-
C#-0~~~~~~~~~~~~~~~~~~~~~~~~~~~~~~~~~~~~~~~~~~~~~~~~~~~~~~~~~~~~~~-

===================================================================
===================================================================


Verse 2 (4/4)

Guitar 2 (Piano Part)
D#------------------------------------------------------------------|
A#---------------------------------------------10~~~~~~~~~-8~~~~~~--|
F#-----------------------------------------7~~~~~~~~~~~~~~~~~~~~~~~-|
C#-------------------------------------8~~~~~~~~~~~~~~-8~~~~~~-8~~~-|
G#-10~~~~~~~~~~~~~~~~~~~~~~~~~~~~~-10~~~~~~~~~----------------------|
C#------------------------------------------------------------------|

===================================================================

Guitar 2
D#-----------------------------------------------------------------|
A#-7~~~~~~~~~~~~~~-7~~~~~~~~~~-7~~~~~~~~~~~~~~~~~~-8~~~~-----------|
F#-~~~~~~~~~~~~~~~---------7~~~~~~~~~~~~~~~~~~~~~~-------7~~~~-----|
C#-~~~~~~~~~~~~~~~-----8~~~~~~~~~~~~~~~~~~~~~~~~~~-----------------|
G#-------------------------------------------------------------5~~-|
C#-----------------------------------------------------------------|

===================================================================

Guitar 2
D#-----------------------------------------------------------------|
A#-8~~~~~~~~~~~~~~~~~~~~~~~~~~~~~~~~~~-------------6~~~~~~~~~~~~~~-|
F#-8~~~~~~~~~~~~~~~~~~~~~~~~~~~~~~~~~~-8~~~~~~-8~~~~~~~~-8~~~~~~~~-|
C#-x---------------------------------------------------------------|
G#-6~~~~~~~~~~~~~~~~~~~~~~~~~~~~~~~~~~-----6~~~~~~~~~~~~~~~~~~-6~~-|
C#-----------------------------------------------------------------|

===================================================================

Guitar 2
D#-------------------------11------14--------------10----------10--|
A#-7~~~~~~~~~~---------10------------------10--13------10--11------|
F#-7~~~~~~~~~~-----------------11------11--------------------------|
C#-x-----------10--13----------------------------------------------|
G#-5~~~~~~~~~~-----------------------------------------------------|
C#-----------------------------------------------------------------|

===================================================================

Guitar 1
D#-----------------------------------------------------------------|
A#-----------------------------------------------------------------|
F#-----------------------------------------------------------------|
C#-5~~~~~~~~~~~~~~~~~~~~~~~~~~~~~~~~~~~~~~~~~~~~~~~~~~~~~~~~~~~~~~-
G#-----------------------------------------------------------------|
C#-----------------------------------------------------------------|

Guitar 2
D#------------------------------------------------------------------|
A#---------------------------------------------10~~~~~~~~~-8~~~~~~--|
F#-----------------------------------------7~~~~~~~~~~~~~~~~~~~~~~~-|
C#-------------------------------------8~~~~~~~~~~~~~~-8~~~~~~-8~~~-|
G#-10~~~~~~~~~~~~~~~~~~~~~~~~~~~~~-10~~~~~~~~~----------------------|
C#------------------------------------------------------------------|

===================================================================

Guitar 1
D#-----------------------------------------------------------------|
A#-----------------------------------------------------------------|
F#-----------------------------------------------------------------|
C#-4~~~~~~~~~~~~~~~~~~~~~~~~~~~~~~~~~~~~~~~~~~~~~~~~~~~~~~~~~~~~~~-
G#-----------------------------------------------------------------|
C#-----------------------------------------------------------------|

Guitar 2
D#-----------------------------------------------------------------|
A#-7~~~~~~~~~~~~~~-7~~~~~~~~~~-7~~~~~~~~~~~~~~~~~~-8~~~~-----------|
F#-~~~~~~~~~~~~~~~---------7~~~~~~~~~~~~~~~~~~~~~~-------7~~~~-----|
C#-~~~~~~~~~~~~~~~-----8~~~~~~~~~~~~~~~~~~~~~~~~~~-----------------|
G#-------------------------------------------------------------5~~-|
C#-----------------------------------------------------------------|

===================================================================

Guitar 1
D#-----------------------------------------------------------------|
A#-----------------------------------------------------------------|
F#-----------------------------------------------------------------|
C#-1~~~~~~~~~~~~~~~~~~~~~~~~~~~~~~~~~~~~~~~~~~~~~~~~~~~~~~~~~~~~~~-
G#-----------------------------------------------------------------|
C#-----------------------------------------------------------------|

Guitar 2
D#-----------------------------------------------------------------|
A#-8~~~~~~~~~~~~~~~~~~~~~~~~~~~~~~~~~~-------------6~~~~~~~~~~~~~~-|
F#-8~~~~~~~~~~~~~~~~~~~~~~~~~~~~~~~~~~-8~~~~~~-8~~~~~~~~-8~~~~~~~~-|
C#-x---------------------------------------------------------------|
G#-6~~~~~~~~~~~~~~~~~~~~~~~~~~~~~~~~~~-----6~~~~~~~~~~~~~~~~~~-6~~-|
C#-----------------------------------------------------------------|

===================================================================

Guitar 1
D#-----------------------------------------------------------------|
A#-----------------------------------------------------------------|
F#-----------------------------------------------------------------|
C#-4~~~~~~~~~~~~~~~~~~~~~~~~~~~~~~~~~~~~~~~~~~~~~~~~~~~~~~~~~~~~~~-
G#-----------------------------------------------------------------|
C#-----------------------------------------------------------------|

Guitar 2
D#-------------------------11------14--------------10----------10--|
A#-7~~~~~~~~~~---------10------------------10--13------10--11------|
F#-7~~~~~~~~~~-----------------11------11--------------------------|
C#-x-----------10--13----------------------------------------------|
G#-5~~~~~~~~~~-----------------------------------------------------|
C#-----------------------------------------------------------------|

===================================================================
===================================================================


Pre Chorus (4/4)

Guitar 1
D#-----------------------------------------------------------------|
A#-----------------------------------------------------------------|
F#-7---7---7---7---7---7---7---7---7---7---7---7---7---7---7---7---|
C#-x---x---x---x---x---x---x---x---x---x---x---x---x---x---x---x---|
G#-5---5---5---5---5---5---5---5---5---5---5---5---5---5---5---5---|
C#-----------------------------------------------------------------|

Guitar 2
D#-----------------------------------------------------------------|
A#-11~~~~~~~~~~~~~~~~~~~~~-10~~~~~~~~~~~~~~~~~~~~~-8~~~b~~~r~~~~~~-|
F#-----------------------------------------------------------------|
C#-----------------------------------------------------------------|
G#-----------------------------------------------------------------|
C#-----------------------------------------------------------------|

===================================================================

Guitar 1
D#-----------------------------------------------------------------|
A#-----------------------------------------------------------------|
F#-5---5---5---5---5---5---5---5---5---5---5---5---5---5---5---5---|
C#-x---x---x---x---x---x---x---x---x---x---x---x---x---x---x---x---|
G#-3---3---3---3---3---3---3---3---3---3---3---3---3---3---3---3---|
C#-----------------------------------------------------------------|

Guitar 2
D#-----------------------------------------------------------------
A#-7~~~~~~~~~~~~~~~~~~~~~~~~~~~~~~~~~~~~~~~~~~~~~~~~~~~~~~~~~~~~~~-
F#-----------------------------------------------------------------|
C#-----------------------------------------------------------------|
G#-----------------------------------------------------------------|
C#-----------------------------------------------------------------|

===================================================================

Guitar 1
D#-----------------------------------------------------------------|
A#-----------------------------------------------------------------|
F#-3---3---3---3---3---3---3---3---3---3---3---3---3---3---3---3---|
C#-x---x---x---x---x---x---x---x---x---x---x---x---x---x---x---x---|
G#-1---1---1---1---1---1---1---1---1---1---1---1---1---1---1---1---|
C#-----------------------------------------------------------------|

Guitar 2
D#-----------------------------------------------------------------|
A#-11~~~~~~~~~~~~~~~~~~~~~-10~~~~~~~~~~~~~~~~~~~~~-8~~~b~~~r~~~~~~-|
F#-----------------------------------------------------------------|
C#-----------------------------------------------------------------|
G#-----------------------------------------------------------------|
C#-----------------------------------------------------------------|

===================================================================

Guitar 1
D#-----------------------------------------------------------------|
A#-----------------------------------------------------------------|
F#-2---2---2---2---2---2---2---2---2---2---2---2---2---2---2---2---|
C#-x---x---x---x---x---x---x---x---x---x---x---x---x---x---x---x---|
G#-0---0---0---0---0---0---0---0---0---0---0---0---0---0---0---0---|
C#-----------------------------------------------------------------|

Guitar 2
D#-----------------------------------------------------------------
A#-7~~~~~~~~~~~~~~~~~~~~~~~~~~~~~~~~~~~~~~~~~~~~~~~~~~~~~~~~~~~~~~-
F#-----------------------------------------------------------------|
C#-----------------------------------------------------------------|
G#-----------------------------------------------------------------|
C#-----------------------------------------------------------------|

===================================================================

Guitar 1
D#-----------------------------------------------------------------|
A#-----------------------------------------------------------------|
F#-7---7---7---7---7---7---7---7---7---7---7---7---7---7---7---7---|
C#-x---x---x---x---x---x---x---x---x---x---x---x---x---x---x---x---|
G#-5---5---5---5---5---5---5---5---5---5---5---5---5---5---5---5---|
C#-----------------------------------------------------------------|

Guitar 2
D#-----------------------------------------------------------------|
A#-11~~~~~~~~~~~~~~~~~~~~~-10~~~~~~~~~~~~~~~~~~~~~-8~~~b~~~r~~~~~~-|
F#-----------------------------------------------------------------|
C#-----------------------------------------------------------------|
G#-----------------------------------------------------------------|
C#-----------------------------------------------------------------|

===================================================================

Guitar 1
D#-----------------------------------------------------------------|
A#-----------------------------------------------------------------|
F#-5---5---5---5---5---5---5---5---5---5---5---5---5---5---5---5---|
C#-x---x---x---x---x---x---x---x---x---x---x---x---x---x---x---x---|
G#-3---3---3---3---3---3---3---3---3---3---3---3---3---3---3---3---|
C#-----------------------------------------------------------------|

Guitar 2
D#-----------------------------------------------------------------
A#-7~~~~~~~~~~~~~~~~~~~~~~~~~~~~~~~~~~~~~~~~~~~~~~~~~~~~~~~~~~~~~~-
F#-----------------------------------------------------------------|
C#-----------------------------------------------------------------|
G#-----------------------------------------------------------------|
C#-----------------------------------------------------------------|

===================================================================

Guitar 1
D#-----------------------------------------------------------------|
A#-----------------------------------------------------------------|
F#-3---3---3---3---3---3---3---3---3---3---3---3---3---3---3---3---|
C#-x---x---x---x---x---x---x---x---x---x---x---x---x---x---x---x---|
G#-1---1---1---1---1---1---1---1---1---1---1---1---1---1---1---1---|
C#-----------------------------------------------------------------|

Guitar 2
D#-----------------------------------------------------------------|
A#-11~~~~~~~~~~~~~~~~~~~~~-10~~~~~~~~~~~~~~~~~~~~~-8~~~b~~~r~~~~~~-|
F#-----------------------------------------------------------------|
C#-----------------------------------------------------------------|
G#-----------------------------------------------------------------|
C#-----------------------------------------------------------------|

===================================================================

Guitar 1
D#-----------------------------------------------------------------|
A#-----------------------------------------------------------------|
F#-2---2---2---2---2---2---2---2---7---7---7---7---8---8---8---8---|
C#-x---x---x---x---x---x---x---x---x---x---x---x---x---x---x---x---|
G#-0---0---0---0---0---0---0---0---5---5---5---5---6---6---6---6---|
C#-----------------------------------------------------------------|

Guitar 2
D#-----------------------------------------------------------------
A#-7~~~~~~~~~~~~~~~~~~~~~~~~~~~~~~~~~~~~~~~~~~~~~~~~~~~~~~~~~~~~~~-
F#-----------------------------------------------------------------|
C#-----------------------------------------------------------------|
G#-----------------------------------------------------------------|
C#-----------------------------------------------------------------|

===================================================================
===================================================================


Chorus (4/4)

(x2)

Guitar 1 & 2
D#-----------------------------------------------------------------|
A#-----------------------------------------------------------------|
F#-----------------------------------------------------------------|
C#-5---5---5---5---5---5---5---5---4---4---4---4---4---4---4---4---|
G#-5---5---5---5---5---5---5---5---4---4---4---4---4---4---4---4---|
C#-5---5---5---5---5---5---5---5---4---4---4---4---4---4---4---4---|

===================================================================

Guitar 1 & 2
D#-----------------------------------------------------------------|
A#-----------------------------------------------------------------|
F#-5---5---5---5---5---5---5---5-----------------------------------|
C#-5---5---5---5---5---5---5---5---1---1---1---1---1---1---1---1---|
G#-3---3---3---3---3---3---3---3---1---1---1---1---1---1---1---1---|
C#---------------------------------1---1---1---1---1---1---1---1---|

===================================================================

Guitar 1 & 2
D#-----------------------------------------------------------------|
A#-----------------------------------------------------------------|
F#-----------------------------------------------------------------|
C#-1---1---1---1---1---1---1---1---1---1---1---1---1---1---1---1---|
G#-1---1---1---1---1---1---1---1---1---1---1---1---1---1---1---1---|
C#-1---1---1---1---1---1---1---1---1---1---1---1---1---1---1---1---|

===================================================================

Guitar 1 & 2
D#-----------------------------------------------------------------|
A#-----------------------------------------------------------------|
F#-----------------------------------------------------------------|
C#-4---4---4---4---4---4---4---4---4---4---4---4---4---4---4---4---|
G#-4---4---4---4---4---4---4---4---4---4---4---4---4---4---4---4---|
C#-4---4---4---4---4---4---4---4---4---4---4---4---4---4---4---4---|

===================================================================
===================================================================


Bridge 2 (4/4)

Guitar 1 & 2
D#-----------------------------------------------------------------|
A#-----------------------------------------------------------------|
F#-----------------------------------------------------------------|
C#-5~~~~~~~~~~~~~~-5~~~~~~~~~~~~~~-4~~~~~~~~~~~~~~-4~~~~~~~~~~~~~~-|
G#-5~~~~~~~~~~~~~~-5~~~~~~~~~~~~~~-4~~~~~~~~~~~~~~-4~~~~~~~~~~~~~~-|
C#-5~~~~~~~~~~~~~~-5~~~~~~~~~~~~~~-4~~~~~~~~~~~~~~-4~~~~~~~~~~~~~~-|

===================================================================

Guitar 1 & 2
D#-----------------------------------------------------------------|
A#-----------------------------------------------------------------|
F#---------------------------------5~~~~~~~~~~~~~~-5~~~~~~~~~~~~~~-|
C#-3~~~~~~~~~~~~~~-3~~~~~~~~~~~~~~-5~~~~~~~~~~~~~~-5~~~~~~~~~~~~~~-|
G#-3~~~~~~~~~~~~~~-3~~~~~~~~~~~~~~-3~~~~~~~~~~~~~~-3~~~~~~~~~~~~~~-|
C#-3~~~~~~~~~~~~~~-3~~~~~~~~~~~~~~---------------------------------|

===================================================================

Guitar 1 & 2
D#-----------------------------------------------------------------|
A#-----------------------------------------------------------------|
F#---------------------------------------------------------5-------|
C#-1~~~~~~~~~~~~~~~~~~~~~~~~~~~~~~~~~~~~~~~~~~~~~~-1~~~~~~-5-------|
G#-1~~~~~~~~~~~~~~~~~~~~~~~~~~~~~~~~~~~~~~~~~~~~~~-1~~~~~~-3-------|
C#-1~~~~~~~~~~~~~~~~~~~~~~~~~~~~~~~~~~~~~~~~~~~~~~-1~~~~~~---------|
Pm                                                         .

===================================================================

Guitar 1
D#-----------------------------------------------------------------|
A#-----------------------------------------------------------------|
F#-----------------------------------------------------------------|
C#-0~~~~~~-0---0---0---0---0---0---4---4---4---4---4---4---4---4---|
G#-0~~~~~~-0---0---0---0---0---0---4---4---4---4---4---4---4---4---|
C#-0~~~~~~-0---0---0---0---0---0---4---4---4---4---4---4---4---4---|
Pm         .   .   .   .   .   .       .   .

Guitar 2
D#-----------------------------------------------------------------|
A#-----------------------------------------------------------------|
F#---------------------------------7---7---7---7---7---7---7---7---|
C#-0~~~~~~-0---0---0---0---0---0---7---7---7---7---7---7---7---7---|
G#-0~~~~~~-0---0---0---0---0---0---5---5---5---5---5---5---5---5---|
C#-0~~~~~~-0---0---0---0---0---0-----------------------------------|
Pm         .   .   .   .   .   .       .   .

===================================================================

Guitar 1 & 2
D#-----------------------------------------------------------------|
A#-----------------------------------------------------------------|
F#-----------------------------------------------------------------|
C#-5~~~~~~~~~~~~~~-5~~~~~~~~~~~~~~-4~~~~~~~~~~~~~~-4~~~~~~~~~~~~~~-|
G#-5~~~~~~~~~~~~~~-5~~~~~~~~~~~~~~-4~~~~~~~~~~~~~~-4~~~~~~~~~~~~~~-|
C#-5~~~~~~~~~~~~~~-5~~~~~~~~~~~~~~-4~~~~~~~~~~~~~~-4~~~~~~~~~~~~~~-|

===================================================================

Guitar 1 & 2
D#-----------------------------------------------------------------|
A#-----------------------------------------------------------------|
F#---------------------------------5~~~~~~~~~~~~~~-5~~~~~~~~~~~~~~-|
C#-3~~~~~~~~~~~~~~-3~~~~~~~~~~~~~~-5~~~~~~~~~~~~~~-5~~~~~~~~~~~~~~-|
G#-3~~~~~~~~~~~~~~-3~~~~~~~~~~~~~~-3~~~~~~~~~~~~~~-3~~~~~~~~~~~~~~-|
C#-3~~~~~~~~~~~~~~-3~~~~~~~~~~~~~~---------------------------------|

===================================================================

Guitar 1 & 2
D#-----------------------------------------------------------------|
A#-----------------------------------------------------------------|
F#---------------------------------------------------------5-------|
C#-1~~~~~~~~~~~~~~~~~~~~~~~~~~~~~~~~~~~~~~~~~~~~~~-1~~~~~~-5-------|
G#-1~~~~~~~~~~~~~~~~~~~~~~~~~~~~~~~~~~~~~~~~~~~~~~-1~~~~~~-3-------|
C#-1~~~~~~~~~~~~~~~~~~~~~~~~~~~~~~~~~~~~~~~~~~~~~~-1~~~~~~---------|
Pm                                                         .

===================================================================

Guitar 1 & 2
D#-----------------------------------------------------------------|
A#-----------------------------------------------------------------|
F#-----------------------------------------------------------------|
C#-0---------------------------------------------------------------|
G#-0---------------------------------------------------------------|
C#-0---------------------------------------------------------------|

===================================================================
===================================================================


Outro (4/4)

Guitar 1
D#-----------------------------------------------------------------|
A#-----------------------------------------------------------------|
F#-----------------------------------------------------------------|
C#-5---5---5---5---5-------5-------5---5---5-------5-------5---5---|
G#-5---5---5---5---5-------5-------5---5---5-------5-------5---5---|
C#-5---5---5---5---5-------5-------5---5---5-------5-------5---5---|
Pm .   .   .   .   .       .       .   .   .       .       .   .

Guitar 2
D#-----------------------------------------------------------------|
A#-10--11--11--11--11~~~~~~~~~~~~~-11--11--11~~~~~-11~~\~~-11--11--|
F#-x/--x---x---x---x---------------x---x---x-------x---\---x---x---|
C#-7/--8---8---8---8~~~~~~~~~~~~~~-8---8---8~~~~~~-8~~~\~~-8---8---|
G#-----------------------------------------------------------------|
C#-----------------------------------------------------------------|

===================================================================

Guitar 1
D#-----------------------------------------------------------------|
A#-----------------------------------------------------------------|
F#-----------------------------------------------------------------|
C#-5---5---5-------5-------5---5---5---5---5-------7---7---7---7---|
G#-5---5---5-------5-------5---5---5---5---5-------7---7---7---7---|
C#-5---5---5-------5-------5---5---5---5---5-------7---7---7---7---|
Pm .   .   .       .       .   .   .   .   .

Guitar 2
D#-/~~~~~~-18~~~~~---------18--18--18~~~~~~~~~~~~~-----------------|
A#-/-------x-------11~~~~~-x---x---x-------------------------------|
F#-/~~~~~~-15~~~~~-x-------15--15--15~~~~~~~~~~~~~-----------------|
C#-----------------8~~~~~~-------------------------x---x---x---x---|
G#-------------------------------------------------x---x---x---x---|
C#-------------------------------------------------x---x---x---x---|

===================================================================

Guitar 1
D#-----------------------------------------------------------------|
A#-----------------------------------------------------------------|
F#-----------------------------------------------------------------|
C#-5---5---5---5---5-------5-------5---5---5-------5-------5---5---|
G#-5---5---5---5---5-------5-------5---5---5-------5-------5---5---|
C#-5---5---5---5---5-------5-------5---5---5-------5-------5---5---|
Pm .   .   .   .   .       .       .   .   .       .       .   .

Guitar 2
D#-----------------------------------------------------------------|
A#-10--11--11--11--11~~~~~~~~~~~~~---------11~~~~~-11~~\~~-11--11--|
F#-x/--x---x---x---x-----------------------x-------x---\---x---x---|
C#-7/--8---8---8---8~~~~~~~~~~~~~~-x---x---8~~~~~~-8~~~\~~-8---8---|
G#---------------------------------x---x---------------------------|
C#---------------------------------x---x---------------------------|

===================================================================

Guitar 1
D#-----------------------------------------------------------------|
A#-----------------------------------------------------------------|
F#-----------------------------------------------------------------|
C#-5---5---5-------5-------5---5---5---5---5-----------------------|
G#-5---5---5-------5-------5---5---5---5---5-----------------------|
C#-5---5---5-------5-------5---5---5---5---5-------8---8---8---8---|
Pm .   .   .       .       .   .   .   .   .

Guitar 2
D#-/~~~~~~-18~~~~~---------18--18--18~~~~~~~~~~~~~-----------------|
A#-/-------x-------11~~~~~-x---x---x-------------------------------|
F#-/~~~~~~-15~~~~~-x-------15--15--15~~~~~~~~~~~~~-----------------|
C#-----------------8~~~~~~-------------------------x---x---x---x---|
G#-------------------------------------------------x---x---x---x---|
C#-------------------------------------------------x---x---x---x---|

===================================================================

Guitar 1 & 2
D#-----------------------------------------------------------------|
A#-----------------------------------------------------------------|
F#-----------------------------------------------------------------|
C#-5---5---5---5---5-------5-------5---5---5-------5-------5---5---|
G#-5---5---5---5---5-------5-------5---5---5-------5-------5---5---|
C#-5---5---5---5---5-------5-------5---5---5-------5-------5---5---|
Pm .   .   .   .   .       .       .   .   .       .       .   .

===================================================================

Guitar 1 & 2
D#-----------------------------------------------------------------|
A#-----------------------------------------------------------------|
F#-----------------------------------------------------------------|
C#-5---5---5-------5-------5---5---5---5---5-------7---7---7---7---|
G#-5---5---5-------5-------5---5---5---5---5-------7---7---7---7---|
C#-5---5---5-------5-------5---5---5---5---5-------7---7---7---7---|
Pm .   .   .       .       .   .   .   .   .

===================================================================

Guitar 1 & 2
D#-----------------------------------------------------------------|
A#-----------------------------------------------------------------|
F#-----------------------------------------------------------------|
C#-5---5---5---5---5-------5-------5---5---5-------5-------5---5---|
G#-5---5---5---5---5-------5-------5---5---5-------5-------5---5---|
C#-5---5---5---5---5-------5-------5---5---5-------5-------5---5---|
Pm .   .   .   .   .       .       .   .   .       .       .   .

===================================================================

Guitar 1 & 2
D#-----------------------------------------------------------------|
A#-----------------------------------------------------------------|
F#-----------------------------------------------------------------|
C#-5---5---5-------5-------5---5---5---5---5-----------------------|
G#-5---5---5-------5-------5---5---5---5---5-----------------------|
C#-5---5---5-------5-------5---5---5---5---5-------8---8---8-------|
Pm .   .   .       .       .   .   .   .   .

===================================================================
===================================================================
===================================================================


Tab Legend
h  - hammer-on
p  - pull-off
/  - slide up
\  - slide down
ps/- pickslide up
ps\- pickslide down
~  - let ring
pm.- palm mute
b  - bend
r  - return from bend
t  - finger tapping
*  - harmonic
x  - dead note
^  - Whammy bar
^\ - Whammy bar (hold down)

That is all! I hope this helped, and be sure to check out my cover if you are
having problems with the tab. Thanks, oh and one last thing... ROCK OUT!!!!
comments
We did not receive enough feedback on this tab! Please rate:
print report bad tab
1 2 3 4 5
1 comment total.
0 reply
Schaeferben91 wrote on July 5 2013, 10:06 pm

Great tab, though I think the tuning is off because the breakdown sounds a bit different. I think the song is in C# standard, C# F# B E G# C# because the chord during the break down is:

--0

I want to post or [tab]
guest
You may want to rate the tab now too:
select rating
Please do not post tabs as comments. Select "correction" instead!