Oops, an error
Loading. Please wait.

Live Love Die Tab

ver1
ver1

Whole song

Interactive

More versions @911Tabs.com
8,071 views 1 this week
1 commentread comment
1 2 3 4 5
excellent!
x 2
Autoscroll
+/-
esc
set tempo
stop
Contributor
Tuning
D A D G B E
Hey! There's an official Ultimate Guitar app which is ideal
for learning songs when you're away from computer. Get the app
WARNING: You are trying to view
                                    content from Ultimate-Guitar.com
                                    in an unauthorized application,
                                    which is prohibited.

                                    Please use an official Ultimate
                                    Guitar Tabs application for iPhone,
                                    iPad or Android to access legitimate
                                    chords, guitar, bass, and drum tabs
                                    from Ultimate-Guitar.com database.

                                    Type "ultimate guitar tabs" in Apple
                                    App Store's or Android Market's
                                    search to find the application.
#----------------------------------PLEASE NOTE---------------------------------#
#This file is the author's own work and represents their interpretation of the #
#song. You may only use this file for private study, scholarship, or research. #
#------------------------------------------------------------------------------#

LIVE LOVE DIE
As recorded by In Fear and Faith
(From the 2007 Album VOYAGE)

Transcribed by unregistered
        

Words and Music by In Fear and Faith

Gtr I (D A D G B E) - 'Guitar 1'
Gtr II (D A D G B E) - 'Guitar 2'
Gtr III (D A D G B E) - 'Piano'
Gtr IV (D A D G B E) - 'Clean Guitar 1'
Gtr V (D A D G B E) - 'Clean Guitar 2'

 Intro
  Q=175
 5/8      4/4
  Gtr I
           PM|    PM   PM  PM    PM  PM  PM  PM-
  H    E   E E  E E  E E E E   E E E E E E E E
|--------|-------------------|-----------------|
|--------|-------------------|-----------------|
|--------|-----10---10---9---|-9---7---7---9---|
|--------|-0-0----0----0---0-|---0---0---0---0-|
|--------|-------------------|-----------------|
|--------|-------------------|-----------------|
|
| Gtr II
| H    E   E E  E E  E E E E   E E E E E E E E
|--------|-------------------|-----------------|
|--------|-------------------|-----------------|
|--------|-------------------|-----------------|
|--------|-------------------|-----------------|
|--------|-0-0--0-0--0-0-0-0-|-0-0-0-0-0-0-0-0-|
|--------|-0-0--0-0--0-0-0-0-|-0-0-0-0-0-0-0-0-|


 ---|    PM   PM  PM    PM  PM  PM  PM
  E E  E E  E E E E   E E E E E E E E
|-------------------|-----------------|
|-------------------|-----------------|
|-----10---10---9---|-9---7---7---9---|
|-0-0----0----0---0-|---0---0---0---0-|
|-------------------|-----------------|
|-------------------|-----------------|
|
| E E  E E  E E E E   E E E E E E E E
|-------------------|-----------------|
|-------------------|-----------------|
|-------------------|-----------------|
|-------------------|-----------------|
|-0-0--0-0--0-0-0-0-|-0-0-0-0-0-0-0-0-|
|-0-0--0-0--0-0-0-0-|-0-0-0-0-0-0-0-0-|


  PM|    PM   PM  PM    PM   PM   PM  PM-
  E E  E E  E E E E   E E  E E  E E E E
|-------------------|-------------------|
|-------------------|-------------------|
|-----10---10---9---|-9---12---12---9---|
|-8-8----8----8---8-|---8----8----8---7-|
|-------------------|-------------------|
|-------------------|-------------------|
|
| E E  E E  E E E E   E E  E E  E E E E
|-------------------|-------------------|
|-------------------|-------------------|
|-------------------|-------------------|
|-------------------|-------------------|
|-8-8--8-8--8-8-8-8-|-8-8--8-8--8-8-8-8-|
|-8-8--8-8--8-8-8-8-|-8-8--8-8--8-8-8-8-|


 ---|    PM   PM  PM     PM   PM   PM   PM
  E E  E E  E E E E    E E  E E  E E  E E
|-------------------|---------------------|
|-------------------|---------------------|
|-----10---10---9---|-12---12---14---14---|
|-7-7----7----7---0-|----0----0----0----0-|
|-------------------|---------------------|
|-------------------|---------------------|
|
| E E  E E  E E E E    E E  E E  E E  E E
|-------------------|---------------------|
|-------------------|---------------------|
|-------------------|---------------------|
|-------------------|---------------------|
|-7-7--7-7--7-7-7-7-|--7-7--7-7--7-7--7-7-|
|-7-7--7-7--7-7-7-7-|--7-7--7-7--7-7--7-7-|


  PM|    PM   PM  PM    PM  PM  PM  PM----|    PM   PM  PM    PM  PM  PM  PM
  E E  E E  E E E E   E E E E E E E E   E E  E E  E E E E   E E E E E E E E
|-------------------|-----------------|-------------------|-----------------|
|-------------------|-----------------|-------------------|-----------------|
|-----10---10---9---|-9---7---7---9---|-----10---10---9---|-9---7---7---9---|
|-0-0----0----0---0-|---0---0---0---0-|-0-0----0----0---0-|---0---0---0---0-|
|-------------------|-----------------|-------------------|-----------------|
|-------------------|-----------------|-------------------|-----------------|
|
| E E  E E  E E E E   E E E E E E E E   E E  E E  E E E E   E E E E E E E E
|-------------------|-----------------|-------------------|-----------------|
|-------------------|-----------------|-------------------|-----------------|
|-------------------|-----------------|-------------------|-----------------|
|-------------------|-----------------|-------------------|-----------------|
|-0-0--0-0--0-0-0-0-|-0-0-0-0-0-0-0-0-|-0-0--0-0--0-0-0-0-|-0-0-0-0-0-0-0-0-|
|-0-0--0-0--0-0-0-0-|-0-0-0-0-0-0-0-0-|-0-0--0-0--0-0-0-0-|-0-0-0-0-0-0-0-0-|


  PM|    PM   PM  PM    PM   PM   PM  PM-
  E E  E E  E E E E   E E  E E  E E E E
|-------------------|-------------------|
|-------------------|-------------------|
|-----10---10---9---|-9---12---12---9---|
|-8-8----8----8---8-|---8----8----8---7-|
|-------------------|-------------------|
|-------------------|-------------------|
|
| E E  E E  E E E E   E E  E E  E E E E
|-------------------|-------------------|
|-------------------|-------------------|
|-------------------|-------------------|
|-------------------|-------------------|
|-8-8--8-8--8-8-8-8-|-8-8--8-8--8-8-8-8-|
|-8-8--8-8--8-8-8-8-|-8-8--8-8--8-8-8-8-|


 ---|    PM   PM  PM     PM   PM   PM   PM
  E E  E E  E E E E    E E  E E  E E  E E   Wx2
|-------------------|---------------------|--------||
|-------------------|---------------------|--------||
|-----10---10---9---|-12---12---14---14---|--------||
|-7-7----7----7---0-|----0----0----0----0-|--------||
|-------------------|---------------------|--------||
|-------------------|---------------------|--------||
|
| E E  E E  E E E E    E E  E E  E E  E E   Wx2
|-------------------|---------------------|--------||
|-------------------|---------------------|--------||
|-------------------|---------------------|--------||
|-------------------|---------------------|--------||
|-7-7--7-7--7-7-7-7-|--7-7--7-7--7-7--7-7-|--------||
|-7-7--7-7--7-7-7-7-|--7-7--7-7--7-7--7-7-|--------||


 Verse
  Gtrs I, II
  PM------------------------------------------------------------------------|
  E E. +T  E E. Q  S.   E Q  E E. E. E   E E. +T  E E. Q  S.   E Q  E E. E. E
|---------------------|----------------|---------------------|----------------|
|---------------------|----------------|---------------------|----------------|
|---------------------|----------------|---------------------|----------------|
|-0-0--(0)-0-0--------|---0--0-0--0--0-|-0-0--(0)-0-0--------|---0--0-0--0--0-|
|-0-0--(0)-0-0--------|---0--0-0--0--0-|-0-0--(0)-0-0--------|---0--0-0--0--0-|
|-0-0--(0)-0-0--------|---0--0-0--0--0-|-0-0--(0)-0-0--------|---0--0-0--0--0-|


  PM------------------------------------------------------------------------|
  E E. +T  E E. Q  S.   E Q  E E. E. E   E E. +T  E E. Q  S.   E Q  E E. E. E
|---------------------|----------------|---------------------|----------------|
|---------------------|----------------|---------------------|----------------|
|---------------------|----------------|---------------------|----------------|
|-0-0--(0)-0-0--------|---0--0-0--0--0-|-0-0--(0)-0-0--------|---0--0-0--0--0-|
|-0-0--(0)-0-0--------|---0--0-0--0--0-|-0-0--(0)-0-0--------|---0--0-0--0--0-|
|-0-0--(0)-0-0--------|---0--0-0--0--0-|-0-0--(0)-0-0--------|---0--0-0--0--0-|


   E  E   E  E   E  E   E  E     E  E   E  E   E  E   E  E
|-----------------------------|-----------------------------|
|-----------------------------|-----------------------------|
|-10-10--10-10--10-10--10-10--|-10-10--10-10--10-10--10-10--|
|--8--8---8--8---8--8---8--8--|--8--8---8--8---8--8---8--8--|
|--8--8---8--8---8--8---8--8--|--8--8---8--8---8--8---8--8--|
|--8--8---8--8---8--8---8--8--|--8--8---8--8---8--8---8--8--|
|
| Gtr III
|  E  E   E  E   E  E   E  E     E  E   E  E   E  E   E  E
|-12--------12---------13-----|----13---------10------------|
|----13---------13--------13--|--------13--------13-----13--|
|--------14--------14---------|-14--------14---------14-----|
|--8-(8)--8-(8)--8-(8)--8-(8)-|--8-(8)--8-(8)--8-(8)--8-(8)-|
|-----------------------------|-----------------------------|
|--8-(8)--8-(8)--8-(8)--8-(8)-|--8-(8)--8-(8)--8-(8)--8-(8)-|


   E   E    E    E    E    E   E   E     E  E  E  E  E   E    E    E
|-------------------------------------|-------------------------------|
|-------------------------------------|-------------------------------|
|-12--12---12---12---12---12--12--12--|-12-12-12-12-12--12---12---12--|
|-10--10---10---10---10---10--10--10--|-10-10-10-10-10--10---10---10--|
|-10--10---10---10---10---10--10--10--|-10-10-10-10-10--10---10---10--|
|-------------------------------------|-------------------------------|
|
|  E   E    E    E    E    E   E   E     E  E  E  E  E   E    E    E
|-12------------12------------13------|----13-------10----------------|
|-----13-------------13-----------13--|-------13--------13--------13--|
|----------14-------------14----------|-14-------14----------14-------|
|-------------------------------------|-------------------------------|
|-10-(10)-(10)-(10)-(10)-(10)-10-(10)-|-------------10-(10)-(10)-(10)-|
|-------------------------------------|-------------------------------|


   PM-------------------------------------------------------
   E E.   +T  E   E.     Q     S.   E Q   E E.    E.     E
|---------------------------------|------------------------|
|---------------------------------|------------------------|
|---------------------------------|------------------------|
|--0-0----(0)-0---0---------------|---0---0-0-----0------0-|
|--0-0----(0)-0---0---------------|---0---0-0-----0------0-|
|--0-0----(0)-0---0---------------|---0---0-0-----0------0-|
|
|  E E  E       E    E E   E E      E E E E E   E     E  E
|-12------------------------------|------------------10----|
|---------------------------------|---------6--10-------10-|
|----------------------7----------|-------7----------------|
|--------------------7-----7------|-----7------------------|
|-------5-------8------------8----|-5-8--------------------|
|--0-7----------------------------|------------------------|


 ------------------------------------------------------|
  E E.   +T  E   E.     Q     S.   E Q   E E.    E.     E
|--------------------------------|------------------------|
|--------------------------------|------------------------|
|--------------------------------|------------------------|
|-0-0----(0)-0---0---------------|---0---0-0-----0------0-|
|-0-0----(0)-0---0---------------|---0---0-0-----0------0-|
|-0-0----(0)-0---0---------------|---0---0-0-----0------0-|
|
| E E  E       E    E E   E E      E E E E E   E     E  E
|--------------------------------|------------------10-12-|
|--------------------------------|---------6--10----------|
|---------------------7----------|-------7----------------|
|-------------------7-----7------|-----7------------------|
|------5-------8------------8----|-5-8--------------------|
|-0-7----------------------------|------------------------|


   E  E   E  E   E  E   E  E     E  E   E  E   E  E   E  E
|-----------------------------|-----------------------------|
|-----------------------------|-----------------------------|
|-10-10--10-10--10-10--10-10--|-10-10--10-10--10-10--10-10--|
|--8--8---8--8---8--8---8--8--|--8--8---8--8---8--8---8--8--|
|--8--8---8--8---8--8---8--8--|--8--8---8--8---8--8---8--8--|
|--8--8---8--8---8--8---8--8--|--8--8---8--8---8--8---8--8--|
|
|  E  E   E  E   E  E   E  E     E  E   E  E   E  E   E  E
|-12--------12---------13-----|----13---------10------------|
|----13---------13--------13--|--------13--------13-----13--|
|--------14--------14---------|-14--------14---------14-----|
|--8-(8)--8-(8)--8-(8)--8-(8)-|--8-(8)--8-(8)--8-(8)--8-(8)-|
|-----------------------------|-----------------------------|
|--8-(8)--8-(8)--8-(8)--8-(8)-|--8-(8)--8-(8)--8-(8)--8-(8)-|


   E   E    E    E    E    E   E   E     E  E  E  E  E   E    E    E
|-------------------------------------|-------------------------------|
|-------------------------------------|-------------------------------|
|-12--12---12---12---12---12--12--12--|-12-12-12-12-12--12---12---12--|
|-10--10---10---10---10---10--10--10--|-10-10-10-10-10--10---10---10--|
|-10--10---10---10---10---10--10--10--|-10-10-10-10-10--10---10---10--|
|-------------------------------------|-------------------------------|
|
|  E   E    E    E    E    E   E   E     E  E  E  E  E   E    E    E
|-12------------12------------13------|----13-------10----------------|
|-----13-------------13-----------13--|-------13--------13--------13--|
|----------14-------------14----------|-14-------14----------14-------|
|-------------------------------------|-------------------------------|
|-10-(10)-(10)-(10)-(10)-(10)-10-(10)-|-------------10-(10)-(10)-(10)-|
|-------------------------------------|-------------------------------|


   PM-------------------------------------------------------
   E E.   +T  E   E.     Q     S.   E Q   E E.    E.     E
|---------------------------------|------------------------|
|---------------------------------|------------------------|
|---------------------------------|------------------------|
|--0-0----(0)-0---0---------------|---0---0-0-----0------0-|
|--0-0----(0)-0---0---------------|---0---0-0-----0------0-|
|--0-0----(0)-0---0---------------|---0---0-0-----0------0-|
|
|  E E  E       E    E E   E E      E E E E E   E     E  E
|-12------------------------------|------------------10----|
|---------------------------------|---------6--10-------10-|
|----------------------7----------|-------7----------------|
|--------------------7-----7------|-----7------------------|
|-------5-------8------------8----|-5-8--------------------|
|--0-7----------------------------|------------------------|


 ------------------------------------------------------|
  E E.   +T  E   E.     Q     S.   E Q   E E.    E.     E
|--------------------------------|------------------------|
|--------------------------------|------------------------|
|--------------------------------|------------------------|
|-0-0----(0)-0---0---------------|---0---0-0-----0------0-|
|-0-0----(0)-0---0---------------|---0---0-0-----0------0-|
|-0-0----(0)-0---0---------------|---0---0-0-----0------0-|
|
| E E  E       E    E E   E E      E E E E E   E     E  E
|--------------------------------|------------------10-12-|
|--------------------------------|---------6--10----------|
|---------------------7----------|-------7----------------|
|-------------------7-----7------|-----7------------------|
|------5-------8------------8----|-5-8--------------------|
|-0-7----------------------------|------------------------|


   E  E   E  E   E  E   E  E     E  E   E  E   E  E   E  E
|-----------------------------|-----------------------------|
|-----------------------------|-----------------------------|
|-10-10--10-10--10-10--10-10--|-10-10--10-10--10-10--10-10--|
|--8--8---8--8---8--8---8--8--|--8--8---8--8---8--8---8--8--|
|--8--8---8--8---8--8---8--8--|--8--8---8--8---8--8---8--8--|
|--8--8---8--8---8--8---8--8--|--8--8---8--8---8--8---8--8--|
|
|  E  E   E  E   E  E   E  E     E  E   E  E   E  E   E  E
|-12--------12---------13-----|----13---------10------------|
|----13---------13--------13--|--------13--------13-----13--|
|--------14--------14---------|-14--------14---------14-----|
|--8-(8)--8-(8)--8-(8)--8-(8)-|--8-(8)--8-(8)--8-(8)--8-(8)-|
|-----------------------------|-----------------------------|
|--8-(8)--8-(8)--8-(8)--8-(8)-|--8-(8)--8-(8)--8-(8)--8-(8)-|


   E   E    E    E    E    E   E   E     E  E  E  E  E   E    E    E
|-------------------------------------|-------------------------------||
|-------------------------------------|-------------------------------||
|-12--12---12---12---12---12--12--12--|-12-12-12-12-12--12---12---12--||
|-10--10---10---10---10---10--10--10--|-10-10-10-10-10--10---10---10--||
|-10--10---10---10---10---10--10--10--|-10-10-10-10-10--10---10---10--||
|-------------------------------------|-------------------------------||
|
|  E   E    E    E    E    E   E   E     E  E  E  E  E   E    E    E
|-12------------12------------13------|----13-------10----------------||
|-----13-------------13-----------13--|-------13--------13--------13--||
|----------14-------------14----------|-14-------14----------14-------||
|-------------------------------------|-------------------------------||
|-10-(10)-(10)-(10)-(10)-(10)-10-(10)-|-------------10-(10)-(10)-(10)-||
|-------------------------------------|-------------------------------||


 Bridge
   >
   W           +W           +W           +W
|------------|------------|------------|------------|
|------------|------------|------------|------------|
|------------|------------|------------|------------|
|------------|------------|------------|------------|
|--0---------|-(0)--------|-(0)--------|-(0)--------|
|--0---------|-(0)--------|-(0)--------|-(0)--------|
|
|  H    H       W            W            W
|-12---------|------------|------------|------------|
|-17---------|------------|------------|------------|
|-21---------|------------|------------|------------|
|------------|------------|------------|------------|
|------------|------------|------------|------------|
|------------|------------|------------|------------|


   <
  +W           +W           +W           +W
|------------|------------|------------|--------||
|------------|------------|------------|--------||
|------------|------------|------------|--------||
|------------|------------|------------|--------||
|-(0)--------|-(0)--------|-(0)--------|-(0)----||
|-(0)--------|-(0)--------|-(0)--------|-(0)----||
|
|  W            W            W            W
|------------|------------|------------|--------||
|------------|------------|------------|--------||
|------------|------------|------------|--------||
|------------|------------|------------|--------||
|------------|------------|------------|--------||
|------------|------------|------------|--------||


 Pre-Chorus
   E  E  E  E  E  E  E  E    E  E  E  E  E  E  E  E
|-------------------------|-------------------------|
|-------10----10----11----|-13----11----10----11----|
|-10-10----10----10----10-|----10----10----10----10-|
|-------------------------|-------------------------|
|-------------------------|-------------------------|
|-------------------------|-------------------------|
|
| Gtr II
|  E  E  E  E  E  E  E  E    E  E  E  E  E  E  E  E
|-------------------------|-------------------------|
|-------------------------|-------------------------|
|-------------------------|-------------------------|
|--------8-----------8----|--------8-----------8----|
|--8--8--8--8--8--8--8--8-|--8--8--8--8--8--8--8--8-|
|--8--8--8--8--8--8--8--8-|--8--8--8--8--8--8--8--8-|


                     PM|
   E  E  E  E  E  E  E  E    E  E  E  E  E  E  E  E
|-------------------------|-------------15----------|
|-------10----10----------|-------13-------13----13-|
|--9--9-----9-----9--9--9-|-12-12----12-------12----|
|-------------------------|-------------------------|
|-------------------------|-------------------------|
|-------------------------|-------------------------|
|
|  E  E  E  E  E  E  E  E    E  E  E  E  E  E  E  E
|-------------------------|-------------------------|
|-------------------------|-------------------------|
|-------------------------|-------------------------|
|-------10----------10----|-------10----------10----|
|-10-10-10-10-10-10-10-10-|-10-10-10-10-10-10-10-10-|
|-10-10-10-10-10-10-10-10-|-10-10-10-10-10-10-10-10-|


   E  E  E  E  E  E  E  E    E  E  E  E  E  E  E  E
|-------------------------|-------------------------|
|-------10----10----11----|-13----11----10----11----|
|-10-10----10----10----10-|----10----10----10----10-|
|-------------------------|-------------------------|
|-------------------------|-------------------------|
|-------------------------|-------------------------|
|
|  E  E  E  E  E  E  E  E    E  E  E  E  E  E  E  E
|-------------------------|-------------------------|
|-------------------------|-------------------------|
|-------------------------|-------------------------|
|--------0-----------0----|--------0-----------0----|
|--0--0--0--0--0--0--0--0-|--0--0--0--0--0--0--0--0-|
|--0--0--0--0--0--0--0--0-|--0--0--0--0--0--0--0--0-|


                PM|
  E E  E E  E E E E   E E E E  E E E E
|-------------------|---------10-------|
|-----10---10-------|-----8------8---8-|
|-9-9----9----9-9-9-|-7-7---7------7---|
|-------------------|------------------|
|-------------------|------------------|
|-------------------|------------------|
|
| E E  E E  E E E E   E E E E  E E E E
|-------------------|------------------|
|-------------------|------------------|
|-------------------|------------------|
|------0--------0---|-----0--------0---|
|-0-0--0-0--0-0-0-0-|-0-0-0-0--0-0-0-0-|
|-0-0--0-0--0-0-0-0-|-0-0-0-0--0-0-0-0-|


   E  E  E  E  E  E  E  E    E  E  E  E  E  E  E  E
|-------------------------|-------------------------|
|-------10----10----11----|-13----11----10----11----|
|-10-10----10----10----10-|----10----10----10----10-|
|-------------------------|-------------------------|
|-------------------------|-------------------------|
|-------------------------|-------------------------|
|
|  E  E  E  E  E  E  E  E    E  E  E  E  E  E  E  E
|-------------------------|-------------------------|
|-------------------------|-------------------------|
|-------------------------|-------------------------|
|--------8-----------8----|--------8-----------8----|
|--8--8--8--8--8--8--8--8-|--8--8--8--8--8--8--8--8-|
|--8--8--8--8--8--8--8--8-|--8--8--8--8--8--8--8--8-|


                     PM|
   E  E  E  E  E  E  E  E    E  E  E  E  E  E  E  E
|-------------------------|-------------15----------|
|-------10----10----------|-------13-------13----13-|
|--9--9-----9-----9--9--9-|-12-12----12-------12----|
|-------------------------|-------------------------|
|-------------------------|-------------------------|
|-------------------------|-------------------------|
|
|  E  E  E  E  E  E  E  E    E  E  E  E  E  E  E  E
|-------------------------|-------------------------|
|-------------------------|-------------------------|
|-------------------------|-------------------------|
|-------10----------10----|-------10----------10----|
|-10-10-10-10-10-10-10-10-|-10-10-10-10-10-10-10-10-|
|-10-10-10-10-10-10-10-10-|-10-10-10-10-10-10-10-10-|


   E  E  E  E  E  E  E  E    E  E  E  E  E  E  E  E
|-------------------------|-------------------------|
|-------10----10----11----|-13----11----10----11----|
|-10-10----10----10----10-|----10----10----10----10-|
|-------------------------|-------------------------|
|-------------------------|-------------------------|
|-------------------------|-------------------------|
|
|  E  E  E  E  E  E  E  E    E  E  E  E  E  E  E  E
|-------------------------|-------------------------|
|-------------------------|-------------------------|
|-------------------------|-------------------------|
|--------0-----------0----|--------0-----------0----|
|--0--0--0--0--0--0--0--0-|--0--0--0--0--0--0--0--0-|
|--0--0--0--0--0--0--0--0-|--0--0--0--0--0--0--0--0-|


                PM|
  E E  E E  E E E E   E E E E  E E E E
|-------------------|---------10-------||
|-----10---10-------|-----8------8---8-||
|-9-9----9----9-9-9-|-7-7---7------7---||
|-------------------|------------------||
|-------------------|------------------||
|-------------------|------------------||
|
| E E  E E  E E E E   E E E E  E E E E
|-------------------|------------------||
|-------------------|------------------||
|-------------------|------------------||
|------0--------0---|-----0--------0---||
|-0-0--0-0--0-0-0-0-|-0-0-0-0--0-0-0-0-||
|-0-0--0-0--0-0-0-0-|-0-0-0-0--0-0-0-0-||


 Chorus
   E  E  E  E  E  E  E  E    E  E  E  E  E  E  E  E
|-------------------------|-------------------------|
|-------------------------|-------------------------|
|-10-10-10-10-10-10-10-10-|-10-10-10-10-10-10-10-10-|
|--8--8--8--8--8--8--8--8-|--8--8--8--8--8--8--8--8-|
|--8--8--8--8--8--8--8--8-|--8--8--8--8--8--8--8--8-|
|-------------------------|-------------------------|
|
|  E  E  E  E  E  E  E  E    E  E  E  E  E  E  E  E
|-------------------------|-------------------------|
|-------------------------|-------------------------|
|-------------------------|-------------------------|
|-------------------------|-------------------------|
|--8--8--8--8--8--8--8--8-|--8--8--8--8--8--8--8--8-|
|--8--8--8--8--8--8--8--8-|--8--8--8--8--8--8--8--8-|


   E  E  E  E  E  E  E  E    E  E  E  E  E  E  E  E
|-------------------------|-------------------------|
|-------------------------|-------------------------|
|-12-12-12-12-12-12-12-12-|-12-12-12-12-12-12-12-12-|
|-10-10-10-10-10-10-10-10-|-10-10-10-10-10-10-10-10-|
|-10-10-10-10-10-10-10-10-|-10-10-10-10-10-10-10-10-|
|-------------------------|-------------------------|
|
|  E  E  E  E  E  E  E  E    E  E  E  E  E  E  E  E
|-------------------------|-------------------------|
|-------------------------|-------------------------|
|-------------------------|-------------------------|
|-------------------------|-------------------------|
|-10-10-10-10-10-10-10-10-|-10-10-10-10-10-10-10-10-|
|-10-10-10-10-10-10-10-10-|-10-10-10-10-10-10-10-10-|


   E  E  E  E  E  E  E  E    E  E  E  E  E  E  E  E
|-------------------------|-------------------------|
|-------------------------|-------------------------|
|-14-14-14-14-14-14-14-14-|-14-14-14-14-14-14-14-14-|
|-12-12-12-12-12-12-12-12-|-12-12-12-12-12-12-12-12-|
|-12-12-12-12-12-12-12-12-|-12-12-12-12-12-12-12-12-|
|-------------------------|-------------------------|
|
|  E  E  E  E  E  E  E  E    E  E  E  E  E  E  E  E
|-------------------------|-------------------------|
|-------------------------|-------------------------|
|-------------------------|-------------------------|
|-------------------------|-------------------------|
|--0--0--0--0--0--0--0--0-|--0--0--0--0--0--0--0--0-|
|--0--0--0--0--0--0--0--0-|--0--0--0--0--0--0--0--0-|


   E  E  E  E  E  E  E  E    E  E  E  E  E  E  E  E
|-------------------------|-------------------------|
|-------------------------|-------------------------|
|-14s15-15-15-15-15-15-15-|-14-14-14-14-14-14-14-14-|
|-------------------------|-------------------------|
|-12s13-13-13-13-13-13-13-|-12-12-12-12-12-12-12-12-|
|-------------------------|-------------------------|
|
|  E  E  E  E  E  E  E  E    E  E  E  E  E  E  E  E
|-------------------------|-------------------------|
|-------------------------|-------------------------|
|-------------------------|-------------------------|
|-------------------------|-------------------------|
|--0--0--0--0--0--0--0--0-|--3--3--3--3--3--3--3--3-|
|--0--0--0--0--0--0--0--0-|--3--3--3--3--3--3--3--3-|


   E  E  E  E  E  E  E  E    E  E  E  E  E  E  E  E
|-------------------------|-------------------------|
|-------------------------|-------------------------|
|-10-10-10-10-10-10-10-10-|-10-10-10-10-10-10-10-10-|
|--8--8--8--8--8--8--8--8-|--8--8--8--8--8--8--8--8-|
|--8--8--8--8--8--8--8--8-|--8--8--8--8--8--8--8--8-|
|-------------------------|-------------------------|
|
|  E  E  E  E  E  E  E  E    E  E  E  E  E  E  E  E
|-------------------------|-------------------------|
|-------------------------|-------------------------|
|-------------------------|-------------------------|
|-------------------------|-------------------------|
|--8--8--8--8--8--8--8--8-|--8--8--8--8--8--8--8--8-|
|--8--8--8--8--8--8--8--8-|--8--8--8--8--8--8--8--8-|


   E  E  E  E  E  E  E  E    E  E  E  E  E  E  E  E
|-------------------------|-------------------------|
|-------------------------|-------------------------|
|-12-12-12-12-12-12-12-12-|-12-12-12-12-12-12-12-12-|
|-10-10-10-10-10-10-10-10-|-10-10-10-10-10-10-10-10-|
|-10-10-10-10-10-10-10-10-|-10-10-10-10-10-10-10-10-|
|-------------------------|-------------------------|
|
|  E  E  E  E  E  E  E  E    E  E  E  E  E  E  E  E
|-------------------------|-------------------------|
|-------------------------|-------------------------|
|-------------------------|-------------------------|
|-------------------------|-------------------------|
|-10-10-10-10-10-10-10-10-|-10-10-10-10-10-10-10-10-|
|-10-10-10-10-10-10-10-10-|-10-10-10-10-10-10-10-10-|


   E  E  E  E  E  E  E  E    E  E  E  E  E  E  E  E
|-------------------------|-------------------------|
|-------------------------|-------------------------|
|-14-14-14-14-14-14-14-14-|-14-14-14-14-14-14-14-14-|
|-12-12-12-12-12-12-12-12-|-12-12-12-12-12-12-12-12-|
|-12-12-12-12-12-12-12-12-|-12-12-12-12-12-12-12-12-|
|-------------------------|-------------------------|
|
|  E  E  E  E  E  E  E  E    E  E  E  E  E  E  E  E
|-------------------------|-------------------------|
|-------------------------|-------------------------|
|-------------------------|-------------------------|
|-------------------------|-------------------------|
|--0--0--0--0--0--0--0--0-|--0--0--0--0--0--0--0--0-|
|--0--0--0--0--0--0--0--0-|--0--0--0--0--0--0--0--0-|


   E  E  E  E  E  E  E  E    E  E  E  E  E  E  E  E
|-------------------------|-------------------------||
|-------------------------|-------------------------||
|-19-19-19-19-19-19-19-19-|-19-19-19-19-19-19-19-19-||
|-------------------------|-------------------------||
|-17-17-17-17-17-17-17-17-|-17-17-17-17-17-17-17-17-||
|-------------------------|-------------------------||
|
|  E  E  E  E  E  E  E  E    E  E  E  E  E  E  E  E
|-------------------------|-------------------------||
|-------------------------|-------------------------||
|-------------------------|-------------------------||
|-------------------------|-------------------------||
|--0--0--0--0--0--0--0--0-|--0--0--0--0--0--0--0--0-||
|--0--0--0--0--0--0--0--0-|--0--0--0--0--0--0--0--0-||


 Verse
  S S E. +T  S S E. Q  S.   E Q  E E. E. E
|-------------------------|----------------|
|-------------------------|----------------|
|-------------------------|----------------|
|-0-0-0--(0)-0-0-0--------|---0--0-0--0--0-|
|-0-0-0--(0)-0-0-0--------|---0--0-0--0--0-|
|-0-0-0--(0)-0-0-0--------|---0--0-0--0--0-|


  S S E. +T  S S E. Q  S.   E Q  E E. E. E
|-------------------------|------------------|
|-------------------------|------------------|
|-------------------------|------------------|
|-0-0-0--(0)-0-0-0--------|---0--0-0--0--0---|
|-0-0-0--(0)-0-0-0--------|---0--0-0--0--0---|
|-0-0-0--(0)-0-0-0--------|---0--0-0--0--0---|


  Gtrs I, II
  PM-------------------------------------
  E E. +T  E E. Q  S.   E Q  E E. E. E
|---------------------|-----------------|
|---------------------|-----------------|
|---------------------|-----------------|
|-0-0--(0)-0-0--------|---0--0-0--0--0--|
|-0-0--(0)-0-0--------|---0--0-0--0--0--|
|-0-0--(0)-0-0--------|---0--0-0--0--0--|


 ------------------------------------|
  E E. +T  E E. Q  S.   E Q  E E. E. E
|---------------------|-----------------|
|---------------------|-----------------|
|---------------------|-----------------|
|-0-0--(0)-0-0--------|---0--0-0--0--0--|
|-0-0--(0)-0-0--------|---0--0-0--0--0--|
|-0-0--(0)-0-0--------|---0--0-0--0--0--|


   E  E   E  E   E  E   E  E     E  E   E  E   E  E   E  E
|-----------------------------|-----------------------------|
|-----------------------------|-----------------------------|
|-10-10--10-10--10-10--10-10--|-10-10--10-10--10-10--10-10--|
|--8--8---8--8---8--8---8--8--|--8--8---8--8---8--8---8--8--|
|--8--8---8--8---8--8---8--8--|--8--8---8--8---8--8---8--8--|
|--8--8---8--8---8--8---8--8--|--8--8---8--8---8--8---8--8--|
|
| Gtr III
|  E  E   E  E   E  E   E  E     E  E   E  E   E  E   E  E
|-12--------12---------13-----|----13---------10------------|
|----13---------13--------13--|--------13--------13-----13--|
|--------14--------14---------|-14--------14---------14-----|
|--8-(8)--8-(8)--8-(8)--8-(8)-|--8-(8)--8-(8)--8-(8)--8-(8)-|
|-----------------------------|-----------------------------|
|--8-(8)--8-(8)--8-(8)--8-(8)-|--8-(8)--8-(8)--8-(8)--8-(8)-|


   E   E    E    E    E    E   E   E     E  E  E  E  E   E    E    E
|-------------------------------------|-------------------------------|
|-------------------------------------|-------------------------------|
|-12--12---12---12---12---12--12--12--|-12-12-12-12-12--12---12---12--|
|-10--10---10---10---10---10--10--10--|-10-10-10-10-10--10---10---10--|
|-10--10---10---10---10---10--10--10--|-10-10-10-10-10--10---10---10--|
|-------------------------------------|-------------------------------|
|
|  E   E    E    E    E    E   E   E     E  E  E  E  E   E    E    E
|-12------------12------------13------|----13-------10----------------|
|-----13-------------13-----------13--|-------13--------13--------13--|
|----------14-------------14----------|-14-------14----------14-------|
|-------------------------------------|-------------------------------|
|-10-(10)-(10)-(10)-(10)-(10)-10-(10)-|-------------10-(10)-(10)-(10)-|
|-------------------------------------|-------------------------------|


   PM-------------------------------------------------------
   E E.   +T  E   E.     Q     S.   E Q   E E.    E.     E
|---------------------------------|------------------------|
|---------------------------------|------------------------|
|---------------------------------|------------------------|
|--0-0----(0)-0---0---------------|---0---0-0-----0------0-|
|--0-0----(0)-0---0---------------|---0---0-0-----0------0-|
|--0-0----(0)-0---0---------------|---0---0-0-----0------0-|
|
|  E E  E       E    E E   E E      E E E E E   E     E  E
|-12------------------------------|------------------10----|
|---------------------------------|---------6--10-------10-|
|----------------------7----------|-------7----------------|
|--------------------7-----7------|-----7------------------|
|-------5-------8------------8----|-5-8--------------------|
|--0-7----------------------------|------------------------|


 ------------------------------------------------------|
  E E.   +T  E   E.     Q     S.   E Q   E E.    E.     E
|--------------------------------|------------------------|
|--------------------------------|------------------------|
|--------------------------------|------------------------|
|-0-0----(0)-0---0---------------|---0---0-0-----0------0-|
|-0-0----(0)-0---0---------------|---0---0-0-----0------0-|
|-0-0----(0)-0---0---------------|---0---0-0-----0------0-|
|
| E E  E       E    E E   E E      E E E E E   E     E  E
|--------------------------------|------------------10-12-|
|--------------------------------|---------6--10----------|
|---------------------7----------|-------7----------------|
|-------------------7-----7------|-----7------------------|
|------5-------8------------8----|-5-8--------------------|
|-0-7----------------------------|------------------------|


   E  E   E  E   E  E   E  E     E  E   E  E   E  E   E  E
|-----------------------------|-----------------------------|
|-----------------------------|-----------------------------|
|-10-10--10-10--10-10--10-10--|-10-10--10-10--10-10--10-10--|
|--8--8---8--8---8--8---8--8--|--8--8---8--8---8--8---8--8--|
|--8--8---8--8---8--8---8--8--|--8--8---8--8---8--8---8--8--|
|--8--8---8--8---8--8---8--8--|--8--8---8--8---8--8---8--8--|
|
|  E  E   E  E   E  E   E  E     E  E   E  E   E  E   E  E
|-12--------12---------13-----|----13---------10------------|
|----13---------13--------13--|--------13--------13-----13--|
|--------14--------14---------|-14--------14---------14-----|
|--8-(8)--8-(8)--8-(8)--8-(8)-|--8-(8)--8-(8)--8-(8)--8-(8)-|
|-----------------------------|-----------------------------|
|--8-(8)--8-(8)--8-(8)--8-(8)-|--8-(8)--8-(8)--8-(8)--8-(8)-|


   E   E    E    E    E    E   E   E     E  E  E  E  E   E    E    E
|-------------------------------------|-------------------------------|
|-------------------------------------|-------------------------------|
|-12--12---12---12---12---12--12--12--|-12-12-12-12-12--12---12---12--|
|-10--10---10---10---10---10--10--10--|-10-10-10-10-10--10---10---10--|
|-10--10---10---10---10---10--10--10--|-10-10-10-10-10--10---10---10--|
|-------------------------------------|-------------------------------|
|
|  E   E    E    E    E    E   E   E     E  E  E  E  E   E    E    E
|-12------------12------------13------|----13-------10----------------|
|-----13-------------13-----------13--|-------13--------13--------13--|
|----------14-------------14----------|-14-------14----------14-------|
|-------------------------------------|-------------------------------|
|-10-(10)-(10)-(10)-(10)-(10)-10-(10)-|-------------10-(10)-(10)-(10)-|
|-------------------------------------|-------------------------------|


   PM-------------------------------------------------------
   E E.   +T  E   E.     Q     S.   E Q   E E.    E.     E
|---------------------------------|------------------------|
|---------------------------------|------------------------|
|---------------------------------|------------------------|
|--0-0----(0)-0---0---------------|---0---0-0-----0------0-|
|--0-0----(0)-0---0---------------|---0---0-0-----0------0-|
|--0-0----(0)-0---0---------------|---0---0-0-----0------0-|
|
|  E E  E       E    E E   E E      E E E E E   E     E  E
|-12------------------------------|------------------10----|
|---------------------------------|---------6--10-------10-|
|----------------------7----------|-------7----------------|
|--------------------7-----7------|-----7------------------|
|-------5-------8------------8----|-5-8--------------------|
|--0-7----------------------------|------------------------|


 ------------------------------------------------------|
  E E.   +T  E   E.     Q     S.   E Q   E E.    E.     E
|--------------------------------|------------------------|
|--------------------------------|------------------------|
|--------------------------------|------------------------|
|-0-0----(0)-0---0---------------|---0---0-0-----0------0-|
|-0-0----(0)-0---0---------------|---0---0-0-----0------0-|
|-0-0----(0)-0---0---------------|---0---0-0-----0------0-|
|
| E E  E       E    E E   E E      E E E E E   E     E  E
|--------------------------------|------------------10-12-|
|--------------------------------|---------6--10----------|
|---------------------7----------|-------7----------------|
|-------------------7-----7------|-----7------------------|
|------5-------8------------8----|-5-8--------------------|
|-0-7----------------------------|------------------------|


   E  E   E  E   E  E   E  E     E  E   E  E   E  E   E  E
|-----------------------------|-----------------------------|
|-----------------------------|-----------------------------|
|-10-10--10-10--10-10--10-10--|-10-10--10-10--10-10--10-10--|
|--8--8---8--8---8--8---8--8--|--8--8---8--8---8--8---8--8--|
|--8--8---8--8---8--8---8--8--|--8--8---8--8---8--8---8--8--|
|--8--8---8--8---8--8---8--8--|--8--8---8--8---8--8---8--8--|
|
|  E  E   E  E   E  E   E  E     E  E   E  E   E  E   E  E
|-12--------12---------13-----|----13---------10------------|
|----13---------13--------13--|--------13--------13-----13--|
|--------14--------14---------|-14--------14---------14-----|
|--8-(8)--8-(8)--8-(8)--8-(8)-|--8-(8)--8-(8)--8-(8)--8-(8)-|
|-----------------------------|-----------------------------|
|--8-(8)--8-(8)--8-(8)--8-(8)-|--8-(8)--8-(8)--8-(8)--8-(8)-|


   E   E    E    E    E    E   E   E     E  E  E  E  E   E    E    E
|-------------------------------------|-------------------------------|
|-------------------------------------|-------------------------------|
|-12--12---12---12---12---12--12--12--|-12-12-12-12-12--12---12---12--|
|-10--10---10---10---10---10--10--10--|-10-10-10-10-10--10---10---10--|
|-10--10---10---10---10---10--10--10--|-10-10-10-10-10--10---10---10--|
|-------------------------------------|-------------------------------|
|
|  E   E    E    E    E    E   E   E     E  E  E  E  E   E    E    E
|-12------------12------------13------|----13-------10----------------|
|-----13-------------13-----------13--|-------13--------13--------13--|
|----------14-------------14----------|-14-------14----------14-------|
|-------------------------------------|-------------------------------|
|-10-(10)-(10)-(10)-(10)-(10)-10-(10)-|-------------10-(10)-(10)-(10)-|
|-------------------------------------|-------------------------------|


                            Interlude
                            1/8   4/4
                             Gtr IV
   W           +W             E    +E   E E  E E  E   E  E
|-----------|-------------||-----|-------------------------|
|-----------|-------------||-----|-------------------------|
|-----------|-------------||-----|-----10-9-10-9-(9)----12-|
|--0--------|--(0)--------||--0--|-(0)------------x--10----|
|--0--------|--(0)--------||-----|-------------------------|
|--0--------|--(0)--------||-----|-------------------------|
|
| Gtr II
|  >
|  W           +W            +E    +W
|-----------|-------------||-----|-------------------------|
|-----------|-------------||-----|-------------------------|
|-----------|-------------||-----|-------------------------|
|--0--------|--(0)--------||-(0)-|-(0)---------------------|
|--0--------|--(0)--------||-(0)-|-(0)---------------------|
|--0--------|--(0)--------||-(0)-|-(0)---------------------|
|
| Gtr III
|  W           +W             W     W
|-12--------|-(12)--------||-----|-------------------------|
|-----------|-------------||-----|-------------------------|
|-----------|-------------||-----|-------------------------|
|-----------|-------------||-----|-------------------------|
|-----------|-------------||-----|-------------------------|
|-----------|-------------||-----|-------------------------|


   +E   E Q  E E  E E   +E   E E  E E  E   E  E
|---------------------|--------------------------|
|---------------------|--------------------------|
|-(12)-12-9----9-10---|-----10-9-10-9-(9)----12--|
|------------0------0-|-(0)------------x--10-----|
|---------------------|--------------------------|
|---------------------|--------------------------|
|
|  +W                   +W
|---------------------|--------------------------|
|---------------------|--------------------------|
|---------------------|--------------------------|
|--(0)----------------|-(0)----------------------|
|--(0)----------------|-(0)----------------------|
|--(0)----------------|-(0)----------------------|
|
|   W                    W
|---------------------|--------------------------|
|---------------------|--------------------------|
|---------------------|--------------------------|
|---------------------|--------------------------|
|---------------------|--------------------------|
|---------------------|--------------------------|


   +E   E Q  E E  E E   +E   E E  E E  E   E  E
|---------------------|-------------------------|
|---------------------|-------------------------|
|-(12)-12-9----9-10---|-----10-9-10-9-(9)----12-|
|------------0------0-|-(0)------------x--10----|
|---------------------|-------------------------|
|---------------------|-------------------------|


   +E   E Q  E E  E E   +E   E E  E E  E   E  E
|---------------------|-------------------------|
|---------------------|-------------------------|
|-(12)-12-9----9-10---|-----10-9-10-9-(9)----12-|
|------------0------0-|-(0)------------x--10----|
|---------------------|-------------------------|
|---------------------|-------------------------|


   +E   E Q  E  E E  E    +E   E E  E E  E   E  E
|----------------------|--------------------------|
|--------------10------|--------------------------|
|-(12)-12-9-------9-10-|-(10)-10-9-10-9-(9)----12-|
|------------0---------|-----------------x--10----|
|----------------------|--------------------------|
|----------------------|--------------------------|
|
| Gtr V
|   H.            E  E    +E   E E  E E  Q      E
|----------------------|--------------------------|
|----------------------|------10-8-10-8--------11-|
|----------------------|-----------------9--------|
|--------------------0-|--(0)---------------------|
|----------------------|--------------------------|
|----------------------|--------------------------|
|
| Gtr III
|   H.            E  E    +E   Q    Q    Q      E
|----------------------|--------------------------|
|----------------------|--------------------------|
|-------------------10-|-(10)-10---10---10-----12-|
|-------------------15-|-(15)-15---15---15-----17-|
|----------------------|--------------------------|
|----------------------|--------------------------|


   +E   E Q    E  E  E  E    +E   E E  E E  E   E  E
|-------------------------|--------------------------|
|----------------10-------|--------------------------|
|-(12)-12-9----------9-10-|-(10)-10-9-10-9-(9)----12-|
|--------------0----------|-----------------x--10----|
|-------------------------|--------------------------|
|-------------------------|--------------------------|
|
|  +E   E Q    E  E  E  E    +E   E E  E E  Q      E
|-------------------------|--------------------------|
|-(11)-11-8-------8-10----|------10-8-10-8--------11-|
|-------------------------|-----------------9--------|
|--------------0--------0-|--(0)---------------------|
|-------------------------|--------------------------|
|-------------------------|--------------------------|
|
|  +E   Q    Q    Q     E    +E   Q    Q    Q      E
|-------------------------|--------------------------|
|-------------------------|--------------------------|
|-(12)-12----9----9----10-|-(10)-10---10---10-----12-|
|-(17)-17---14---14----15-|-(15)-15---15---15-----17-|
|-------------------------|--------------------------|
|-------------------------|--------------------------|


   +E   E Q    E  E  E  E    +E   E E  E E  E   E  E
|-------------------------|--------------------------|
|-------------------------|--------------------------|
|-(12)-12-9-------9-10----|------10-9-10-9-(9)----12-|
|--------------0--------0-|--(0)------------x--10----|
|-------------------------|--------------------------|
|-------------------------|--------------------------|
|
|  +E   E Q    E  E  E  E    +E   E E  E E  Q      E
|-------------------------|--------------------------|
|-(11)-11-8-------8-10----|------10-8-10-8--------11-|
|-------------------------|-----------------9--------|
|--------------0--------0-|--(0)---------------------|
|-------------------------|--------------------------|
|-------------------------|--------------------------|
|
|  +E   Q    Q    Q     E    +E   Q    Q    Q      E
|-------------------------|--------------------------|
|-------------------------|--------------------------|
|-(12)-12----9----9----10-|-(10)-10---10---10-----12-|
|-(17)-17---14---14----15-|-(15)-15---15---15-----17-|
|-------------------------|--------------------------|
|-------------------------|--------------------------|


   +E   E Q    E  E  E  E    +E   E E  E E  E   E  E
|-------------------------|--------------------------|
|-------------------------|--------------------------|
|-(12)-12-9-------9-10----|------10-9-10-9-(9)----12-|
|--------------0--------0-|--(0)------------x--10----|
|-------------------------|--------------------------|
|-------------------------|--------------------------|
|
|  +E   E Q    E  E  E  E    +E   E E  E E  Q      E
|-------------------------|--------------------------|
|-(11)-11-8-------8-10----|------10-8-10-8--------11-|
|-------------------------|-----------------9--------|
|--------------0--------0-|--(0)---------------------|
|-------------------------|--------------------------|
|-------------------------|--------------------------|
|
|  +E   Q    Q    Q     E    +E   Q    Q    Q      E
|-------------------------|--------------------------|
|-------------------------|-----------------------11-|
|-(12)-12----9----9----10-|-(10)-10---10---10-----15-|
|-(17)-17---14---14----15-|-(15)-15---15---15--------|
|-------------------------|--------------------------|
|-------------------------|--------------------------|


   +E   E Q    E  E E  E    +E   E E  E E  E   E  E
|------------------------|--------------------------|
|----------------10------|--------------------------|
|-(12)-12-9---------9-10-|-(10)-10-9-10-9-(9)----12-|
|--------------0---------|-----------------x--10----|
|------------------------|--------------------------|
|------------------------|--------------------------|
|
|  +E   E Q    E  E E  E    +E   E E  E E  Q      E
|-----------------8------|--------------------------|
|-(11)-11-8---------8-10-|-(10)-10-8-10-8--------11-|
|------------------------|-----------------9--------|
|--------------0---------|--------------------------|
|------------------------|--------------------------|
|------------------------|--------------------------|
|
|  +E   Q    Q    Q    E    +E   Q    Q    Q      E
|------------------------|--------------------------|
|-(11)-11---10---10------|--------------------------|
|-(15)-15---14---14---10-|-(10)-10---10---10-----12-|
|---------------------15-|-(15)-15---15---15-----17-|
|------------------------|--------------------------|
|------------------------|--------------------------|


   +E   E Q    E  E  E  E    +E   E E  E E  E   E  E
|-------------------------|--------------------------|
|-------------------------|--------------------------|
|-(12)-12-9-------9-10----|------10-9-10-9-(9)----12-|
|--------------0--------0-|--(0)------------x--10----|
|-------------------------|--------------------------|
|-------------------------|--------------------------|
|
|  +E   E Q    E  E  E  E    +E   E E  E E  Q      E
|-------------------------|--------------------------|
|-(11)-11-8-------8-10----|------10-8-10-8--------11-|
|-------------------------|-----------------9--------|
|--------------0--------0-|--(0)---------------------|
|-------------------------|--------------------------|
|-------------------------|--------------------------|
|
|  +E   Q    Q    Q     E    +E   Q    Q    Q      E
|-------------------------|--------------------------|
|-------------------------|--------------------------|
|-(12)-12----9----9----10-|-(10)-10---10---10-----12-|
|-(17)-17---14---14----15-|-(15)-15---15---15-----17-|
|-------------------------|--------------------------|
|-------------------------|--------------------------|


   +E   E Q    E  E  E  E    +E   E E  E E  E   E  E
|-------------------------|--------------------------|
|-------------------------|--------------------------|
|-(12)-12-9-------9-10----|------10-9-10-9-(9)----12-|
|--------------0--------0-|--(0)------------x--10----|
|-------------------------|--------------------------|
|-------------------------|--------------------------|
|
|  +E   E Q    E  E  E  E    +E   E E  E E  Q      E
|-------------------------|--------------------------|
|-(11)-11-8-------8-10----|------10-8-10-8--------11-|
|-------------------------|-----------------9--------|
|--------------0--------0-|--(0)---------------------|
|-------------------------|--------------------------|
|-------------------------|--------------------------|
|
|  +E   Q    Q    Q     E    +E   Q    Q    Q      E
|-------------------------|--------------------------|
|-------------------------|--------------------------|
|-(12)-12----9----9----10-|-(10)-10---10---10-----12-|
|-(17)-17---14---14----15-|-(15)-15---15---15-----17-|
|-------------------------|--------------------------|
|-------------------------|--------------------------|


   +E   E Q    E  E  E  E    +E   E E  E E  E   E  E
|-------------------------|--------------------------|
|-------------------------|--------------------------|
|-(12)-12-9-------9-10----|------10-9-10-9-(9)----12-|
|--------------0--------0-|--(0)------------x--10----|
|-------------------------|--------------------------|
|-------------------------|--------------------------|
|
|  +E   E Q    E  E  E  E    +E   E E  E E  Q      E
|-------------------------|--------------------------|
|-(11)-11-8-------8-10----|------10-8-10-8--------11-|
|-------------------------|-----------------9--------|
|--------------0--------0-|--(0)---------------------|
|-------------------------|--------------------------|
|-------------------------|--------------------------|
|
|  +E   Q    Q    Q     E    +E   Q    Q    Q      E
|-------------------------|--------------------------|
|-------------------------|-----------------------11-|
|-(12)-12----9----9----10-|-(10)-10---10---10-----15-|
|-(17)-17---14---14----15-|-(15)-15---15---15--------|
|-------------------------|--------------------------|
|-------------------------|--------------------------|


   +E   E Q    E  E E  E    +E   E E  E E  E   E  E
|------------------------|--------------------------|
|----------------10------|--------------------------|
|-(12)-12-9---------9-10-|-(10)-10-9-10-9-(9)----12-|
|--------------0---------|-----------------x--10----|
|------------------------|--------------------------|
|------------------------|--------------------------|
|
|  +E   E Q    E  E E  E    +E   E E  E E  Q      E
|-----------------8------|--------------------------|
|-(11)-11-8---------8-10-|-(10)-10-8-10-8--------11-|
|------------------------|-----------------9--------|
|--------------0---------|--------------------------|
|------------------------|--------------------------|
|------------------------|--------------------------|
|
|  +E   Q    Q    Q    E    +E   Q    Q    Q      E
|------------------------|--------------------------|
|-(11)-11---10---10------|--------------------------|
|-(15)-15---14---14---10-|-(10)-10---10---10-----12-|
|---------------------15-|-(15)-15---15---15-----17-|
|------------------------|--------------------------|
|------------------------|--------------------------|


   +E   E Q    E  E  E  E    +E   E E  E E  E   E  E
|-------------------------|--------------------------|
|-------------------------|--------------------------|
|-(12)-12-9-------9-10----|------10-9-10-9-(9)----12-|
|--------------0--------0-|--(0)------------x--10----|
|-------------------------|--------------------------|
|-------------------------|--------------------------|
|
|  +E   E Q    E  E  E  E    +E   E E  E E  Q      E
|-------------------------|--------------------------|
|-(11)-11-8-------8-10----|------10-8-10-8--------11-|
|-------------------------|-----------------9--------|
|--------------0--------0-|--(0)---------------------|
|-------------------------|--------------------------|
|-------------------------|--------------------------|
|
|  +E   Q    Q    Q     E    +E   Q    Q    Q      E
|-------------------------|--------------------------|
|-------------------------|--------------------------|
|-(12)-12----9----9----10-|-(10)-10---10---10-----12-|
|-(17)-17---14---14----15-|-(15)-15---15---15-----17-|
|-------------------------|--------------------------|
|-------------------------|--------------------------|


   +E   E Q    E  E  E  E    +E   E E  E E  E   E  E    +E   E Q    E  E  E  E
|-------------------------|--------------------------|-------------------------|
|-------------------------|--------------------------|-------------------------|
|-(12)-12-9-------9-10----|------10-9-10-9-(9)----12-|-(12)-12-9-------9-10----|
|--------------0--------0-|--(0)------------x--10----|--------------0--------0-|
|-------------------------|--------------------------|-------------------------|
|-------------------------|--------------------------|-------------------------|
|
|  +E   E Q    E  E  E  E    +E   E E  E E  Q      E    +E   E Q    E  E  E  E
|-------------------------|--------------------------|-------------------------|
|-(11)-11-8-------8-10----|------10-8-10-8--------11-|-(11)-11-8-------8-10----|
|-------------------------|-----------------9--------|-------------------------|
|--------------0--------0-|--(0)---------------------|--------------0--------0-|
|-------------------------|--------------------------|-------------------------|
|-------------------------|--------------------------|-------------------------|
|
|  +E   Q    Q    Q     E    +E   Q    Q    Q      E    +E   Q    Q    Q     E
|-------------------------|--------------------------|-------------------------|
|-------------------------|--------------------------|-------------------------|
|-(12)-12----9----9----10-|-(10)-10---10---10-----12-|-(12)-12----9----9----10-|
|-(17)-17---14---14----15-|-(15)-15---15---15-----17-|-(17)-17---14---14----15-|
|-------------------------|--------------------------|-------------------------|
|-------------------------|--------------------------|-------------------------|


                                                 Gtr I
    E   E E  E E  E   E  E    +E   E Q    E  E E  E
|--------------------------|------------------------||
|--------------------------|----------------10------||
|------10-9-10-9-(9)----12-|-(12)-12-9---------9-10-||
|---0-------------x--10----|--------------0-------8-||
|--------------------------|----------------------8-||
|--------------------------|------------------------||
|
|                                                Gtr II
|   E   E E  E E  Q      E    +E   E Q    E  E E  E
|--------------------------|-----------------8------||
|------10-8-10-8--------11-|-(11)-11-8---------8----||
|-----------------9--------|------------------------||
|---0----------------------|--------------0-------8-||
|--------------------------|----------------------8-||
|--------------------------|----------------------8-||
|
|  +E   Q    Q    Q      E    +E   Q    Q    Q    E
|--------------------------|------------------------||
|-----------------------11-|-(11)-11---10---10------||
|-(10)-10---10---10-----15-|-(15)-15---14---14---10-||
|-(15)-15---15---15--------|---------------------15-||
|--------------------------|------------------------||
|--------------------------|------------------------||


 Chorus
    E   E  E  E  E  E  E  E     E   E  E  E  E  E  E  E
|---------------------------|---------------------------|
|---------------------------|---------------------------|
|--10--10-10-10-10-10-10-10-|--10--10-10-10-10-10-10-10-|
|---8---8--8--8--8--8--8--8-|---8---8--8--8--8--8--8--8-|
|---8---8--8--8--8--8--8--8-|---8---8--8--8--8--8--8--8-|
|---------------------------|---------------------------|
|
|   E   E  E  E  E  E  E  E     E   E  E  E  E  E  E  E
|---------------------------|---------------------------|
|---------------------------|---------------------------|
|---------------------------|---------------------------|
|---------------------------|---------------------------|
|---8---8--8--8--8--8--8--8-|---8---8--8--8--8--8--8-10-|
|---8---8--8--8--8--8--8--8-|---8---8--8--8--8--8--8-10-|
|
|  +E   Q     Q     Q     E    +E   Q     Q     Q     E
|---------------------------|---------------------------|
|---------------------------|---------------------------|
|-(10)-10----10----10----12-|-(12)-12-----9-----9----10-|
|-(15)-15----15----15----17-|-(17)-17----14----14----15-|
|---------------------------|---------------------------|
|---------------------------|---------------------------|


    E   E  E  E  E  E  E  E     E   E  E  E  E  E  E  E
|---------------------------|---------------------------|
|---------------------------|---------------------------|
|--12--12-12-12-12-12-12-12-|--12--12-12-12-12-12-12-12-|
|--10--10-10-10-10-10-10-10-|--10--10-10-10-10-10-10-10-|
|--10--10-10-10-10-10-10-10-|--10--10-10-10-10-10-10-10-|
|---------------------------|---------------------------|
|
|   E   E  E  E  E  E  E  E     E   E  E  E  E  E  E  E
|---------------------------|---------------------------|
|---------------------------|---------------------------|
|---------------------------|---------------------------|
|---------------------------|---------------------------|
|--10--10-10-10-10-10-10-10-|--10--10-10-10-10-10-10--0-|
|--10--10-10-10-10-10-10-10-|--10--10-10-10-10-10-10--0-|
|
|  +E   Q     Q     Q     E    +E   Q     Q     Q     E
|---------------------------|---------------------------|
|---------------------------|---------------------------|
|-(10)-10----10----10----12-|-(12)-12-----9-----9----10-|
|-(15)-15----15----15----17-|-(17)-17----14----14----15-|
|---------------------------|---------------------------|
|---------------------------|---------------------------|


    E   E  E  E  E  E  E  E     E   E  E  E  E  E  E  E
|---------------------------|---------------------------|
|---------------------------|---------------------------|
|--14--14-14-14-14-14-14-14-|--14--14-14-14-14-14-14-14s|
|--12--12-12-12-12-12-12-12-|--12--12-12-12-12-12-12----|
|--12--12-12-12-12-12-12-12-|--12--12-12-12-12-12-12-12s|
|---------------------------|---------------------------|
|
|   E   E  E  E  E  E  E  E     E   E  E  E  E  E  E  E
|---------------------------|---------------------------|
|---------------------------|---------------------------|
|---------------------------|---------------------------|
|---------------------------|---------------------------|
|---0---0--0--0--0--0--0--0-|---0---0--0--0--0--0--0--3-|
|---0---0--0--0--0--0--0--0-|---0---0--0--0--0--0--0--3-|
|
|  +E   Q     Q     Q     E    +E   Q     Q     Q     E
|---------------------------|---------------------------|
|---------------------------|---------------------------|
|-(10)-10----10----10----12-|-(12)--9-----9-----9----10-|
|-(15)-15----15----15----17-|-(17)-14----14----14----15-|
|---------------------------|---------------------------|
|---------------------------|---------------------------|


    E   E  E  E  E  E  E  E     E   E  E  E  E  E  E  E
|---------------------------|---------------------------|
|---------------------------|---------------------------|
|--15--15-15-15-15-15-15-14-|--14--14-14-14-14-14-14-10-|
|---------------------------|-------------------------8-|
|--13--13-13-13-13-13-13-12-|--12--12-12-12-12-12-12--8-|
|---------------------------|---------------------------|
|
|   E   E  E  E  E  E  E  E     E   E  E  E  E  E  E  E
|---------------------------|---------------------------|
|---------------------------|---------------------------|
|---------------------------|---------------------------|
|---------------------------|---------------------------|
|---3---3--3--3--3--3--3--8-|---8---8--8--8--8--8--8--8-|
|---3---3--3--3--3--3--3--8-|---8---8--8--8--8--8--8--8-|
|
|  +E   Q     Q     Q     E    +E   Q     Q     Q     E
|---------------------------|---------------------------|
|------------------------11-|-(11)-11----10----10-------|
|-(10)-10----10----10----15-|-(15)-15----14----14----10-|
|-(15)-15----15----15-------|------------------------15-|
|---------------------------|---------------------------|
|---------------------------|---------------------------|


    E   E  E  E  E  E  E  E     E   E  E  E  E  E  E  E
|---------------------------|---------------------------|
|---------------------------|---------------------------|
|--10--10-10-10-10-10-10-10-|--10--10-10-10-10-10-10-12-|
|---8---8--8--8--8--8--8--8-|---8---8--8--8--8--8--8-10-|
|---8---8--8--8--8--8--8--8-|---8---8--8--8--8--8--8-10-|
|---------------------------|---------------------------|
|
|   E   E  E  E  E  E  E  E     E   E  E  E  E  E  E  E
|---------------------------|---------------------------|
|---------------------------|---------------------------|
|---------------------------|---------------------------|
|---------------------------|---------------------------|
|---8---8--8--8--8--8--8--8-|---8---8--8--8--8--8--8-10-|
|---8---8--8--8--8--8--8--8-|---8---8--8--8--8--8--8-10-|
|
|  +E   Q     Q     Q     E    +E   Q     Q     Q     E
|---------------------------|---------------------------|
|---------------------------|---------------------------|
|-(10)-10----10----10----12-|-(12)-12-----9-----9----10-|
|-(15)-15----15----15----17-|-(17)-17----14----14----15-|
|---------------------------|---------------------------|
|---------------------------|---------------------------|


    E   E  E  E  E  E  E  E     E   E  E  E  E  E  E  E
|---------------------------|---------------------------|
|---------------------------|---------------------------|
|--12--12-12-12-12-12-12-12-|--12--12-12-12-12-12-12-14-|
|--10--10-10-10-10-10-10-10-|--10--10-10-10-10-10-10-12-|
|--10--10-10-10-10-10-10-10-|--10--10-10-10-10-10-10-12-|
|---------------------------|---------------------------|
|
|   E   E  E  E  E  E  E  E     E   E  E  E  E  E  E  E
|---------------------------|---------------------------|
|---------------------------|---------------------------|
|---------------------------|---------------------------|
|---------------------------|---------------------------|
|--10--10-10-10-10-10-10-10-|--10--10-10-10-10-10-10--0-|
|--10--10-10-10-10-10-10-10-|--10--10-10-10-10-10-10--0-|
|
|  +E   Q     Q     Q     E    +E   Q     Q     Q     E
|---------------------------|---------------------------|
|---------------------------|---------------------------|
|-(10)-10----10----10----12-|-(12)-12-----9-----9----10-|
|-(15)-15----15----15----17-|-(17)-17----14----14----15-|
|---------------------------|---------------------------|
|---------------------------|---------------------------|


    E   E  E  E  E  E  E  E     E   E  E  E  E  E  E  E
|---------------------------|---------------------------|
|---------------------------|---------------------------|
|--14--14-14-14-14-14-14-14-|--14--14-14-14-14-14-14-19-|
|--12--12-12-12-12-12-12-12-|--12--12-12-12-12-12-12----|
|--12--12-12-12-12-12-12-12-|--12--12-12-12-12-12-12-17-|
|---------------------------|---------------------------|
|
|   E   E  E  E  E  E  E  E     E   E  E  E  E  E  E  E
|---------------------------|---------------------------|
|---------------------------|---------------------------|
|---------------------------|---------------------------|
|---------------------------|---------------------------|
|---0---0--0--0--0--0--0--0-|---0---0--0--0--0--0--0--0-|
|---0---0--0--0--0--0--0--0-|---0---0--0--0--0--0--0--0-|
|
|  +E   Q     Q     Q     E    +E   Q     Q     Q     E
|---------------------------|---------------------------|
|---------------------------|---------------------------|
|-(10)-10----10----10----12-|-(12)--9-----9-----9----10-|
|-(15)-15----15----15----17-|-(17)-14----14----14----15-|
|---------------------------|---------------------------|
|---------------------------|---------------------------|


    E   E  E  E  E  E  E  E     E   E  E  E  E  E  E  E
|---------------------------|---------------------------|
|---------------------------|---------------------------|
|--19--19-19-19-19-19-19-19-|--19--19-19-19-19-19-19-10-|
|---------------------------|-------------------------8-|
|--17--17-17-17-17-17-17-17-|--17--17-17-17-17-17-17--8-|
|---------------------------|---------------------------|
|
|   E   E  E  E  E  E  E  E     E   E  E  E  E  E  E  E
|---------------------------|---------------------------|
|---------------------------|---------------------------|
|---------------------------|---------------------------|
|---------------------------|---------------------------|
|---0---0--0--0--0--0--0--0-|---0---0--0--0--0--0--0--8-|
|---0---0--0--0--0--0--0--0-|---0---0--0--0--0--0--0--8-|
|
|  +E   Q     Q     Q     E    +E   Q     Q     Q     E
|---------------------------|---------------------------|
|------------------------11-|-(11)-11----10----10-------|
|-(10)-10----10----10----15-|-(15)-15----14----14----10-|
|-(15)-15----15----15-------|------------------------15-|
|---------------------------|---------------------------|
|---------------------------|---------------------------|


    E   E  E  E  E  E  E  E     E   E  E  E  E  E  E  E
|---------------------------|---------------------------|
|---------------------------|---------------------------|
|--10--10-10-10-10-10-10-10-|--10--10-10-10-10-10-10-12-|
|---8---8--8--8--8--8--8--8-|---8---8--8--8--8--8--8-10-|
|---8---8--8--8--8--8--8--8-|---8---8--8--8--8--8--8-10-|
|---------------------------|---------------------------|
|
|   E   E  E  E  E  E  E  E     E   E  E  E  E  E  E  E
|---------------------------|---------------------------|
|---------------------------|---------------------------|
|---------------------------|---------------------------|
|---------------------------|---------------------------|
|---8---8--8--8--8--8--8--8-|---8---8--8--8--8--8--8-10-|
|---8---8--8--8--8--8--8--8-|---8---8--8--8--8--8--8-10-|
|
|  +E   Q     Q     Q     E    +E   Q     Q     Q     E
|---------------------------|---------------------------|
|---------------------------|---------------------------|
|-(10)-10----10----10----12-|-(12)-12-----9-----9----10-|
|-(15)-15----15----15----17-|-(17)-17----14----14----15-|
|---------------------------|---------------------------|
|---------------------------|---------------------------|


    E   E  E  E  E  E  E  E     E   E  E  E  E  E  E  E
|---------------------------|---------------------------|
|---------------------------|---------------------------|
|--12--12-12-12-12-12-12-12-|--12--12-12-12-12-12-12-14-|
|--10--10-10-10-10-10-10-10-|--10--10-10-10-10-10-10-12-|
|--10--10-10-10-10-10-10-10-|--10--10-10-10-10-10-10-12-|
|---------------------------|---------------------------|
|
|   E   E  E  E  E  E  E  E     E   E  E  E  E  E  E  E
|---------------------------|---------------------------|
|---------------------------|---------------------------|
|---------------------------|---------------------------|
|---------------------------|---------------------------|
|--10--10-10-10-10-10-10-10-|--10--10-10-10-10-10-10--0-|
|--10--10-10-10-10-10-10-10-|--10--10-10-10-10-10-10--0-|
|
|  +E   Q     Q     Q     E    +E   Q     Q     Q     E
|---------------------------|---------------------------|
|---------------------------|---------------------------|
|-(10)-10----10----10----12-|-(12)-12-----9-----9----10-|
|-(15)-15----15----15----17-|-(17)-17----14----14----15-|
|---------------------------|---------------------------|
|---------------------------|---------------------------|


    E   E  E  E  E  E  E  E     E   E  E  E  E  E  E  E
|---------------------------|---------------------------|
|---------------------------|---------------------------|
|--14--14-14-14-14-14-14-14-|--14--14-14-14-14-14-14-14s|
|--12--12-12-12-12-12-12-12-|--12--12-12-12-12-12-12----|
|--12--12-12-12-12-12-12-12-|--12--12-12-12-12-12-12-12s|
|---------------------------|---------------------------|
|
|   E   E  E  E  E  E  E  E     E   E  E  E  E  E  E  E
|---------------------------|---------------------------|
|---------------------------|---------------------------|
|---------------------------|---------------------------|
|---------------------------|---------------------------|
|---0---0--0--0--0--0--0--0-|---0---0--0--0--0--0--0--3-|
|---0---0--0--0--0--0--0--0-|---0---0--0--0--0--0--0--3-|
|
|  +E   Q     Q     Q     E    +E   Q     Q     Q     E
|---------------------------|---------------------------|
|---------------------------|---------------------------|
|-(10)-10----10----10----12-|-(12)--9-----9-----9----10-|
|-(15)-15----15----15----17-|-(17)-14----14----14----15-|
|---------------------------|---------------------------|
|---------------------------|---------------------------|


    E   E  E  E  E  E  E  E     E   E  E  E  E  E  E  E
|---------------------------|---------------------------|
|---------------------------|---------------------------|
|--15--15-15-15-15-15-15-14-|--14--14-14-14-14-14-14-10-|
|---------------------------|-------------------------8-|
|--13--13-13-13-13-13-13-12-|--12--12-12-12-12-12-12--8-|
|---------------------------|---------------------------|
|
|   E   E  E  E  E  E  E  E     E   E  E  E  E  E  E  E
|---------------------------|---------------------------|
|---------------------------|---------------------------|
|---------------------------|---------------------------|
|---------------------------|---------------------------|
|---3---3--3--3--3--3--3--8-|---8---8--8--8--8--8--8--8-|
|---3---3--3--3--3--3--3--8-|---8---8--8--8--8--8--8--8-|
|
|  +E   Q     Q     Q     E    +E   Q     Q     Q     E
|---------------------------|---------------------------|
|------------------------11-|-(11)-11----10----10-------|
|-(10)-10----10----10----15-|-(15)-15----14----14----10-|
|-(15)-15----15----15-------|------------------------15-|
|---------------------------|---------------------------|
|---------------------------|---------------------------|


    E   E  E  E  E  E  E  E     E   E  E  E  E  E  E  E
|---------------------------|---------------------------|
|---------------------------|---------------------------|
|--10--10-10-10-10-10-10-10-|--10--10-10-10-10-10-10-12-|
|---8---8--8--8--8--8--8--8-|---8---8--8--8--8--8--8-10-|
|---8---8--8--8--8--8--8--8-|---8---8--8--8--8--8--8-10-|
|---------------------------|---------------------------|
|
|   E   E  E  E  E  E  E  E     E   E  E  E  E  E  E  E
|---------------------------|---------------------------|
|---------------------------|---------------------------|
|---------------------------|---------------------------|
|---------------------------|---------------------------|
|---8---8--8--8--8--8--8--8-|---8---8--8--8--8--8--8-10-|
|---8---8--8--8--8--8--8--8-|---8---8--8--8--8--8--8-10-|
|
|  +E   Q     Q     Q     E    +E   Q     Q     Q     E
|---------------------------|---------------------------|
|---------------------------|---------------------------|
|-(10)-10----10----10----12-|-(12)-12-----9-----9----10-|
|-(15)-15----15----15----17-|-(17)-17----14----14----15-|
|---------------------------|---------------------------|
|---------------------------|---------------------------|


    E   E  E  E  E  E  E  E     E   E  E  E  E  E  E  E
|---------------------------|---------------------------|
|---------------------------|---------------------------|
|--12--12-12-12-12-12-12-12-|--12--12-12-12-12-12-12-14-|
|--10--10-10-10-10-10-10-10-|--10--10-10-10-10-10-10-12-|
|--10--10-10-10-10-10-10-10-|--10--10-10-10-10-10-10-12-|
|---------------------------|---------------------------|
|
|   E   E  E  E  E  E  E  E     E   E  E  E  E  E  E  E
|---------------------------|---------------------------|
|---------------------------|---------------------------|
|---------------------------|---------------------------|
|---------------------------|---------------------------|
|--10--10-10-10-10-10-10-10-|--10--10-10-10-10-10-10--0-|
|--10--10-10-10-10-10-10-10-|--10--10-10-10-10-10-10--0-|
|
|  +E   Q     Q     Q     E    +E   Q     Q     Q     E
|---------------------------|---------------------------|
|---------------------------|---------------------------|
|-(10)-10----10----10----12-|-(12)-12-----9-----9----10-|
|-(15)-15----15----15----17-|-(17)-17----14----14----15-|
|---------------------------|---------------------------|
|---------------------------|---------------------------|


    E   E  E  E  E  E  E  E     E   E  E  E  E  E  E  E
|---------------------------|---------------------------|
|---------------------------|---------------------------|
|--14--14-14-14-14-14-14-14-|--14--14-14-14-14-14-14-19-|
|--12--12-12-12-12-12-12-12-|--12--12-12-12-12-12-12----|
|--12--12-12-12-12-12-12-12-|--12--12-12-12-12-12-12-17-|
|---------------------------|---------------------------|
|
|   E   E  E  E  E  E  E  E     E   E  E  E  E  E  E  E
|---------------------------|---------------------------|
|---------------------------|---------------------------|
|---------------------------|---------------------------|
|---------------------------|---------------------------|
|---0---0--0--0--0--0--0--0-|---0---0--0--0--0--0--0--0-|
|---0---0--0--0--0--0--0--0-|---0---0--0--0--0--0--0--0-|
|
|  +E   Q     Q     Q     E    +E   Q     Q     Q     E
|---------------------------|---------------------------|
|---------------------------|---------------------------|
|-(10)-10----10----10----12-|-(12)-12-----9-----9----10-|
|-(15)-15----15----15----17-|-(17)-17----14----14----15-|
|---------------------------|---------------------------|
|---------------------------|---------------------------|


    E   E  E  E  E  E  E  E     E   E  E  E  E  E  E  E
|---------------------------|---------------------------||
|---------------------------|---------------------------||
|--19--19-19-19-19-19-19-19-|--19--19-19-19-19-19-19----||
|---------------------------|-------------------------0-||
|--17--17-17-17-17-17-17-17-|--17--17-17-17-17-17-17--0-||
|---------------------------|-------------------------0-||
|
|   E   E  E  E  E  E  E  E     E   E  E  E  E  E  E  E
|---------------------------|---------------------------||
|---------------------------|---------------------------||
|---------------------------|---------------------------||
|---------------------------|---------------------------||
|---0---0--0--0--0--0--0--0-|---0---0--0--0--0--0--0--0-||
|---0---0--0--0--0--0--0--0-|---0---0--0--0--0--0--0--0-||
|
|  +E   Q     Q     Q     E    +E   Q     Q     Q     E
|---------------------------|------------------------12-||
|------------------------11-|-(11)-11----11----10-------||
|-(10)-10----10----10----15-|-(15)-15----15----14----10-||
|-(15)-15----15----15-------|-------------------------8-||
|---------------------------|---------------------------||
|---------------------------|-------------------------8-||


 Outro
   >
   W                            +W
|-----------------------------|-----------------------------|
|-----------------------------|-----------------------------|
|-----------------------------|-----------------------------|
|--0--------------------------|-(0)-------------------------|
|--0--------------------------|-(0)-------------------------|
|--0--------------------------|-(0)-------------------------|
|
|  >
|  W                            +W
|-----------------------------|-----------------------------|
|-----------------------------|-----------------------------|
|-----------------------------|-----------------------------|
|-----------------------------|-----------------------------|
|--0--------------------------|-(0)-------------------------|
|--0--------------------------|-(0)-------------------------|
|
|  E   E  E   E  E   E  E   E    E   E  E   E  E   E  E   E
|--------12---------13--------|-13---------10------------12-|
|-13---------13--------13-----|-----13--------13-----13-----|
|-----10--------14--10-----14-|-----10-14---------14--------|
|-(8)--8-(8)--8-(8)--8-(8)--8-|-(8)--8-(8)--8-(8)--8-(8)-10-|
|-----------------------------|--------------------------10-|
|-(8)--8-(8)--8-(8)--8-(8)--8-|-(8)--8-(8)--8-(8)--8-(8)----|


   +W                                      +W
|---------------------------------------|-----------------------------------|
|---------------------------------------|-----------------------------------|
|---------------------------------------|-----------------------------------|
|--(0)----------------------------------|--(0)------------------------------|
|--(0)----------------------------------|--(0)------------------------------|
|--(0)----------------------------------|--(0)------------------------------|
|
|  +W                                      +W
|---------------------------------------|-----------------------------------|
|---------------------------------------|-----------------------------------|
|---------------------------------------|-----------------------------------|
|---------------------------------------|-----------------------------------|
|--(0)----------------------------------|--(0)------------------------------|
|--(0)----------------------------------|--(0)------------------------------|
|
|   E    E    E    E    E   E   E    E      E    E   E  E   E    E    E   E
|------------12------------13-----------|--13----------10----------------12-|
|--13-------------13-----------13-------|-------13---------13--------13-----|
|-------14-------------14-----------14--|-----------14----------14----------|
|-(10)-(10)-(10)-(10)-(10)-10-(10)-(10)-|-(10)-(10)----10-(10)-(10)-(10)----|
|-(10)-(10)-(10)-(10)-(10)-10-(10)-(10)-|-(10)-(10)----10-(10)-(10)-(10)----|
|---------------------------------------|---------------------------------0-|


  +W                  +W
|-------------------|----------------------|
|-------------------|----------------------|
|-------------------|----------------------|
|-(0)---------------|-(0)------------------|
|-(0)---------------|-(0)------------------|
|-(0)---------------|-(0)------------------|
|
| +W                  +W
|-------------------|----------------------|
|-------------------|----------------------|
|-------------------|----------------------|
|-------------------|----------------------|
|-(0)---------------|-(0)------------------|
|-(0)---------------|-(0)------------------|
|
|  E  E E E E E E E    E  E E E  E  E  E E
|-------------------|--------------10------|
|-------------------|---------6-10----10---|
|-----------7-------|-------7--------------|
|---------7---7-----|-----7----------------|
|-----5-8-------8-5-|--8-------------------|
|--7----------------|--------------------0-|


  +W                  +W
|-------------------|-----------------------|
|-------------------|-----------------------|
|-------------------|-----------------------|
|-(0)---------------|-(0)-------------------|
|-(0)---------------|-(0)-------------------|
|-(0)---------------|-(0)-------------------|
|
| +W                  +W
|-------------------|-----------------------|
|-------------------|-----------------------|
|-------------------|-----------------------|
|-------------------|-----------------------|
|-(0)---------------|-(0)-------------------|
|-(0)---------------|-(0)-------------------|
|
|  E  E E E E E E E    E  E E E  E  E  E  E
|-------------------|--------------10-12-12-|
|-------------------|---------6-10----------|
|-----------7-------|-------7------------10-|
|---------7---7-----|-----7---------------8-|
|-----5-8-------8-5-|--8--------------------|
|--7----------------|---------------------8-|


  Gtr III
   E   E  E   E  E   E  E   E    E   E  E   E  E   E  E   E
|--------12---------13--------|-13---------10------------12-|
|-13---------13--------13-----|-----13--------13-----13-----|
|-----10--------14--10-----14-|-----10-14---------14--------|
|-(8)--8-(8)--8-(8)--8-(8)--8-|-(8)--8-(8)--8-(8)--8-(8)-10-|
|-----------------------------|--------------------------10-|
|-(8)--8-(8)--8-(8)--8-(8)--8-|-(8)--8-(8)--8-(8)--8-(8)----|


    E    E    E    E    E   E   E    E      E    E   E  E   E    E    E   E
|------------12------------13-----------|--13----------10----------------12-|
|--13-------------13-----------13-------|-------13---------13--------13-----|
|-------14-------------14-----------14--|-----------14----------14----------|
|-(10)-(10)-(10)-(10)-(10)-10-(10)-(10)-|-(10)-(10)----10-(10)-(10)-(10)----|
|-(10)-(10)-(10)-(10)-(10)-10-(10)-(10)-|-(10)-(10)----10-(10)-(10)-(10)----|
|---------------------------------------|---------------------------------0-|


  E E E E E E E E   E E E E  E  E  E E   E E E E E E E E   E E E E  E  E  E  E
|-----------------|------------10------|-----------------|------------10-12-12-|
|-----------------|-------6-10----10---|-----------------|-------6-10----------|
|---------7-------|-----7--------------|---------7-------|-----7------------10-|
|-------7---7-----|---7----------------|-------7---7-----|---7---------------8-|
|---5-8-------8-5-|-8------------------|---5-8-------8-5-|-8-------------------|
|-7---------------|------------------0-|-7---------------|-------------------8-|


   E   E  E   E  E   E  E   E    E   E  E   E  E   E  E   E
|--------12---------13--------|-13---------10------------12-|
|-13---------13--------13-----|-----13--------13-----13-----|
|-----10--------14--10-----14-|-----10-14---------14--------|
|-(8)--8-(8)--8-(8)--8-(8)--8-|-(8)--8-(8)--8-(8)--8-(8)-10-|
|-----------------------------|--------------------------10-|
|-(8)--8-(8)--8-(8)--8-(8)--8-|-(8)--8-(8)--8-(8)--8-(8)----|


    E    E    E    E    E   E   E    E      E    E   E  E   E    E    Q
|------------12------------13-----------|--13----------10-----------------|
|--13-------------13-----------13-------|-------13---------13--------13---|
|-------14-------------14-----------14--|-----------14----------14--------|
|-(10)-(10)-(10)-(10)-(10)-10-(10)-(10)-|-(10)-(10)----10-(10)-(10)-(10)--|
|-(10)-(10)-(10)-(10)-(10)-10-(10)-(10)-|-(10)-(10)----10-(10)-(10)-(10)--|
|---------------------------------------|---------------------------------|


   H    S  Q   +E.    +W            +W            +W
|-------8-12--(12)-|-(12)--------|-(12)--------|-(12)----*|
|-13---------------|-------------|-------------|---------*|
|------------------|-------------|-------------|---------*|
|------------------|-------------|-------------|---------*|
|----------0---(0)-|--(0)--------|--(0)--------|--(0)----*|
|----------0---(0)-|--(0)--------|--(0)--------|--(0)----*|



Duration Legend
---------------
W - whole; H - half; Q - quarter; E - 8th; S - 16th; T - 32nd; X - 64th; a - acciaccatura
+ - note tied to previous; . - note dotted; .. - note double dotted
Uncapitalized letters represent notes that are staccato (1/2 duration)
Irregular groupings are notated above the duration line
Duration letters will always appear directly above the note/fret number it represents the
duration for.  Duration letters with no fret number below them represent rests.  Multi-
bar rests are notated in the form Wxn, where n is the number of bars to rest for.  Low
melody durations appear below the staff

Tablature Legend
----------------
 h   - hammer-on
 p   - pull-off
 b   - bend
 pb  - pre-bend
 r   - bend release (if no number after the r, then release immediately)
 /\  - slide into or out of (from/to "nowhere")
 s   - legato slide
 S   - shift slide
 - natural harmonic
[n]  - artificial harmonic
n(n) - tapped harmonic
 ~   - vibrato
 tr  - trill
 T   - tap
 TP  - trem. picking
 PM  - palm muting
\n/  - tremolo bar dip; n = amount to dip
 \n  - tremolo bar down
 n/  - tremolo bar up
/n\  - tremolo bar inverted dip
 =   - hold bend; also acts as connecting device for hammers/pulls
 <> - volume swell (louder/softer)
 x   - on rhythm slash represents muted slash
 o   - on rhythm slash represents single note slash

Misc Legend
-----------
 |  - bar
||  - double bar
||o - repeat start
o|| - repeat end
*|  - double bar (ending)
 :  - bar (freetime)
 $  - Segno
 &  - Coda
Tempo markers -  = BPM(8/16=s8/s16), where s8 = swing 8ths, s16 = swing 16ths

comments
We did not receive enough feedback on this tab! Please rate:
print report bad tab
1 2 3 4 5
1 comment total.
0 reply
archangelshiro wrote on November 10 2010, 02:34 am

what Key is this in? Im trying to find it correspondingly on piano.

I want to post or [tab]
guest
You may want to rate the tab now too:
select rating
Please do not post tabs as comments. Select "correction" instead!