Oops, an error
Loading. Please wait.

Abnegation Tab

ver1
ver1

Whole song

More versions @911Tabs.com
3,572 views 3 this week
2 commentsread comments
1 2 3 4 5
excellent!
x 3
Autoscroll
+/-
esc
set tempo
stop
Contributor
Difficulty
Tuning
intermediate
A# F A# D# G C
Hey! There's an official Ultimate Guitar app which is ideal
for learning songs when you're away from computer. Get the app
WARNING: You are trying to view
                                    content from Ultimate-Guitar.com
                                    in an unauthorized application,
                                    which is prohibited.

                                    Please use an official Ultimate
                                    Guitar Tabs application for iPhone,
                                    iPad or Android to access legitimate
                                    chords, guitar, bass, and drum tabs
                                    from Ultimate-Guitar.com database.

                                    Type "ultimate guitar tabs" in Apple
                                    App Store's or Android Market's
                                    search to find the application.
Abnegation
In Flames

Transcribed by Seth "Shadows" Sanders {Livetolieanotherday@hotmail.com}


Gtr I (Bb F Bb Eb G C) - 'Rhythm Guitar I'
Gtr II (Bb F Bb Eb G C) - 'Rhythm Guitar II'
Gtr III (Bb F Bb Eb G C) - 'Lead Guitar I'
Gtr IV (Bb F Bb Eb G C) - 'Lead Guitar II'
Gtr V (C F Bb Eb G C) - 'Keyboard I'
Gtr VI (Bb F Bb Eb G C) - 'Piano'

 Intro
  Q=199
 4/4
  Gtrs I, II
     PM----|    PM          PM----|    PM
   E E S S E  E E  E E    E E S S E  E E  E E
|----------------------|----------------------|
|----------------------|----------------------|
|----------------------|----------------------|
|----------------------|----------------------|
|----------------------|----------------------|
|-12-0-0-0-0-12-0-/8p7-|-12-0-0-0-0-12-0-/8p7-|


     PM   PM  PM  PM    PM  PM  PM
   E E  E E E E E E   E E E E E E E E
|-------------------|------------------|
|-------------------|------------------|
|-------------------|------------------|
|-------------------|---------5---5h7--|
|-----------8---7---|-5---3------------|
|-12-0-10-0---8---8-|---5---5---5------|


  Gtr I
     PM----|    PM            PM----|    PM
   E E S S E  E E   E  E    E E S S E  E E   E  E
|------------------------|------------------------|
|------------------------|------------------------|
|------------------------|------------------------|
|------------------------|------------------------|
|------------------------|------------------------|
|-12-0-0-0-0-12-0--/8p=7-|-12-0-0-0-0-12-0--/8p=7-|
|
| Gtr II
|    PM----|    PM            PM----|    PM
|  E E S S E  E E   E  E    E E S S E  E E   E  E
|------------------------|------------------------|
|------------------------|------------------------|
|------------------------|------------------------|
|------------------------|------------------------|
|------------------------|------------------------|
|-15-0-0-0-0-15-0-/12p10-|-15-0-0-0-0-15-0-/12p10-|


     PM   PM   PM   PM    PM  PM  PM
   E E  E E  E E  E E   E E E E E E E E
|---------------------|-----------------||
|---------------------|-----------------||
|---------------------|-----------------||
|---------------------|---------5---5h7-||
|------------8----7---|-5---3-----------||
|-12-0-10-0----8----8-|---5---5---5-----||
|
|    PM   PM   PM   PM    PM  PM  PM
|  E E  E E  E E  E E   E E E E E E E E
|---------------------|-----------------||
|---------------------|-----------------||
|---------------------|-----------------||
|---------------------|---------8-------||
|-----------12---10---|-8---7-------7h8-||
|-15-0-14-0----8----8-|---5---5---5-----||


   Verse I
    Gtrs I, II
    PM------------------------------------------------------------------|
    E E E E E E E E   E E E E E E E E   E E E E E E E E   E E E E E E E E
||------------------|-----------------|-----------------|------------------|
||o-----------------|-----------------|-----------------|------------------|
||------------------|-----------------|-----------------|------------------|
||------------------|-----------------|-----------------|------------------|
||o-0-0-x-x-x-x-x-x-|-x-x-x-x-x-x-x-x-|-0-0-x-x-x-x-x-x-|-0-0-x-x-x-x-x-0--|
||--0-0-x-x-x-x-x-x-|-x-x-x-x-x-x-x-x-|-0-0-x-x-x-x-x-x-|-0-0-x-x-x-x-x-0--|
|
|   Gtr III
|   E E Q   E E Q     E E Q   E E Q     E E Q   E E Q     E E Q   E E Q
||------------------|-----------------|-----------------|------------------|
||o-6-6-----6-6-----|-6-6-----6-6-----|-6-6-----6-6-----|-8-8-----8-8------|
||--7-7-----7-7-----|-7-7-----7-7-----|-7-7-----7-7-----|-7-7-----7-7------|
||--7-7-----7-7-----|-7-7-----7-7-----|-8-8-----8-8-----|-8-8-----8-8------|
||o-----------------|-----------------|-----------------|------------------|
||------------------|-----------------|-----------------|------------------|


  PM------------------------------|
  E E E E E E E E   E E E E E E E E
|-----------------|-----------------|
|-----------------|-----------------|
|-----------------|-----------------|
|-----------------|-----------------|
|-0-0-x-x-x-x-x-x-|-x-x-x-x-x-x-x-x-|
|-0-0-x-x-x-x-x-x-|-x-x-x-x-x-x-x-x-|
|
| E E Q   E E Q     E E Q   E E Q
|-----------------|-----------------|
|-6-6-----6-6-----|-6-6-----6-6-----|
|-7-7-----7-7-----|-7-7-----7-7-----|
|-7-7-----7-7-----|-7-7-----7-7-----|
|-----------------|-----------------|
|-----------------|-----------------|
|
| Gtr IV
| W                 W
|-----------------|-----------------|
|-----------------|-----------------|
|-----------------|-----------------|
|-----------------|-----------------|
|-----------------|-----------------|
|-----------------|-----------------|


  1.
   E  +E   E  E  E  +E   E  +E    E. E. E  Q     Q
|-------------------------------|-----------------------||
|-------------------------------|----------8-----8-----o||
|-------------------------------|----------7-----7------||
|--8--(8)--8--8--8--(8)--8--(8)-|-5--5--5--5-----5------||
|--8--(8)--8--8--8--(8)--8--(8)-|-5--5--5--5-----5-----o||
|--8--(8)--8--8--8--(8)--8--(8)-|-5--5--5---------------||
|
|      ~~~~      ~~~~~~~~~~       PM---------------|
|  E  +E   E  E  E  +E   E  +E    E. E. E  E  E  E  E
|-------------------------------|-----------------------||
|-------------------------------|----------------------o||
|-10-(10)-10-10-10-(10)-10-(10)S|=5--5--5---------------||
|-------------------------------|----------7--7--7--7---||
|-------------------------------|----------------------o||
|-------------------------------|-----------------------||
|
|      ~~~~      ~~~~~~~~~~       PM---------------|
|  E  +E   E  E  E  +E   E  +E    E. E. E  E  E  E  E
|-------------------------------|-----------------------||
|-------------------------------|----------------------o||
|--7--(7)--7--7--7--(7)--7--(7)S|=9--9--9S14-14-14-14---||
|-------------------------------|-----------------------||
|-------------------------------|----------------------o||
|-------------------------------|-----------------------||


  2.
   E  +E  E  E  E +E   E +E     E. E.  E  Q   Q
|----------------------------|------------------||
|----------------------------|------------8---8-||
|----------------------------|------------7---7-||
|--8--(8)-8--8--8-(8)--8-(8)-|--5--5---5--5---5-||
|--8--(8)-8--8--8-(8)--8-(8)-|--5--5---5--5---5-||
|--8--(8)-8--8--8-(8)--8-(8)-|--5--5---5--------||
|
|  ~~~~~~~~~~~~~~~~~~~~~~~~~~~~~~~~~~~~~~~~~~~~~
|  Q.        Q.        Q        Q.     Q.     Q
|----------------------------|------------------||
|---------------------10-----|-11-----10-----11-||
|-10--------12---------------|------------------||
|----------------------------|------------------||
|----------------------------|------------------||
|----------------------------|------------------||
|
|  ~~~~~~~~~~~~~~~~~~~~~~~~~~~~~~~~~~~~~~~~~~~~~
|  Q.        Q.        Q        Q.     Q.     Q
|----------------------------|-10------8-----10-||
|-10--------11--------13-----|------------------||
|----------------------------|------------------||
|----------------------------|------------------||
|----------------------------|------------------||
|----------------------------|------------------||


   Re-Intro
    Gtr I
       PM----|    PM            PM----|    PM
     E E S S E  E E   E  E    E E S S E  E E   E  E
||-------------------------|------------------------|
||o------------------------|------------------------|
||-------------------------|------------------------|
||-------------------------|------------------------|
||o------------------------|------------------------|
||--12-0-0-0-0-12-0--/8p=7-|-12-0-0-0-0-12-0--/8p=7-|
|
|   Gtr II
|      PM----|    PM            PM----|    PM
|    E E S S E  E E   E  E    E E S S E  E E   E  E
||-------------------------|------------------------|
||o------------------------|------------------------|
||-------------------------|------------------------|
||-------------------------|------------------------|
||o------------------------|------------------------|
||--15-0-0-0-0-15-0-/12p10-|-15-0-0-0-0-15-0-/12p10-|


     PM   PM   PM   PM    PM  PM  PM
   E E  E E  E E  E E   E E E E E E E E
|---------------------|-------------------||
|---------------------|------------------o||
|---------------------|-------------------||
|---------------------|---------5---5h7---||
|------------8----7---|-5---3------------o||
|-12-0-10-0----8----8-|---5---5---5-------||
|
|    PM   PM   PM   PM    PM  PM  PM
|  E E  E E  E E  E E   E E E E E E E E
|---------------------|-------------------||
|---------------------|------------------o||
|---------------------|-------------------||
|---------------------|---------8---------||
|-----------12---10---|-8---7-------7h8--o||
|-15-0-14-0----8----8-|---5---5---5-------||


   Verse II
    Gtrs I, II
    PM------------------------------------------------------------------|
    E E E E E E E E   E E E E E E E E   E E E E E E E E   E E E E E E E E
||------------------|-----------------|-----------------|------------------|
||o-----------------|-----------------|-----------------|------------------|
||------------------|-----------------|-----------------|------------------|
||------------------|-----------------|-----------------|------------------|
||o-0-0-x-x-x-x-x-x-|-x-x-x-x-x-x-x-x-|-5-5-x-x-x-x-x-x-|-5-5-x-x-5-x-x-0--|
||--0-0-x-x-x-x-x-x-|-x-x-x-x-x-x-x-x-|-0-0-x-x-x-x-x-x-|-0-0-x-x-0-x-x-0--|
|
|   Gtr III
|   E E Q   E E Q     E E Q   E E Q     E E Q   E E Q     E E Q   E E Q
||------------------|-----------------|-----------------|------------------|
||o-6-6-----6-6-----|-6-6-----6-6-----|-6-6-----6-6-----|-8-8-----8-8------|
||--7-7-----7-7-----|-7-7-----7-7-----|-7-7-----7-7-----|-7-7-----7-7------|
||--7-7-----7-7-----|-7-7-----7-7-----|-8-8-----8-8-----|-8-8-----8-8------|
||o-----------------|-----------------|-----------------|------------------|
||------------------|-----------------|-----------------|------------------|


  PM------------------------------|
  E E E E E E E E   E E E E E E E E
|-----------------|-----------------|
|-----------------|-----------------|
|-----------------|-----------------|
|-----------------|-----------------|
|-0-0-x-x-x-x-x-x-|-0-0-x-x-3-3-x-x-|
|-0-0-x-x-x-x-x-x-|-0-0-x-x-3-3-x-x-|
|
| E E Q   E E Q     E E Q   E E Q
|-----------------|-----------------|
|-6-6-----6-6-----|-6-6-----6-6-----|
|-7-7-----7-7-----|-7-7-----7-7-----|
|-7-7-----7-7-----|-7-7-----7-7-----|
|-----------------|-----------------|
|-----------------|-----------------|
|
| Gtr IV
| W                 W
|-----------------|-----------------|
|-----------------|-----------------|
|-----------------|-----------------|
|-----------------|-----------------|
|-----------------|-----------------|
|-----------------|-----------------|


  1.
   E  +E   E  E  E  +E   E  +E    E. E. E  Q     Q
|-------------------------------|-----------------------||
|-------------------------------|----------8-----8-----o||
|-------------------------------|----------7-----7------||
|--8--(8)--8--8--8--(8)--8--(8)-|-5--5--5--5-----5------||
|--8--(8)--8--8--8--(8)--8--(8)-|-5--5--5--5-----5-----o||
|--8--(8)--8--8--8--(8)--8--(8)-|-5--5--5---------------||
|
|      ~~~~      ~~~~~~~~~~       PM---------------|
|  E  +E   E  E  E  +E   E  +E    E. E. E  E  E  E  E
|-------------------------------|-----------------------||
|-------------------------------|----------------------o||
|-10-(10)-10-10-10-(10)-10-(10)S|=5--5--5---------------||
|-------------------------------|----------7--7--7--7---||
|-------------------------------|----------------------o||
|-------------------------------|-----------------------||
|
|      ~~~~      ~~~~~~~~~~       PM---------------|
|  E  +E   E  E  E  +E   E  +E    E. E. E  E  E  E  E
|-------------------------------|-----------------------||
|-------------------------------|----------------------o||
|--7--(7)--7--7--7--(7)--7--(7)S|=9--9--9S14-14-14-14---||
|-------------------------------|-----------------------||
|-------------------------------|----------------------o||
|-------------------------------|-----------------------||


  2.
                                              <
   E  +E  E  E  E +E   E +E     E. E.  E  q   Q
|----------------------------|------------------||
|----------------------------|------------------||
|----------------------------|------------------||
|--8--(8)-8--8--8-(8)--8-(8)-|--5--5---5--5---5-||
|--8--(8)-8--8--8-(8)--8-(8)-|--5--5---5--5---5-||
|--8--(8)-8--8--8-(8)--8-(8)-|--5--5---5--5---5-||
|
|  ~~~~~~~~~~~~~~~~~~~~~~~~~~~~~~~~~~~~~~~~~~~~~
|  Q.        Q.        Q        Q.     Q.     Q
|----------------------------|-10------8-----10-||
|---------------------10-----|------------------||
|-10--------12---------------|------------------||
|----------------------------|------------------||
|----------------------------|------------------||
|----------------------------|------------------||
|
|  ~~~~~~~~~~~~~~~~~~~~~~~~~~~~~~~~~~~~~~~~~~~~~
|  Q.        Q.        Q        Q.     Q.     Q
|----------------------------|-13-----12-----13-||
|-10--------11--------13-----|------------------||
|----------------------------|------------------||
|----------------------------|------------------||
|----------------------------|------------------||
|----------------------------|------------------||


   Chorus
    Gtrs I, II
     E  +E  E E  +E  E E E    E E   E  E  E E   E  E
||-------------------------|-------------------------|
||o------------------------|-------------------------|
||-------------------------|-------------------------|
||---0--(0)-0-0--(0)-0-0-0-|--0-0---0--0--0-0---0--0-|
||o--0--(0)-0-0--(0)-0-0-0-|--0-0---0--0--0-0---0--0-|
||---0--(0)-0-0--(0)-0-0-0-|--0-0---0--0--0-0---0--0-|
|
|   Gtr III
|    Q.       Q.       Q      Q    +Q     Q    +Q
||-------------------------|-------------------------|
||o------------------------|-------------------------|
||---7--------7--------9---|-10---(10)---10---(10)---|
||-------------------------|-------------------------|
||o--5--------5--------7---|--8----(8)----8----(8)---|
||-------------------------|-------------------------|
|
|   Gtr IV
|    Q.       Q.       Q      Q    +Q     Q    +Q
||-------------------------|-------------------------|
||o------------------------|-------------------------|
||--10--------7--------5---|--7----(7)----7----(7)---|
||-------------------------|-------------------------|
||o--8--------5--------3---|--5----(5)----5----(5)---|
||-------------------------|-------------------------|


   E  +E  E  E  +E  E  E E   E  E E  E  E E E E
|--------------------------|---------------------|
|--------------------------|---------------------|
|--------------------------|---------------------|
|--5--(5)-5--5--(5)-5--5-5-|-5--5-5--5--5-5-5-5--|
|--3--(3)-3--3--(3)-3--3-3-|-3--3-3--3--3-3-3-3--|
|--2--(2)-2--2--(2)-2--2-2-|-2--2-2--2--3-3-3-3--|
|
|  Q.        Q.        Q     Q.      Q.     Q
|--------------------------|---------------------|
|--------------------------|---------------------|
|-14--------12--------10---|-9------10------9----|
|--------------------------|---------------------|
|-12--------10---------8---|-7-------8------7----|
|--------------------------|---------------------|
|
|  Q.        Q.        Q     Q.      Q.     Q
|--------------------------|---------------------|
|--------------------------|---------------------|
|-10---------9---------7---|-5-------3------5----|
|--------------------------|---------------------|
|--8---------7---------5---|-3-------1------3----|
|--------------------------|---------------------|


  E  +Q    E  +Q    E +E     E +Q   E +Q   E +E
|-------------------------|----------------------|
|-------------------------|----------------------|
|-3--(3)---3--(3)---3-(3)-|--3-(3)--3-(3)--3-(3)-|
|-3--(3)---3--(3)---3-(3)-|--3-(3)--3-(3)--3-(3)-|
|-1--(1)---1--(1)---1-(1)-|--1-(1)--1-(1)--1-(1)-|
|-------------------------|----------------------|
|
| Q.       Q.       Q        W
|-------------------------|----------------------|
|-------------------------|----------------------|
|-7-------10-------12-----|-14-------------------|
|-------------------------|----------------------|
|-5--------8-------10-----|-12-------------------|
|-------------------------|----------------------|
|
| Q.       Q.       Q        W
|-------------------------|----------------------|
|-------------------------|----------------------|
|-3--------7--------9-----|-10-------------------|
|-------------------------|----------------------|
|-1--------5--------7-----|--8-------------------|
|-------------------------|----------------------|


          PM             PM          PM
   E  +E  E  E  +E  E  E E    E  +E  E  E  +E  E +E  E
|--------------------------|----------------------------||
|------------6--(6)-6--6---|------------8--(8)-8-(8)-8-o||
|------------5--(5)-5--5---|------------7--(7)-7-(7)-7--||
|--3--(3)----3--(3)-3--3---|--5--(5)----5--(5)-5-(5)-5--||
|--3--(3)-3--------------3-|--5--(5)-5-----------------o||
|--3--(3)-3--------------3-|--5--(5)-5------------------||
|
|  Q.        Q.        Q      Q.        Q.        Q
|--------------------------|----------------------------||
|--------------------------|---------------------------o||
|-17--------19--------17---|-15--------14--------12-----||
|--------------------------|----------------------------||
|-15--------17--------15---|-13--------12--------10----o||
|--------------------------|----------------------------||
|
|  Q.        Q.        Q      Q.        Q.        Q
|--------------------------|----------------------------||
|--------------------------|---------------------------o||
|-14--------15--------14---|-12--------10---------9-----||
|--------------------------|----------------------------||
|-12--------13--------12---|-10---------8---------7----o||
|--------------------------|----------------------------||


 Pre-Verse
  Gtr I
     PM   PM   PM   PM    PM  PM  PM
   E E  E E  E E  E E   E E E E E E E E
|---------------------|-----------------||
|---------------------|-----------------||
|---------------------|-----------------||
|---------------------|---------5---5h7-||
|------------8----7---|-5---3-----------||
|-12-0-10-0----8----8-|---5---5---5-----||
|
| Gtr II
|    PM   PM   PM   PM    PM  PM  PM
|  E E  E E  E E  E E   E E E E E E E E
|---------------------|-----------------||
|---------------------|-----------------||
|---------------------|-----------------||
|---------------------|---------8-------||
|-----------12---10---|-8---7-------7h8-||
|-15-0-14-0----8----8-|---5---5---5-----||
|
|  H         H          W
|---------------------|-----------------||
|---------------------|-----------------||
|--7------------------|-----------------||
|---------------------|-----------------||
|--5------------------|-----------------||
|---------------------|-----------------||


   Verse III
    Gtrs I, II
     PM----------------------------------
     E E E E E E E E    E E E E E E E E
||-------------------|------------------|
||o------------------|------------------|
||-------------------|------------------|
||-------------------|------------------|
||o--0-0-x-x-x-x-x-x-|--x-x-x-x-x-x-x-x-|
||---0-0-x-x-x-x-x-x-|--x-x-x-x-x-x-x-x-|
|
|   Gtr III
|    E E Q   E E Q      E E Q   E E Q
||-------------------|------------------|
||o--6-6-----6-6-----|--6-6-----6-6-----|
||---7-7-----7-7-----|--7-7-----7-7-----|
||---7-7-----7-7-----|--7-7-----7-7-----|
||o------------------|------------------|
||-------------------|------------------|
|
|   Gtr V
|    W                  W
||--10---------------|-10---------------|
||o--6---------------|--8---------------|
||---7---------------|--7---------------|
||-------------------|------------------|
||o------------------|------------------|
||-------------------|------------------|


 -------------------------------------|
   E E E E E E E E     E  E E E E E E E
|------------------|---------------------|
|------------------|---------------------|
|------------------|---------------------|
|------------------|---------------------|
|--5-5-x-x-x-x-x-x-|---5--5-x-x-5-x-x-0--|
|--0-0-x-x-x-x-x-x-|---0--0-x-x-0-x-x-0--|
|
|  E E Q   E E Q       E  E Q   E E Q
|------------------|---------------------|
|--6-6-----6-6-----|---8--8-----8-8------|
|--7-7-----7-7-----|---7--7-----7-7------|
|--8-8-----8-8-----|---8--8-----8-8------|
|------------------|---------------------|
|------------------|---------------------|
|
|  W                  +W
|-10---------------|-(10)----------------|
|-11---------------|-(11)----------------|
|------------------|---------------------|
|--8---------------|--(8)----------------|
|------------------|---------------------|
|------------------|---------------------|


   PM---------------------------------|
   E E E E E E E E     E  E E E E E E E
|------------------|--------------------|
|------------------|--------------------|
|------------------|--------------------|
|------------------|--------------------|
|--0-0-x-x-x-x-x-x-|---0--0-x-x-3-3-x-x-|
|--0-0-x-x-x-x-x-x-|---0--0-x-x-3-3-x-x-|
|
|  E E Q   E E Q       E  E Q   E E Q
|------------------|--------------------|
|--6-6-----6-6-----|---6--6-----6-6-----|
|--7-7-----7-7-----|---7--7-----7-7-----|
|--7-7-----7-7-----|---7--7-----7-7-----|
|------------------|--------------------|
|------------------|--------------------|
|
| Gtr V
|  W                  +W
|-10---------------|-(10)---------------|
|--6---------------|--(6)---------------|
|--7---------------|--(7)---------------|
|------------------|--------------------|
|------------------|--------------------|
|------------------|--------------------|


   E  +E   E  E  E  +E   E  +E    E. E. E  Q     Q
|-------------------------------|-----------------------||
|-------------------------------|----------8-----8-----o||
|-------------------------------|----------7-----7------||
|--8--(8)--8--8--8--(8)--8--(8)-|-5--5--5--5-----5------||
|--8--(8)--8--8--8--(8)--8--(8)-|-5--5--5--5-----5-----o||
|--8--(8)--8--8--8--(8)--8--(8)-|-5--5--5---------------||
|
|      ~~~~      ~~~~~~~~~~       PM---------------|
|  E  +E   E  E  E  +E   E  +E    E. E. E  E  E  E  E
|-------------------------------|-----------------------||
|-------------------------------|----------------------o||
|-10-(10)-10-10-10-(10)-10-(10)S|=5--5--5---------------||
|-------------------------------|----------7--7--7--7---||
|-------------------------------|----------------------o||
|-------------------------------|-----------------------||
|
| Gtr IV
|      ~~~~      ~~~~~~~~~~       PM---------------|
|  E  +E   E  E  E  +E   E  +E    E. E. E  E  E  E  E
|-------------------------------|-----------------------||
|-------------------------------|----------------------o||
|--7--(7)--7--7--7--(7)--7--(7)S|=9--9--9S14-14-14-14---||
|-------------------------------|-----------------------||
|-------------------------------|----------------------o||
|-------------------------------|-----------------------||


 Pre-Chorus
      PM|      PM|           PM--|      PM|      PM|
   E  E  E  E  E  E  Q       S S  E  E  E  E  E  E  E
|-------------------------|---------------------------|
|-------------------------|---------------------------|
|--3--------3--------3----|----------2--------2-------|
|--3--3--3--3--3--3--3----|----------2--2--2--2--2--2-|
|--1--1--1--1--1--1--1----|--0-0--0--0--0--0--0--0--0-|
|-------------------------|--0-0--0-------------------|
|
|  PM--------------------------------------------------
|  E  E  E  E  E  E  E  E    E    E  E  E  E  E  E  E
|-10-10-13-10-13-10-10-12-|-10---10----10-13-10-12-10-|
|-------------------------|---------10----------------|
|-------------------------|---------------------------|
|-------------------------|---------------------------|
|-------------------------|---------------------------|
|-------------------------|---------------------------|
|
| Gtr IV
|  PM--------------------------------------------------
|  E  E  E  E  E  E  E  E    E    E  E  E  E  E  E  E
|-10-10-13-10-13-10-10-12-|-13---13----13-17-13-15-13-|
|-------------------------|---------13----------------|
|-------------------------|---------------------------|
|-------------------------|---------------------------|
|-------------------------|---------------------------|
|-------------------------|---------------------------|


      PM|      PM|                    PM    PM
   E  E  E  E  E  E  Q       E  E  E  E  E  E  E  E
|-------------------------|--------------------------|
|-------------------------|--------------------------|
|--3--------3--------3----|--2--2--2-----2-----3h=5--|
|--3--3--3--3--3--3--3----|--2--2--2--2--2--2--3--5--|
|--1--1--1--1--1--1--1----|--0--0--0--0--0--0--------|
|-------------------------|--------------------------|
|
|------------------------------------------------|
|  E  E  E  E  E  E  E  E    E  E  E  E  E  E  E  E
|-10-10-13-10-13-10-10-12-|-12-12-15-12-15-12-12-13--|
|-------------------------|--------------------------|
|-------------------------|--------------------------|
|-------------------------|--------------------------|
|-------------------------|--------------------------|
|-------------------------|--------------------------|
|
|------------------------------------------------|
|  E  E  E  E  E  E  E  E    E  E  E  E  E  E  E  E
|-10-10-13-10-13-10-10-12-|-15-15-18-15-18-15-15-17--|
|-------------------------|--------------------------|
|-------------------------|--------------------------|
|-------------------------|--------------------------|
|-------------------------|--------------------------|
|-------------------------|--------------------------|


      PM|      PM|           PM--|      PM|      PM|
   E  E  E  E  E  E  Q       S S  E  E  E  E  E  E  E
|-------------------------|---------------------------|
|-------------------------|---------------------------|
|--3--------3--------3----|----------2--------2-------|
|--3--3--3--3--3--3--3----|----------2--2--2--2--2--2-|
|--1--1--1--1--1--1--1----|--0-0--0--0--0--0--0--0--0-|
|-------------------------|--0-0--0-------------------|
|
|  PM--------------------------------------------------
|  E  E  E  E  E  E  E  E    E    E  E  E  E  E  E  E
|-10-10-13-10-13-10-10-12-|-10---10----10-13-10-12-10-|
|-------------------------|---------10----------------|
|-------------------------|---------------------------|
|-------------------------|---------------------------|
|-------------------------|---------------------------|
|-------------------------|---------------------------|
|
|  PM--------------------------------------------------
|  E  E  E  E  E  E  E  E    E    E  E  E  E  E  E  E
|-13-13-17-13-17-13-13-15-|-13---13----13-17-13-15-13-|
|-------------------------|---------13----------------|
|-------------------------|---------------------------|
|-------------------------|---------------------------|
|-------------------------|---------------------------|
|-------------------------|---------------------------|


      PM|      PM|
   E  E  E  E  E  E  Q       E  E  E  E  E  E  E  E
|-------------------------|--------------------------||
|-------------------------|--------------5--5--5--5--||
|--3--------3--------3----|--5--5--5--5--5--5--5--5--||
|--3--3--3--3--3--3--3----|--5--5--5--5--5--5--5--5--||
|--1--1--1--1--1--1--1----|--3--3--3--3--3--3--3--3--||
|-------------------------|--------------------------||
|
|------------------------------------------------|
|  E  E  E  E  E  E  E  E    E  E  E  E  E  E  E  E
|-10-10-13-10-13-10-10-12-|-12-10----10-15-13-12-13--||
|-------------------------|-------13-----------------||
|-------------------------|--------------------------||
|-------------------------|--------------------------||
|-------------------------|--------------------------||
|-------------------------|--------------------------||
|
|------------------------------------------------|
|  E  E  E  E  E  E  E  E    E  E  E  E  E  E  E  E
|-13-13-17-13-17-13-13-15-|-15-13-12-13-18-17-15-17--||
|-------------------------|--------------------------||
|-------------------------|--------------------------||
|-------------------------|--------------------------||
|-------------------------|--------------------------||
|-------------------------|--------------------------||


   Chorus
    Gtrs I, II
     E  +E  E E  +E  E E E    E E   E  E  E E   E  E
||-------------------------|-------------------------|
||o------------------------|-------------------------|
||-------------------------|-------------------------|
||---0--(0)-0-0--(0)-0-0-0-|--0-0---0--0--0-0---0--0-|
||o--0--(0)-0-0--(0)-0-0-0-|--0-0---0--0--0-0---0--0-|
||---0--(0)-0-0--(0)-0-0-0-|--0-0---0--0--0-0---0--0-|
|
|   Gtr III
|    Q.       Q.       Q      Q    +Q     Q    +Q
||-------------------------|-------------------------|
||o------------------------|-------------------------|
||---7--------7--------9---|-10---(10)---10---(10)---|
||-------------------------|-------------------------|
||o--5--------5--------7---|--8----(8)----8----(8)---|
||-------------------------|-------------------------|
|
|   Gtr IV
|    Q.       Q.       Q      Q    +Q     Q    +Q
||-------------------------|-------------------------|
||o------------------------|-------------------------|
||--10--------7--------5---|--7----(7)----7----(7)---|
||-------------------------|-------------------------|
||o--8--------5--------3---|--5----(5)----5----(5)---|
||-------------------------|-------------------------|


   E  +E  E  E  +E  E  E E   E  E E  E  E E E E
|--------------------------|---------------------|
|--------------------------|---------------------|
|--------------------------|---------------------|
|--5--(5)-5--5--(5)-5--5-5-|-5--5-5--5--5-5-5-5--|
|--3--(3)-3--3--(3)-3--3-3-|-3--3-3--3--3-3-3-3--|
|--2--(2)-2--2--(2)-2--2-2-|-2--2-2--2--3-3-3-3--|
|
|  Q.        Q.        Q     Q.      Q.     Q
|--------------------------|---------------------|
|--------------------------|---------------------|
|-14--------12--------10---|-9------10------9----|
|--------------------------|---------------------|
|-12--------10---------8---|-7-------8------7----|
|--------------------------|---------------------|
|
|  Q.        Q.        Q     Q.      Q.     Q
|--------------------------|---------------------|
|--------------------------|---------------------|
|-10---------9---------7---|-5-------3------5----|
|--------------------------|---------------------|
|--8---------7---------5---|-3-------1------3----|
|--------------------------|---------------------|


  E  +Q    E  +Q    E +E     E +Q   E +Q   E +E
|-------------------------|----------------------|
|-------------------------|----------------------|
|-3--(3)---3--(3)---3-(3)-|--3-(3)--3-(3)--3-(3)-|
|-3--(3)---3--(3)---3-(3)-|--3-(3)--3-(3)--3-(3)-|
|-1--(1)---1--(1)---1-(1)-|--1-(1)--1-(1)--1-(1)-|
|-------------------------|----------------------|
|
| Q.       Q.       Q        W
|-------------------------|----------------------|
|-------------------------|----------------------|
|-7-------10-------12-----|-14-------------------|
|-------------------------|----------------------|
|-5--------8-------10-----|-12-------------------|
|-------------------------|----------------------|
|
| Q.       Q.       Q        W
|-------------------------|----------------------|
|-------------------------|----------------------|
|-3--------7--------9-----|-10-------------------|
|-------------------------|----------------------|
|-1--------5--------7-----|--8-------------------|
|-------------------------|----------------------|


          PM             PM          PM
   E  +E  E  E  +E  E  E E    E  +E  E  E  +E  E +E  E
|--------------------------|----------------------------||
|------------6--(6)-6--6---|------------8--(8)-8-(8)-8-o||
|------------5--(5)-5--5---|------------7--(7)-7-(7)-7--||
|--3--(3)----3--(3)-3--3---|--5--(5)----5--(5)-5-(5)-5--||
|--3--(3)-3--------------3-|--5--(5)-5-----------------o||
|--3--(3)-3--------------3-|--5--(5)-5------------------||
|
|  Q.        Q.        Q      Q.        Q.        Q
|--------------------------|----------------------------||
|--------------------------|---------------------------o||
|-17--------19--------17---|-15--------14--------12-----||
|--------------------------|----------------------------||
|-15--------17--------15---|-13--------12--------10----o||
|--------------------------|----------------------------||
|
|  Q.        Q.        Q      Q.        Q.        Q
|--------------------------|----------------------------||
|--------------------------|---------------------------o||
|-14--------15--------14---|-12--------10---------9-----||
|--------------------------|----------------------------||
|-12--------13--------12---|-10---------8---------7----o||
|--------------------------|----------------------------||


   Re-Intro
    Gtr I
       PM----|    PM            PM----|    PM
     E E S S E  E E   E  E    E E S S E  E E   E  E
||-------------------------|------------------------|
||o------------------------|------------------------|
||-------------------------|------------------------|
||-------------------------|------------------------|
||o------------------------|------------------------|
||--12-0-0-0-0-12-0--/8p=7-|-12-0-0-0-0-12-0--/8p=7-|
|
|   Gtr II
|      PM----|    PM            PM----|    PM
|    E E S S E  E E   E  E    E E S S E  E E   E  E
||-------------------------|------------------------|
||o------------------------|------------------------|
||-------------------------|------------------------|
||-------------------------|------------------------|
||o------------------------|------------------------|
||--15-0-0-0-0-15-0-/12p10-|-15-0-0-0-0-15-0-/12p10-|


     PM   PM   PM   PM    PM  PM  PM
   E E  E E  E E  E E   E E E E E E E E
|---------------------|-------------------||
|---------------------|------------------o||
|---------------------|-------------------||
|---------------------|---------5---5h7---||
|------------8----7---|-5---3------------o||
|-12-0-10-0----8----8-|---5---5---5-------||
|
|    PM   PM   PM   PM    PM  PM  PM
|  E E  E E  E E  E E   E E E E E E E E
|---------------------|-------------------||
|---------------------|------------------o||
|---------------------|-------------------||
|---------------------|---------8---------||
|-----------12---10---|-8---7-------7h8--o||
|-15-0-14-0----8----8-|---5---5---5-------||


 Guitar Solo
  Gtr I
  W                  W
|------------------|-------------------|
|------------------|-------------------|
|-3----------------|-5-----------------|
|-3----------------|-5-----------------|
|-1----------------|-3-----------------|
|------------------|-------------------|
|
| Gtr II
| W                  W
|------------------|-------------------|
|------------------|-------------------|
|-3----------------|-5-----------------|
|-3----------------|-5-----------------|
|-1----------------|-3-----------------|
|------------------|-------------------|
|
| Gtr III
| PM   PM|   PM|     PM  PM
| E  E E E E E E E   E E E E S S E E E
|------------------|-------------------|
|---10-----8-----8-|---6---5-5h6p5-----|
|-7----7-7---7-9---|-7---7---------7p5-|
|------------------|-------------------|
|------------------|-------------------|
|------------------|-------------------|


  W                   H             H
|------------------|--------------------------|
|------------------|--------------------------|
|-7----------------|-10-------------9---------|
|-7----------------|--------------------------|
|-5----------------|--8-------------7---------|
|------------------|--------------------------|
|
| W                   H             H
|------------------|--------------------------|
|------------------|--------------------------|
|-7----------------|--7-------------5---------|
|-7----------------|--------------------------|
|-5----------------|--5-------------3---------|
|------------------|--------------------------|
|
| PM   PM|   PM|
|                            |-3--|
| E  E E E E E E E    E  E E S  S S E  E E E
|----------------8-|--------------------------|
|---10-----8-------|----11---8h10p8-8---------|
|-7----7-7---7-9---|--7----7----------10p7h9--|
|------------------|--------------------------|
|------------------|--------------------------|
|------------------|--------------------------|


  W                  W
|------------------|-------------------|
|------------------|-------------------|
|-3----------------|-5-----------------|
|-3----------------|-5-----------------|
|-1----------------|-3-----------------|
|------------------|-------------------|
|
| W                  W
|------------------|-------------------|
|------------------|-------------------|
|-7----------------|-9-----------------|
|------------------|-------------------|
|-5----------------|-7-----------------|
|------------------|-------------------|
|
| PM   PM|   PM|     PM  PM
| E  E E E E E E E   E E E E S S E E E
|------------------|-------------------|
|---10-----8-----8-|---6---5-5h6p5-----|
|-7----7-7---7-9---|-7---7---------7p5-|
|------------------|-------------------|
|------------------|-------------------|
|------------------|-------------------|


   W                    H               H
|-------------------|--------------------------|
|-------------------|--------------------------|
|--7----------------|--------------------------|
|--7----------------|--/3--------------/3------|
|--5----------------|--/3--------------/3------|
|-------------------|--/3--------------/3------|
|
|  W                    H               H
|-------------------|--------------------------|
|-------------------|--------------------------|
|-10----------------|-/10-------------/10------|
|-------------------|--------------------------|
|--8----------------|--/8--------------/8------|
|-------------------|--------------------------|
|
|  PM   PM|   PM|
|                              |-3--|
|  E  E E E E E E E     E  E E S  S S   Q   Q
|-----------------8-|--------------------------|
|----10-----8-------|-----11---8h10p8--10s=15\-|
|--7----7-7---7-9---|---7----7-----------------|
|-------------------|--------------------------|
|-------------------|--------------------------|
|-------------------|--------------------------|


  Gtrs I, II
  E  E  E  E E  E E  E    E  E  E E E    E  E E
|----------------------|------------------------|
|----------------------|------------------------|
|-3--3--3--3-3--3-3--3-|--5--5--5-5-5----5--5-5-|
|-3--3--3--3-3--3-3--3-|--5--5--5-5-5----5--5-5-|
|-1--1--1--1-1--1-1--1-|--3--3--3-3-3----3--3-3-|
|----------------------|------------------------|
|
| Gtr III
| PM    PM|     PM|       PM    PM
| E  E  E  E E  E E  E    E  E  E E S  S E  E E
|----------------------|------------------------|
|---10-------8-------8-|-----6----5-5h=6p5------|
|-7-----7--7----7-9----|--7-----7-----------7p5-|
|----------------------|------------------------|
|----------------------|------------------------|
|----------------------|------------------------|
|
| Gtr IV
| PM    PM|     PM|       PM    PM
| E  E  E  E E  E E  E    E  E  E E S  S E  E E
|----------------------|------------------------|
|---10-------8----8-11-|----10----8-8h10p8------|
|-7----10-10---10------|-10----10----------10p9-|
|----------------------|------------------------|
|----------------------|------------------------|
|----------------------|------------------------|


  E  E E E E  E +E   E    E  E  E E      E  E Q
|----------------------|----------------------------|
|----------------------|----------------------------|
|-7--7-7-7-7--7-(7)--7-|----------------------------|
|-7--7-7-7-7--7-(7)--7-|--5--5--5-5------5--5-5-----|
|-5--5-5-5-5--5-(5)--5-|--5--5--5-5------5--5-5-----|
|----------------------|--5--5--5-5------5--5-5-----|
|
| PM   PM|    PM|
|                                 |-3--|
| E  E E E E  E  E   E    E  E  E S  S S E  E E  E
|--------------------8-|----------------------------|
|---10-----8-----------|----11----8h10p8-8----------|
|-7----7-7----7--9-----|--7-----7----------10p7h=9--|
|----------------------|----------------------------|
|----------------------|----------------------------|
|----------------------|----------------------------|
|
| PM   PM|    PM|
|                                 |-3--|
| E  E E E E  E  E   E    E  E  E S  S S E  E E  E
|----------------------|----------------------------|
|---10-----8-----8--10-|-----8----------------------|
|-7----7-7---10--------|-10----10-9h10p9-9p=7-------|
|----------------------|----------------------8h10--|
|----------------------|----------------------------|
|----------------------|----------------------------|


  E  E  E  E E  E E  E    E  E  E E E    E  E E
|----------------------|------------------------|
|----------------------|------------------------|
|-3--3--3--3-3--3-3--3-|--5--5--5-5-5----5--5-5-|
|-3--3--3--3-3--3-3--3-|--5--5--5-5-5----5--5-5-|
|-1--1--1--1-1--1-1--1-|--3--3--3-3-3----3--3-3-|
|----------------------|------------------------|
|
| PM    PM|     PM|       PM    PM
| E  E  E  E E  E E  E    E  E  E E S  S E  E E
|----------------------|------------------------|
|---10-------8-------8-|-----6----5-5h=6p5------|
|-7-----7--7----7-9----|--7-----7-----------7p5-|
|----------------------|------------------------|
|----------------------|------------------------|
|----------------------|------------------------|
|
| PM    PM|     PM|       PM    PM
| E  E  E  E E  E E  E    E  E  E E S  S E  E E
|----------------------|------------------------|
|---10-------8----8-11-|----10----8-8h10p8------|
|-7----10-10---10------|-10----10----------10p9-|
|----------------------|------------------------|
|----------------------|------------------------|
|----------------------|------------------------|


  E  E E E E  E +E   E    E  E  E E       E E +E  +E
|----------------------|-------------------------------||
|----------------------|-------------------------------||
|-7--7-7-7-7--7-(7)--7-|-------------------------------||
|-7--7-7-7-7--7-(7)--7-|--8--8--8-8-------8-8-(8)-(8)--||
|-5--5-5-5-5--5-(5)--5-|--8--8--8-8-------8-8-(8)-(8)--||
|----------------------|--8--8--8-8-------8-8-(8)-(8)--||
|
| PM   PM|    PM|
|                                 |-3--|
| E  E E E E  E  E   E    E  E  E S  S S  Q    Q
|--------------------8-|-------------------------------||
|---10-----8-----------|----11----8h10p8-10s==15\------||
|-7----7-7----7--9-----|--7-----7----------------------||
|----------------------|-------------------------------||
|----------------------|-------------------------------||
|----------------------|-------------------------------||
|
| PM   PM|    PM|
|                                 |-3--|
| E  E E E E  E  E   E    E  E  E S  S S  Q    Q
|----------------------|-------------------------------||
|---10-----8-----8--10-|-----8-------------------------||
|-7----7-7---10--------|-10----10-9h10p9-10s==15\------||
|----------------------|-------------------------------||
|----------------------|-------------------------------||
|----------------------|-------------------------------||


 Interlude
  Gtr I
   W               +W            W            +W
|-^5-------------|-(5)--------|-^3----------|-(3)----|
|-^6-------------|-(6)--------|-^5----------|-(5)----|
|-^5-------------|-(5)--------|-^5----------|-(5)----|
|-^5-------------|-(5)--------|-^5----------|-(5)----|
|-^3-------------|-(3)--------|-^3----------|-(3)----|
|----------------|------------|-------------|--------|
|
| Gtr V
|  W               +W            W            +W
|--5-------------|-(5)--------|--6----------|-(6)----|
|--6-------------|-(6)--------|--5----------|-(5)----|
|--5-------------|-(5)--------|--5----------|-(5)----|
|--5-------------|-(5)--------|--5----------|-(5)----|
|--3-------------|-(3)--------|--3----------|-(3)----|
|--1-------------|-(1)--------|-------------|--------|
|
| Gtr VI
|  Q  Q  Q   Q      W            Q  Q  H      +W
|----------------|------------|-------------|--------|
|-----------(3)--|-(3)--------|--1----------|--------|
|-----0--2--(2)--|--2---------|-----2-------|--------|
|--0-------------|------------|--------3----|-(3)----|
|----------------|------------|-------------|--------|
|----------------|------------|-------------|--------|


   W              W            W              W
|-^5----------|-^-6---------|-^5-----------|-^3--------||
|-^6----------|-^-6---------|-^6-----------|-^5--------||
|-^7----------|-^-7---------|-^5-----------|-^5--------||
|-^7----------|-^(7)--------|-^5-----------|-^5--------||
|-^5----------|-^(5)--------|-^3-----------|-^3--------||
|-------------|-------------|--------------|-----------||
|
|  W             +W            W              W
|-10----------|-(10)--------|--5-----------|--6--------||
|-11----------|-(11)--------|--6-----------|--5--------||
|-10----------|-(10)--------|--5-----------|--5--------||
|-12----------|-(12)--------|--------------|-----------||
|--8----------|--(8)--------|--3-----------|--3--------||
|-------------|-------------|--------------|-----------||
|
|  Q  Q  H       +W            Q  Q  Q  Q     Q  Q  H
|-------------|-------------|--5-----------|-----------||
|--------6----|--(6)--------|--------6-----|-----------||
|-----3-------|-------------|-----5--------|--5--------||
|-----3-------|-------------|-----------5--|--------5--||
|--1----------|-------------|--------------|-----3-----||
|-------------|-------------|--------------|-----------||


   Chorus
    Gtrs I, II
     E  +E  E E  +E  E E E    E E   E  E  E E   E  E
||-------------------------|-------------------------|
||o------------------------|-------------------------|
||-------------------------|-------------------------|
||---0--(0)-0-0--(0)-0-0-0-|--0-0---0--0--0-0---0--0-|
||o--0--(0)-0-0--(0)-0-0-0-|--0-0---0--0--0-0---0--0-|
||---0--(0)-0-0--(0)-0-0-0-|--0-0---0--0--0-0---0--0-|
|
|   Gtr III
|    Q.       Q.       Q      Q    +Q     Q    +Q
||-------------------------|-------------------------|
||o------------------------|-------------------------|
||---7--------7--------9---|-10---(10)---10---(10)---|
||-------------------------|-------------------------|
||o--5--------5--------7---|--8----(8)----8----(8)---|
||-------------------------|-------------------------|
|
|   Gtr IV
|    Q.       Q.       Q      Q    +Q     Q    +Q
||-------------------------|-------------------------|
||o------------------------|-------------------------|
||--10--------7--------5---|--7----(7)----7----(7)---|
||-------------------------|-------------------------|
||o--8--------5--------3---|--5----(5)----5----(5)---|
||-------------------------|-------------------------|


   E  +E  E  E  +E  E  E E   E  E E  E  E E E E
|--------------------------|---------------------|
|--------------------------|---------------------|
|--------------------------|---------------------|
|--5--(5)-5--5--(5)-5--5-5-|-5--5-5--5--5-5-5-5--|
|--3--(3)-3--3--(3)-3--3-3-|-3--3-3--3--3-3-3-3--|
|--2--(2)-2--2--(2)-2--2-2-|-2--2-2--2--3-3-3-3--|
|
|  Q.        Q.        Q     Q.      Q.     Q
|--------------------------|---------------------|
|--------------------------|---------------------|
|-14--------12--------10---|-9------10------9----|
|--------------------------|---------------------|
|-12--------10---------8---|-7-------8------7----|
|--------------------------|---------------------|
|
|  Q.        Q.        Q     Q.      Q.     Q
|--------------------------|---------------------|
|--------------------------|---------------------|
|-10---------9---------7---|-5-------3------5----|
|--------------------------|---------------------|
|--8---------7---------5---|-3-------1------3----|
|--------------------------|---------------------|


  E  +Q    E  +Q    E +E     E +Q   E +Q   E +E
|-------------------------|----------------------|
|-------------------------|----------------------|
|-3--(3)---3--(3)---3-(3)-|--3-(3)--3-(3)--3-(3)-|
|-3--(3)---3--(3)---3-(3)-|--3-(3)--3-(3)--3-(3)-|
|-1--(1)---1--(1)---1-(1)-|--1-(1)--1-(1)--1-(1)-|
|-------------------------|----------------------|
|
| Q.       Q.       Q        W
|-------------------------|----------------------|
|-------------------------|----------------------|
|-7-------10-------12-----|-14-------------------|
|-------------------------|----------------------|
|-5--------8-------10-----|-12-------------------|
|-------------------------|----------------------|
|
| Q.       Q.       Q        W
|-------------------------|----------------------|
|-------------------------|----------------------|
|-3--------7--------9-----|-10-------------------|
|-------------------------|----------------------|
|-1--------5--------7-----|--8-------------------|
|-------------------------|----------------------|


          PM             PM          PM
   E  +E  E  E  +E  E  E E    E  +E  E  E  +E  E +E  E  4x
|--------------------------|----------------------------||
|------------6--(6)-6--6---|------------8--(8)-8-(8)-8-o||
|------------5--(5)-5--5---|------------7--(7)-7-(7)-7--||
|--3--(3)----3--(3)-3--3---|--5--(5)----5--(5)-5-(5)-5--||
|--3--(3)-3--------------3-|--5--(5)-5-----------------o||
|--3--(3)-3--------------3-|--5--(5)-5------------------||
|
|  Q.        Q.        Q      Q.        Q.        Q     4x
|--------------------------|----------------------------||
|--------------------------|---------------------------o||
|-17--------19--------17---|-15--------14--------12-----||
|--------------------------|----------------------------||
|-15--------17--------15---|-13--------12--------10----o||
|--------------------------|----------------------------||
|
|  Q.        Q.        Q      Q.        Q.        Q     4x
|--------------------------|----------------------------||
|--------------------------|---------------------------o||
|-14--------15--------14---|-12--------10---------9-----||
|--------------------------|----------------------------||
|-12--------13--------12---|-10---------8---------7----o||
|--------------------------|----------------------------||


 Outro
  Gtr I
     PM----|    PM            PM----|    PM
   E E S S E  E E   E  E    E E S S E  E E   E  E
|------------------------|------------------------|
|------------------------|------------------------|
|------------------------|------------------------|
|------------------------|------------------------|
|------------------------|------------------------|
|-12-0-0-0-0-12-0--/8p=7-|-12-0-0-0-0-12-0--/8p=7-|
|
| Gtr II
|    PM----|    PM            PM----|    PM
|  E E S S E  E E   E  E    E E S S E  E E   E  E
|------------------------|------------------------|
|------------------------|------------------------|
|------------------------|------------------------|
|------------------------|------------------------|
|------------------------|------------------------|
|-15-0-0-0-0-15-0-/12p10-|-15-0-0-0-0-15-0-/12p10-|


     PM   PM   PM   PM    PM  PM  PM
   E E  E E  E E  E E   E E E E E E E E
|---------------------|-----------------|
|---------------------|-----------------|
|---------------------|-----------------|
|---------------------|---------5---5h7-|
|------------8----7---|-5---3-----------|
|-12-0-10-0----8----8-|---5---5---5-----|
|
|    PM   PM   PM   PM    PM  PM  PM
|  E E  E E  E E  E E   E E E E E E E E
|---------------------|-----------------|
|---------------------|-----------------|
|---------------------|-----------------|
|---------------------|---------8-------|
|-----------12---10---|-8---7-------7h8-|
|-15-0-14-0----8----8-|---5---5---5-----|


     PM----|    PM            PM----|    PM
   E E S S E  E E   E  E    E E S S E  E E   E  E
|------------------------|------------------------|
|------------------------|------------------------|
|------------------------|------------------------|
|------------------------|------------------------|
|------------------------|------------------------|
|-12-0-0-0-0-12-0--/8p=7-|-12-0-0-0-0-12-0--/8p=7-|
|
|    PM----|    PM            PM----|    PM
|  E E S S E  E E   E  E    E E S S E  E E   E  E
|------------------------|------------------------|
|------------------------|------------------------|
|------------------------|------------------------|
|------------------------|------------------------|
|------------------------|------------------------|
|-15-0-0-0-0-15-0-/12p10-|-15-0-0-0-0-15-0-/12p10-|


     PM   PM   PM   PM    PM  PM------|
   E E  E E  E E  E E   E E E E E E E E
|---------------------|-----------------|
|---------------------|-----------------|
|---------------------|-----------------|
|---------------------|-----------------|
|------------8----7---|-5---3-----------|
|-12-0-10-0----8----8-|---5---0-5-5-5-5-|
|
|    PM   PM   PM   PM    PM  PM------|
|  E E  E E  E E  E E   E E E E E E E E
|---------------------|-----------------|
|---------------------|-----------------|
|---------------------|-----------------|
|---------------------|-----------------|
|-----------12---10---|-8---7-----------|
|-15-0-14-0----8----8-|---5---0-2-2-2-2-|


  Gtrs I, II
  W          +W           +W           +W
|----------|------------|------------|--------*|
|----------|------------|------------|--------*|
|----------|------------|------------|--------*|
|----------|------------|------------|--------*|
|-0--------|-(0)--------|-(0)--------|-(0)----*|
|-0--------|-(0)--------|-(0)--------|-(0)----*|



Duration Legend
---------------
W - whole; H - half; Q - quarter; E - 8th; S - 16th; T - 32nd; X - 64th; a - acciaccatura
+ - note tied to previous; . - note dotted; .. - note double dotted
Uncapitalized letters represent notes that are staccato (1/2 duration)
Irregular groupings are notated above the duration line
Duration letters will always appear directly above the note/fret number it represents the
duration for.  Duration letters with no fret number below them represent rests.  Multi-
bar rests are notated in the form Wxn, where n is the number of bars to rest for.  Low
melody durations appear below the staff

Tablature Legend
----------------
 h   - hammer-on
 p   - pull-off
 b   - bend
 pb  - pre-bend
 r   - bend release (if no number after the r, then release immediately)
 /\  - slide into or out of (from/to "nowhere")
 s   - legato slide
 S   - shift slide
<n> - natural harmonic
[n]  - artificial harmonic
n(n) - tapped harmonic
 ~   - vibrato
 tr  - trill
 T   - tap
 TP  - trem. picking
 PM  - palm muting
\n/  - tremolo bar dip; n = amount to dip
 \n  - tremolo bar down
 n/  - tremolo bar up
/n\  - tremolo bar inverted dip
 =   - hold bend; also acts as connecting device for hammers/pulls
 <> - volume swell (louder/softer)
 x   - on rhythm slash represents muted slash
 o   - on rhythm slash represents single note slash
comments
We did not receive enough feedback on this tab! Please rate:
print report bad tab
1 2 3 4 5
2 comments total.
0 reply
Delta_Mike wrote on April 3 2010, 04:28 pm

Excellent work!

0 reply
AJSaw wrote on September 12 2010, 03:09 am

I hate this tuning!

great tab btw

I want to post or [tab]
guest
You may want to rate the tab now too:
select rating
Please do not post tabs as comments. Select "correction" instead!