Oops, an error
Loading. Please wait.

Acoustic Medley Tab

ver4
ver4
More versions @911Tabs.com
2,769 views 75 this week
no commentswrite comment
1 2 3 4 5
excellent!
x 4
Autoscroll
+/-
esc
set tempo
stop
Contributor
Tuning
D# G# C# F# A# D#
WARNING: You are trying to view
                                    content from Ultimate-Guitar.com
                                    in an unauthorized application,
                                    which is prohibited.

                                    Please use an official Ultimate
                                    Guitar Tabs application for iPhone,
                                    iPad or Android to access legitimate
                                    chords, guitar, bass, and drum tabs
                                    from Ultimate-Guitar.com database.

                                    Type "ultimate guitar tabs" in Apple
                                    App Store's or Android Market's
                                    search to find the application.
I Tabbed out all three guitars for this song. Song is played Half Step down.
Tuning: Eb,Ab,Db,Gb,Bb,Eb,
There might be some minor mistakes but im sure its quite accurate.
Structure of the song is at the bottom
************************************

| /   slide up
| \   slide down
| h   hammer-on
| p   pull-off
| ~   vibrato
| +   harmonic
| x   Mute note
| b   Bend
| pb  Pre-bend
| br  Bend release
| pbr Pre-bend release
| brb Bend release bend

************************************
---------------------------------Guitar 1------------------------------------
RIFF A:
|-----------------|-----------------|
|1-----1-----3/5--|1-----1-----3/5--|
|--2-----2--------|--2-----2--------|
|-----------------|-----------------|
|----0-----0------|----0-----0------|
|-----------------|-----------------|
 
|---------------------|---------------------|
|-/10-~--8----~--6--~-|8--~-6--~-5--~-------|
|---------------------|---------------7---~-|
|---------------------|---------------------|
|---------------------|---------------------|
|---------------------|---------------------|


RIFF B:
|-------------------|-----------------|
|5--~--------------5|6-5--------------|
|-------7---~----7--|----7-5--~-5-5-7-|
|-------------------|-----------------|
|-------------------|-----------------|
|-------------------|-----------------|
 
|--------------------|----------------|
|5---6-/8---6-5-6-5--|----5--6/8------|
|--5----------------7|5---------------|
|--------------------|--7-------------|
|--------------------|----------------|
|--------------------|----------------|

Second time you      |----------------|      
play this ending     |----5-----------|    
                     |5-----7---------|      
                     |--7-------------|      
                     |----------------|      
                     |----------------| 


RIFF C:
|-----------------|-----------------|
|1-----1-----3/5--|1-----1-----3/5--|
|--2-----2--------|--2-----2--------|
|-----------------|-----------------|
|----0-----0------|----0-----0------|
|-----------------|-----------------|
 
|---------------------|---------------------|
|-/10-~--8----~--6--~-|8--~-6--~-5--~-------|
|---------------------|---------------7---~-|
|---------------------|---------------------|
|---------------------|---------------------|
|---------------------|---------------------|


RIFF D:
|-----------------------|-----------------------|
|-----------------------|-----------------------|
|-5-----9-----7-----4---|-2-----5-----4-----7---|
|-----------------------|-----------------------|
|----0-----0-----0----0-|----0-----0-----0----0-|
|-----------------------|-----------------------|     

|-----------------------|-----------------------|
|-----------------------|-----------------------|
|-5-----9-----7-----4---|-2-----5-----4-----2---|
|-----------------------|-----------------------|
|----0-----0-----0----0-|----0-----0-----0----0-|
|-----------------------|-----------------------|                 

RIFF E:
|-------------------|----------------|
|-------------------|----------------|
|-------------------|----------------|
|-------------------|---------9-7-7--|
|--7---9-9-h10--10--|--7---10--------|
|0---0--------------|0---0-----------|

|-------------------|---------------------|
|-------------------|---------------------|
|-------------------|---------------------|
|-------------------|---------------------|
|--7---5-5-h7---7---|7---9-10-10-9h10-7-9-|
|0---0--------------|---------------------|

RIFF F: 
|----------------|------------------|
|-------7---5--8-|--7---5-4---------|
|----------------|-----------7-5-4--|
|----9-----------|------------------|
|--7-------------|------------------|
|0---------------|------------------|

|-----------------|---------------------|
|-----------------|---------------------|
|---------------7-|7-7-9----7-----------|
|7-\5-5-----------|------10---9-10-7----|
|-----------------|------------------10-|
|-----------------|---------------------|
 
Play this riff the second time
|------------------|------------------|
|------7/5-5---5h8-|--7--7/12--10--12-|
|------------------|------------------|
|----9-------------|------------------|
|--7---------------|------------------|
|0-----------------|------------------|

|-----------------|---------------------|
|10/8-8-----------|---------------------|
|---------------7-|7-7-9----7-----------|
|-----------------|------10---9-10-7----|
|-----------------|------------------10-|
|-----------------|---------------------|
 

RIFF G:
|----------------|------------------|
|8-~---7-~-------|------------------|
|------------7-~-|------------------|
|----------------|7-h9-10-10--------|
|----------------|------------------|
|----------------|------------------|

|----------------|
|8-7-------------|
|----7-----------|
|------7---------|
|----------10--9-|
|----------------|


OUTRO
|--------0-------|0---------------|
|------0---0-----|0---------------|
|------------0---|0---------------|
|----2---------2-|2---------------|
|--2-------------|2---------------|
|0---------------|0---------------|

---------------------------------Guitar 2------------------------------------

 RIFF A:
|-----------------|-----------------|
|-----------------|-----------------|
|5-----5-----7-/9-|5-----5-----7-/9-|
|--7-----7--------|--7-7---7-7------|
|----0-----0------|----0-----0------|
|-----------------|-----------------|

|---------------------|---------------------|
|6----~--5--~---------|5--~-----------------|
|----------------7--~-|-----7--~-5--~-4-~---|
|---------------------|---------------------|
|---------------------|---------------------|
|---------------------|---------------------|


RIFF B:
|-------------------|-----------------|
|-------------------|-----------------|
|5--~---4---~----4-5|7-5-4----------7-|
|-------------------|------7--~---7---|
|-------------------|-----------------|
|-------------------|-----------------|

|--------------------|----------------|
|5---6-/8---6-5-6-5--|----5-----------|
|--5----------------7|5-----7---------|
|--------------------|--7-------------|
|--------------------|----------------|
|--------------------|----------------|


RIFF C:
|-----------------|-----------------|
|-----------------|-----------------|
|5-----5-----7-/9-|5-----5-----7-/9-|
|--7-----7--------|--7-----7--------|
|----0-----0------|----0-----0------|
|-----------------|-----------------|
 
|---------------------|---------------------|
|6----~--5--~---------|5--~-----------------|
|----------------7--~-|-----7--~-5--~-4-~---|
|---------------------|---------------------|
|---------------------|---------------------|
|---------------------|---------------------|


RIFF D:
|-----------------------|-----------------------|
|-----------------------|-----------------------|
|-----------------------|-----------------------|
|-7----10-----9-----5---|-3-----7-----5-----9---|
|----0-----0-----0----0-|----0-----0-----0----0-|
|-----------------------|-----------------------|     

|-----------------------|-----------------------|
|-----------------------|-----------------------|
|-----------------------|-----------------------|
|-7----10-----9-----5---|-3-----7-----5-----3---|
|----0-----0-----0----0-|----0-----0-----0----0-|
|-----------------------|-----------------------|   
              
RIFF E:
|-------------------|----------------|
|-------------------|----------------|
|-------------------|----------------|
|--2---0-0-h2---2---|--2---2/5-4-4---|
|-------------------|----------------|
|0---0--------------|0---0-----------|

|-------------------|---------------------|
|-------------------|---------------------|
|-------------------|------2-4-4-2h4----2-|
|--2---4-4-h5---5---|5---5------------5---|
|-------------------|---------------------|
|0---0--------------|---------------------|


RIFF F:
|--------------7-|--5---------------|
|-------7---5----|-----8---7-5-4----|
|----------------|---------------7--|
|-----9----------|------------------|
|--7-------------|------------------|
|0---------------|------------------|

|-----------------|---------------------|
|-----------------|---------------------|
|5-\4-4---------4-|4-4-5----4-----------|
|-----------------|-------7---5--7-4----|
|-----------------|-------------------5-|
|-----------------|---------------------|


Play this riff the second time
|--------------5h7-|--5--5/10--8---10-|
|------7/5-5-------|------------------|
|------------------|------------------|
|----9-------------|------------------|
|--7---------------|------------------|
|0-----------------|------------------|

|8-\7-7-----------|---------------------|
|-----------------|---------------------|
|---------------4-|4-4-5----4-----------|
|-----------------|-------7---5--7-4----|
|-----------------|-------------------5-|
|-----------------|---------------------|
 

RIFF G:
|----------------|------------------|
|8-~---7-~-------|------5-5---------|
|------------7-~-|5--7--------------|
|----------------|------------------|
|----------------|------------------|
|----------------|------------------|

|----------------|
|8-7-------------|
|----7-----------|
|------7---5-4---|
|----------------|
|----------------|


OUTRO
|--------0-------|0---------------|
|------0---0-----|0---------------|
|------------0---|0---------------|
|----2---------2-|2---------------|
|--2-------------|2---------------|
|0---------------|0---------------|

---------------------------------Guitar 3------------------------------------

RIFF A:
|-----------------------|-----------------------|
|-----------------------|-----------------------|
|-----------------------|-----------------------|
|-----------------------|-----------------------|
|----0-0-0-0-0-0--3-3---|----0-0-0-0-0-0--3-3---|
|-----------------------|-----------------------|

|-----------------------|-----------------------|
|-----------------------|-----------------------|
|-----------------------|-----------------------|
|-----------------------|----5-5-4-4-2-2-4-4----|
|----3-3-3-3-3-3-3-3----|----3-3-2-2-0-0-2-2----|
|----1-1-1-1-1-1-1-1----|-----------------------|


RIFF B:
|-----------------------|-----------------------|
|-----------------------|-----------------------|
|-------2------0--------|-----------------2-----|
|-----2------0---0------|---------------2---2---|
|---3------2-------2----|------3--0--3--------3-|
|-----------------------|---1-------------------|

|-----------------------|-----------------------|
|-----------------------|-----------------------|
|-----------------------|-----------------------|
|-------------7---7--7--|-----------------5-----|
|----7--7--7--5---5--5--|----3--3--3--5-----5---|
|----5--5--5------------|----1--1--1--3-------3-|


RIFF C:
|-----------------------|-----------------------|
|-----------------------|-----------------------|
|-----------------------|-----------------------|
|-----------------------|-----------------------|
|----0-0-0-0-0-0--3-3---|----0-0-0-0-0-0--3-3---|
|-----------------------|-----------------------|

|-----------------------|-----------------------|
|-----------------------|-----------------------|
|-----------------------|-----------------------|
|-----------------------|-----------------------|
|----3-3-3-3-3-3-3-3----|--3--0--2----0----2--0-|
|----1-1-1-1-1-1-1-1----|----------3-----3------|


RIFF D:
|-----------------------|-----------------------|
|-1-----5-----3-----0---|-------1-----0-----3---|
|-2-----5-----4-----0---|-2-----2-----0-----4---|
|-----------------------|-3---------------------|
|---0-----0-----0-----0-|---0-----0-----0-----0-|
|-----------------------|-----------------------|

|-----------------------|-----------------------|
|-1-----5-----3-----0---|-------1-----0---------|
|-2-----5-----4-----0---|-2-----2-----0-----2---|
|-----------------------|-3-----------------3---|
|---0-----0-----0-----0-|---0-----0-----0-----0-|
|-----------------------|-----------------------|




RIFF E:
|-------------------|-------------------|
|-------------------|-------------------|
|---------------0---|---------------0---|
|----2--------2---2-|----2--------4---4-|
|--2---2----3-------|--2---2----5-------|
|0------------------|0------------------|

|-------------------|-------------------|
|-------------------|-------------------|
|---------------0---|----0----------0---|
|----2--------2---2-|--2---2------4---4-|
|--2---2----3-------|3-----------5------|
|0------------------|-------------------|


RIFF F:
|-----------------|----------------------|
|-----------------|----------------------|
|-----------------|----------------------|
|----------5----5-|---2----2----2----7---|
|--2----2--3----3-|---0----0----0----5---|
|--0----0---------|----------------------|

|---------------------|------------------|
|---------------------|------------------|
|---------------------|------------------|
|--------2--4--5---5--|--7---7---7---7---|
|-----2--------3---3--|--5---5---5---5---|
|--0------------------|------------------|


RIFF G:
|-------------------|---------------------|
|-------------------|---------------------|
|-------------------|---------------------|
|------2------4-----|---------------10----|
|----2------5---5---|-------------10--10--|
|--0------2-------2-|--5--7--8--8--------8|

|-------------------|
|-------------------|
|--------------7----|
|-------10---7--7---|
|----10----5------5-|
|--8----------------|


OUTRO:
|--------0-------|0---------------|
|------0---0-----|0---------------|
|------------0---|0---------------|
|----2---------2-|2---------------|
|--2-------------|2---------------|
|0---------------|0---------------|
 
STRUCTURE OF SONG:
RIFF A x2
RIFF B x2
RIFF C x2
RIFF D x2
RIFF E x2
RIFF D x2
RIFF F x2
RIFF G x1
RIFF E x2
OUTRO
comments
print report bad tab
I want to post or [tab]
guest
You may want to rate the tab now too:
select rating
Please do not post tabs as comments. Select "correction" instead!