Oops, an error
Loading. Please wait.

Behind Space Tab

ver1
ver1

Whole song

More versions @911Tabs.com
10,541 views 8 this week
no commentswrite comment
1 2 3 4 5
excellent!
x 2
Autoscroll
+/-
esc
set tempo
stop
WARNING: You are trying to view
                                    content from Ultimate-Guitar.com
                                    in an unauthorized application,
                                    which is prohibited.

                                    Please use an official Ultimate
                                    Guitar Tabs application for iPhone,
                                    iPad or Android to access legitimate
                                    chords, guitar, bass, and drum tabs
                                    from Ultimate-Guitar.com database.

                                    Type "ultimate guitar tabs" in Apple
                                    App Store's or Android Market's
                                    search to find the application.
Made by Ron Tummers again.

Nebular Frost tabs. PFFFFFF!!


.  - palm mute                    /  - slide up to
\  - slide down to                ~  - vibrato
h  - hammer on                    b  - bend
p  - pull off                          Suffixes for bend
ph - pinch harmonic                        f - full bend    h - half
bend
*  - see comment                           r - release      t - tap bend
X  - percussion mute                       ~ - vibrato bend
@  - slight palm mute             () - ghost note, sustained note
"  - tremolo pick until next note

Behind Space Live

C# Tuning (Each String 1.5 Steps down)

Riff A  (Main Riff)
|--------------------------------------|
|---5555335555666--------5555335555666-|
|--------------------------------------|Gtr I
|--------------------------------------|
|-0-------------------0----------------|
|--------------------------------------|
|                                      |
|--------------------------------------|
|--------------------------------------|
|---5555445555777--------5555445555777-|Gtr II
|--------------------------------------|
|-0-------------------0----------------|
|--------------------------------------|


|---------------------------------------------------|
|---------------------------------------------------|
|----999999-7777-10101010-----999999-10101010-7777--|Gtrs I
|----999999-7777-10101010-----999999-10101010-7777--|  & II
|----777777-5555--8-8-8-8-----777777--8-8-8-8-5555--|
|-0------------------------0------------------------|


Repeat Riff A (1 Time)


Riff B
|---------------------------------------------------------|
|---------------------------------------------------------|
|-------------7------------7------------------------------|Gtr I
|-7-----9-----------10-----------10------9---7---9---10---|
|---0-0---0-0---0-0----0-0---0-0----0-0----0---0---0------|
|---------------------------------------------------------|
|                                                         |
|---------------------------------------------------------|
|---------------------------------------------------------|
|-2-----------4------------2------------------------------|Gtr II
|-------2-----------3------------2*-------p---p---p----p--|
|---0-0---0-0---0-0----0-0---0-0----0-0-10-0-7-0-8-0-10-0-|
|---------------------------------------------------------|
                                 *=note bent up 1/4 step

Riff C.1                               
|---------------------------------------------------------|
|---------------------------------------------------------|
|-2-----------------2-2-2-2-------------5-----------------|Gtr I
|-2-----------------2-2-2-2-------------5----3---3----5---|
|-0-----------------0-0-0-0-------------3----3---3----5---|
|--------------------------------------------1---1----3---|
|                                                         |
|---------------------------------------------------------|
|---------------------------------------------------------|
|-2-----------4------------2------------------------------|Gtr II
|-------2-----------3------------2*-------p---p---p----p--|
|---0-0---0-0---0-0----0-0---0-0----0-0-10-0-7-0-8-0-10-0-|
|---------------------------------------------------------|

Repeat Riff A (2 Times)


Riff D
|-------------------------------------------------------------------|
|-------------------------------------------------------------------|
|---------------45--------------------------------------------------|Gtr I
|-------23222222--77777735333333330000002320000000022220000---------|
|-000000---------------------------------------------------3333-----|
|--------------------------------------------------------------3333-|
|                                                                   |
|-------------------------------------------------------------------|
|--------------------------------------------------------------3333-|
|-------2222222255555555222222222222222222222225555444422225555-----|Gtr II
|-------------------------------------------------------------------|
|-000000------------------------------------------------------------|
|-------------------------------------------------------------------|

Repeat Riff D (1 Time)


Riff E
|----------------------------------------------------------------|
|----------------------------------------------------------------|
|---222244444444222255554444222244445555222255554444555522225555-|Gtr I
|----------------------------------------------------------------|
|-0--------------------------------------------------------------|
|----------------------------------------------------------------|
|                                                                |
|----------------------------------------------------------------|
|----------------------------------------------------------------|
|----------------------------------------------------------------|Gtr II
|-----------------------5555-----hphphphphphphphphphphphphphphph-|
|-0-55558888777755558888----777778787878787878787878787878787878-|
|----------------------------------------------------------------|



Riff F.1
|-------------------------------------------|
|-------2-----------------------------------|
|--2--4---2------2------2-4--------4-5-4----|Gtr I
|-----------3--5---3-5------5-2~-6-------5--|
|-------------------------------------------|
|-------------------------------------------|
|                                           |
|-------------------------------------------|
|-------------------------------------------|
|--2----------------------------------------|Gtr II
|--2--------3--------5--------2-------------|
|--0--------3--------5--------2-------------|
|-----------1--------3--------0-------------|


Riff F.2
|-------------------------------------------|
|-------------------------------------------|
|--2--4-5-2------2------2-4--------4-5-4----|Gtr I
|-----------3--5---3-5------5-2~-6-------5--|
|-------------------------------------------|
|-------------------------------------------|
|                                           |
|-------------------------------------------|
|-------------------------------------------|
|--2----------------------------------------|Gtr II
|--2--------3--------5--------2-------------|
|--0--------3--------5--------2-------------|
|-----------1--------3--------0-------------|

Repeat Riff F.2 (2 Times)


Riff G
|-----------------------------|
|-----------------------------|
|--2--------------------------|Gtrs I 
|--2----3----5----2-2--2-2-2--|  & II
|--0----3----5----2-2--2-2-2--|
|-------1----3----0-0--0-0-0--|

Repeat Riff A (2 Times)
Repeat Riff B (2 Times)

Riff C.2
|---------------------------------------------------------|
|---------------------------------------------------------|
|-2-----------------2-2-2-2-------------5-----------------|Gtr I
|-2-----------------2-2-2-2-------------5----3---5--------|
|-0-----------------0-0-0-0-------------3----3---5--------|
|--------------------------------------------1---3--------|
|                                                         |
|---------------------------------------------------------|
|---------------------------------------------------------|
|-2-----------4------------2------------------------------|Gtr II
|-------2-----------3------------2*-------p---p---p----p--|
|---0-0---0-0---0-0----0-0---0-0----0-0-10-0-7-0-8-0-10-0-|
|---------------------------------------------------------|


|---------------------------------------------------------|
|-------------------0-------------------------------------|
|-2-----------------2-------------------------------------|Gtr I
|-2-----------------2-------------------3----2---5--------|
|-0-----------------0-------------------3----2---5--------|
|---------------------------------------1----0---3--------|
|                                                         |
|---------------------------------------------------------|
|---------------------------------------------------------|
|-2-----------4------------2------------------------------|Gtr II
|-------2-----------3------------2*-------p---p---p----p--|
|---0-0---0-0---0-0----0-0---0-0----0-0-10-0-7-0-8-0-10-0-|
|---------------------------------------------------------|


Riff H
|--------------------------------------------------------------------|
|--------------------------------------------------------------------|
|--------------------------------------------------------------------|Gtr I
|--------------------------------------------------------------------|
|-----2---2---2---2---2---2---2---2---1---1---1---1---1---1---1---1--|
|---0---3---0---3---0---3---0---3---0---3---0---3---0---3---0---3----|
|   .   .   .   .   .   .   .   .   .   .   .   .   .   .   .   .    |
|                                                                    |  
|--------------------------------------------------------------------|
|--------------------------------------------------------------------|
|--------------------------------------------------------------------|Gtr II
|-----------------------------------3---------------3-3--------------|
|---2-2-------------2-2-------------1---------------1-1--------------|
|---0-0-------------0-0----------------------------------------------|

Repeat Riff H (1 Time)

Riff I
|--------------------------------------------------------------------|
|--------------------------------------------------------------------|
|--------------------------------------------------------------------|Gtr I
|--------------------------------------------------------------------|
|-----2---2---2---2---2---2---2---2---1---1---1---1---1---1---1---1--|
|---0---3---0---3---0---3---0---3---0---3---0---3---0---3---0---3----|
|   .   .   .   .   .   .   .   .   .   .   .   .   .   .   .   .    |
|                                                                    |  
|-------------------------------------------22222222--------22222222-|
|--------------------------------------------------------------------|
|---00002244440044440000224444004444333333----------333333-----------|Gtr II
|-----------------------------------------44--------------44---------|
|--------------------------------------------------------------------|
|--------------------------------------------------------------------|

Repeat Riff I (1 Time)

Riff J
|--------------------------------------------------------------------|
|--------------------------------------------------------------------|
|--------------------------------------------------------------------|Gtr I
|-----2---2---2---2---2---2---2---2---1---1---1---1---1---1---1---1--|
|---0---3---0---3---0---3---0---3---0---3---0---3---0---3---0---3----|
|--------------------------------------------------------------------|
|   .   .   .   .   .   .   .   .   .   .   .   .   .   .   .   .    |
|                                                                    |  
|-------------------------------------------22222222--------22222222-|
|--------------------------------------------------------------------|
|---22224455552255552222445555225555444444----------444444-----------|Gtr II
|-----------------------------------------44--------------44---------|
|--------------------------------------------------------------------|
|--------------------------------------------------------------------|

Repeat Riff J (1 Time)

Solo
|-----------------h----------------------h------|
|-------------4--4-5-4~--------------4--4-5-4~--|
|---------4-5--------------------4-5------------|Gtr I
|---4-5-7------------------4-5-7----------------|
|-7----------------------7----------------------|
|-----------------------------------------------|
|                                               |
|-----------------------------------------------|
|-----------------------------------------------|
|-----------------------------------------------|Gtr II
|-2-----------6----------2-----------6----------|
|-2-----------6----------2-----------6----------|
|-0-----------4----------0-----------4----------|


                                       pp  pp  pp  p         hp
|----hp--hp--hp--hp-------------------420-420-420-42-/9-----797-------|
|-4-454-131-010-131-5-----4----5-4------------------------------------|
|---------------------------------------------------------------------|Gtr
|---------------------------------------------------------------------| I
|---------------------------------------------------------------------|
|---------------------------------------------------------------------|
|                                                                     |
|---------------------------------------------------------------------|
|---------------------------------------------------------------------|
|---2---2---2---2---2-----2-----2-----6---6---6---6---6-----6-----6---|Gtr
|---2---2---2---2---2-----2-----2-----6---6---6---6---6-----6-----6---| II
|---0-0-0-0-0-0-0-0-0-0-0-0-0-0-0-0---4-4-4-4-4-4-4-4-4-4-4-4-4-4-4-4-|
|---------------------------------------------------------------------|

                                       pp  pp  pp  p         hp
|----hp--hp--hp--hp-------------------420-420-420-42-/9-----797-------|
|---454-131-010-131-5-----4----5-4------------------------------------|
|---------------------------------------------------------------------|Gtr
|---------------------------------------------------------------------| I
|---------------------------------------------------------------------|
|---------------------------------------------------------------------|
|                                                                     |
|---------------------------------------------------------------------|
|---------------------------------------------------------------------|
|---2---2---2---2---2-----2-----2-----6---6---6---6---6-----6-----6---|Gtr
|---2---2---2---2---2-----2-----2-----6---6---6---6---6-----6-----6---| II
|---0-0-0-0-0-0-0-0-0-0-0-0-0-0-0-0---4-4-4-4-4-4-4-4-4-4-4-4-4-4-4-4-|
|---------------------------------------------------------------------|

        hp                                      hp
|-7----575---------8-----75875875----7---------575-----------------|
|---------------------------------------------------8----7-----5---|
|------------------------------------------------------------------|Gtr I
|------------------------------------------------------------------|
|------------------------------------------------------------------|
|------------------------------------------------------------------|
|                                                                  |
|------------------------------------------------------------------|
|------------------------------------------------------------------|
|-2-----5------5---2-----5-----5-----2----4-----4---2----4-----4---|Gtr II
|------------------------------------------------------------------|
|---0-0---0-0----0---0-0---0-0---0-0---0-0--0-0---0---0-0--0-0---0-|
|------------------------------------------------------------------|

Repeat Last line again (1 Time)

|-----------------3------h-------------------------------------------|
|---------3----------3--35--3-----4-----------4-5-4~-----------------|
|-----2-------2----5---------5---------------------------------------|Gtr I
|-2-5---5---5---5----------------------------------------------------|
|--------------------------------------------------------------------|
|--------------------------------------------------------------------|
|                                                                    |
|--------------------------------------------------------------------|
|--------------------------------------------------------------------|
|--------------------------------------------------------------------|Gtr II
|--------------------------------------------------------------------|
|--------------------------------------------------------------------|
|-0-0-0-0-0-0-0-0-0-0-0-0-0-0-0-0-4-4-4-4-4-4-4-4-4-4-4-4-4-4-4-4----|

Repeat Last line again (1 Time)

Repeat Riff A (1.5 Times)

End Riff
|---------------------------------------------------|
|---------------------------------------------------|
|----999999-7777-10101010-----999999-10-9-7---------|Gtrs I
|----999999-7777-10101010-----999999-10-7-7-5-7-----|  & II
|----777777-5555--8-8-8-8-----777777--8-7-5-5-7-----|
|-0------------------------0----------------3-5-----|
comments
We did not receive enough feedback on this tab! Please rate:
print report bad tab
1 2 3 4 5
I want to post or [tab]
guest
You may want to rate the tab now too:
select rating
Please do not post tabs as comments. Select "correction" instead!