Oops, an error
Loading. Please wait.

Behind Space Tab

ver2
ver2

Whole song

Interactive

More versions @911Tabs.com
2,279 views 9 this week
no commentswrite comment
1 2 3 4 5
accurate
x 2
Autoscroll
+/-
esc
set tempo
stop
Contributor
Difficulty
advanced
Hey! There's an official Ultimate Guitar app which is ideal
for learning songs when you're away from computer. Get the app
WARNING: You are trying to view
                                    content from Ultimate-Guitar.com
                                    in an unauthorized application,
                                    which is prohibited.

                                    Please use an official Ultimate
                                    Guitar Tabs application for iPhone,
                                    iPad or Android to access legitimate
                                    chords, guitar, bass, and drum tabs
                                    from Ultimate-Guitar.com database.

                                    Type "ultimate guitar tabs" in Apple
                                    App Store's or Android Market's
                                    search to find the application.
Full credit goes to comfortably dumb; I just wanted people without powertab/guitarpro
to get to his quality tab.


                                BEHIND SPACE '99
                            As recorded by In Flames
                          (From the 1999 Album COLONY)

Words by Anders Fridén

Music by Björn Gelotte, Jesper Strömblad
Arranged by In Flames
Transcribed by Asmogriff

Gtr I (C F A# D# G C) - 'Dist'
Gtr II (C F A# D# G C) - 'Dist2'
Gtr III (C F A# D# G C) - 'dist 3'
Gtr IV (C F A# D# G C) - 'Keyboard'
Gtr V (C F A# D# G C) - 'dist 4'

   Intro
    Q=144
    $
   4/4
    Gtr I
                                                          ~
||--------------------------------|---------------------------|
||o---5-5-5-5-3-3-5-5-5-5-6-6-6-6-|---5-5-5-5-3-3-5-5-5-5-6---|
||--------------------------------|---------------------------|
||--------------------------------|---------------------------|
||o-0-----------------------------|-0-------------------------|
||--------------------------------|---------------------------|
|
|   Gtr II
|                                                         ~
||--------------------------------|---------------------------|
||o-------------------------------|---------------------------|
||----5-5-5-5-4-4-5-5-5-5-7-7-7-7-|---5-5-5-5-4-4-5-5-5-5-7---|
||--------------------------------|---------------------------|
||o-0-----------------------------|-0-------------------------|
||--------------------------------|---------------------------|


    E5          D5      F5              E5          F5          D5
|-----------------------------------|-------------------------------------||
|-----------------------------------|------------------------------------o||
|---9-9-9-9-9-9-7-7-7-7-10-10-10-10-|---9-9-9-9-9-9-10-10-10-10-7-7-7-7---||
|---9-9-9-9-9-9-7-7-7-7-10-10-10-10-|---9-9-9-9-9-9-10-10-10-10-7-7-7-7---||
|---7-7-7-7-7-7-5-5-5-5--8--8--8--8-|---7-7-7-7-7-7--8--8--8--8-5-5-5-5--o||
|-0---------------------------------|-0-----------------------------------||
|
|-----------------------------------|-------------------------------------||
|-----------------------------------|------------------------------------o||
|---9-9-9-9-9-9-7-7-7-7-10-10-10-10-|---9-9-9-9-9-9-10-10-10-10-7-7-7-7---||
|---9-9-9-9-9-9-7-7-7-7-10-10-10-10-|---9-9-9-9-9-9-10-10-10-10-7-7-7-7---||
|---7-7-7-7-7-7-5-5-5-5--8--8--8--8-|---7-7-7-7-7-7--8--8--8--8-5-5-5-5--o||
|-0---------------------------------|-0-----------------------------------||


  Q=135
                               5/4
|-----------------------------|-----------------------------------|
|-----------------------------|-----------------------------------|
|----------------7------------|--7--------------------------------|
|--7------9------------10-----|--------10------9----7----9---10---|
|----0-0----0-0----0-0----0-0-|----0-0----0-0----0----0----0----0-|
|-----------------------------|-----------------------------------|
|
|-----------------------------|-----------------------------------|
|-----------------------------|-----------------------------------|
|---------------10------------|-10--------------------------------|
|-10-----12------------14-----|--------14-----12---10---12---14---|
|----0-0----0-0----0-0----0-0-|----0-0----0-0----0----0----0----0-|
|-----------------------------|-----------------------------------|


 4/4                           5/4
|-----------------------------|--------------------------------------|
|-----------------------------|--------------------------------------|
|----------------7------------|--7-----------------------------------|
|--7------9------------10-----|--------10------9----7----9---10------|
|----0-0----0-0----0-0----0-0-|----0-0----0-0----0----0----0----0----|
|-----------------------------|--------------------------------------|
|
|-----------------------------|--------------------------------------|
|-----------------------------|--------------------------------------|
|---------------10------------|-10-----------------------------------|
|-10-----12------------14-----|--------14-----12---10---12---14------|
|----0-0----0-0----0-0----0-0-|----0-0----0-0----0----0----0----0----|
|-----------------------------|--------------------------------------|


                                                             To Coda
 4/4             5/4                4/4             5/4
             ~        ~                         ~        ~
|---------------|------------------|---------------|--------------------|
|---------------|------------------|---------------|--------------------|
|---------------|------------------|---------------|--------------------|
|---------------|------------------|---------------|--------------------|
|---------------|------------------|---------------|--------------------|
|-5--7--/10--8--|-10--8---7-5--7-8-|-5--7--/10--8--|-10--8---7-5--7-8---|
|
|            ~        ~                         ~        ~
|---------------|------------------|---------------|--------------------|
|---------------|------------------|---------------|--------------------|
|---------------|------------------|---------------|--------------------|
|---------------|------------------|---------------|--------------------|
|----5---/8--7--|--8--7----------7-|----5---/8--7--|--8--7----------7---|
|-8-------------|--------10-8-10---|-8-------------|--------10-8-10-----|


    Q=144
   4/4
                                                          ~
||--------------------------------|---------------------------|
||o---5-5-5-5-3-3-5-5-5-5-6-6-6-6-|---5-5-5-5-3-3-5-5-5-5-6---|
||--------------------------------|---------------------------|
||--------------------------------|---------------------------|
||o-0-----------------------------|-0-------------------------|
||--------------------------------|---------------------------|
|
|                                                         ~
||--------------------------------|---------------------------|
||o-------------------------------|---------------------------|
||----5-5-5-5-4-4-5-5-5-5-7-7-7-7-|---5-5-5-5-4-4-5-5-5-5-7---|
||--------------------------------|---------------------------|
||o-0-----------------------------|-0-------------------------|
||--------------------------------|---------------------------|


    E5          D5      F5              E5          F5          D5
|-----------------------------------|-------------------------------------||
|-----------------------------------|------------------------------------o||
|---9-9-9-9-9-9-7-7-7-7-10-10-10-10-|---9-9-9-9-9-9-10-10-10-10-7-7-7-7---||
|---9-9-9-9-9-9-7-7-7-7-10-10-10-10-|---9-9-9-9-9-9-10-10-10-10-7-7-7-7---||
|---7-7-7-7-7-7-5-5-5-5--8--8--8--8-|---7-7-7-7-7-7--8--8--8--8-5-5-5-5--o||
|-0---------------------------------|-0-----------------------------------||
|
|-----------------------------------|-------------------------------------||
|-----------------------------------|------------------------------------o||
|---9-9-9-9-9-9-7-7-7-7-10-10-10-10-|---9-9-9-9-9-9-10-10-10-10-7-7-7-7---||
|---9-9-9-9-9-9-7-7-7-7-10-10-10-10-|---9-9-9-9-9-9-10-10-10-10-7-7-7-7---||
|---7-7-7-7-7-7-5-5-5-5--8--8--8--8-|---7-7-7-7-7-7--8--8--8--8-5-5-5-5--o||
|-0---------------------------------|-0-----------------------------------||


   Pre-Verse
        A5              E5                A5              Bb5
||----------------------------------|----------------------------------|
||o---------------------------------|----------------------------------|
||------------------------------4-5-|----------------------------------|
||--------------2-3-2-2-2-2-2-2-----|-7-7-7-7-7-7-3-5-3-3-3-3-3-3-3-3--|
||o-0-0-0-0-0-0---------------------|----------------------------------|
||----------------------------------|----------------------------------|
|
||----------------------------------|----------------------------------|
||o---------------------------------|----------------------------------|
||------------------------------4-4-|-5-5-5-5-5-5-4-4-2-2-2-2-2-2-2-2--|
||--------------2-3-2-2-2-2-2-2-----|----------------------------------|
||o-0-0-0-0-0-0---------------------|----------------------------------|
||----------------------------------|----------------------------------|
|
|   Gtr III
|   PM              PM                PM              PM
||----------------------------------|----------------------------------|
||o---------------------------------|----------------------------------|
||----------------------------------|----------------------------------|
||------2-2-2-2-2-2-----------------|-----2-2-2-2-2-2-----3-3-3-3-3-3--|
||o-0---0-0-0-0-0-0-----2-2-2-2-2-2-|-0---0-0-0-0-0-0-----1-1-1-1-1-1--|
||------------------0---0-0-0-0-0-0-|-----------------1----------------|


                                   1.
      D5/A            D5/A
|---------------------------------|----------------------------------||
|---------------------------------|---------------------------------o||
|-----------------2-2-2-2-5-5-5-5-|----------------------------------||
|-0-0-0-0-0-0-0-0-----------------|-2-2-2-2-0-0-0-0------------------||
|---------------------------------|-----------------3-3-3-3---------o||
|---------------------------------|-------------------------3-3-3-3--||
|
|---------------------------------|----------------------------------||
|---------------------------------|-------------------------3-3-3-3-o||
|---------------------------------|-4-4-4-4-2-2-2-2-5-5-5-5----------||
|-3-3-3-3-3-3-3-3-0-0-0-0-0-0-0-0-|----------------------------------||
|---------------------------------|---------------------------------o||
|---------------------------------|----------------------------------||
|
| PM              PM
|---------------------------------|----------------------------------||
|-----3-3-3-3-3-3-----3-3-3-3-3-3-|---------------------------------o||
|-----2-2-2-2-2-2-----2-2-2-2-2-2-|----------------------------------||
|-0---------------0---------------|----------------------------------||
|---------------------------------|---------------------------------o||
|---------------------------------|----------------------------------||


  2.
                          ~
|----------------------------|
|----------------------------|
|----------------------------|
|-2-2-2-2-0-0-0-0---------5--|
|-----------------3-3-3-3----|
|----------------------------|
|
|                         ~
|----------------------------|
|-------------------------3--|
|-4-4-4-4-2-2-2-2-5-5-5-5----|
|----------------------------|
|----------------------------|
|----------------------------|


   Verse
||----------------------------------|----------------------------------|
||o---------------------------------|----------------------------------|
||----------------------------------|----------------------------------|
||----------0-0-0-0-3-3-3-3-2-2-2-2-|-0-0-0-0-3-3-3-3-5-5-5-5-2-2-2-2--|
||o-0-0-0-0-------------------------|----------------------------------|
||----------------------------------|----------------------------------|
|
||----------------------------------|----------------------------------|
||o---------------------------------|----------------------------------|
||----------2-2-2-2-4-4-4-4-5-5-5-5-|---------5-5-5-5-4-4-4-4-2-2-2-2--|
||----------------------------------|-3-3-3-3--------------------------|
||o-0-0-0-0-------------------------|----------------------------------|
||----------------------------------|----------------------------------|


  E5                      F5        D5      C5
  PM------------------------------------------------------| ~
|---------------------------------|------------------------------||
|---------------------------------|-----------------------------o||
|-4-4-4-4-5-5-5-5-2-2-2-2-5-5-5-5-|-4-4-4-4-5-5-5-5-2-2-2-2-5----||
|---------------------------------|------------------------------||
|---------------------------------|-----------------------------o||
|---------------------------------|------------------------------||
|
| PM------------------------------------------------------| ~
|---------------------------------|------------------------------||
|---------------------------------|-----------------------------o||
|-4-4-4-4-4-4-4-4-4-4-4-4-5-5-5-5-|------------------------------||
|-2-2-2-2-2-2-2-2-2-2-2-2-3-3-3-3-|-7-7-7-7-5-5-5-5--------------||
|---------------------------------|-5-5-5-5-3-3-3-3-5-5-5-5-----o||
|---------------------------------|-------------------------6----||


   Chorus
    Q=183
    A5          F5          G5          E5
   3/4
    Gtrs I, II
                                        ~
||------------|-----------|-----------|--------------||
||o-----------|-----------|-----------|-------------o||
||--2---4-5-2-|-------2---|-----2-4---|-----4-5-4----||
||------------|-3---5---3-|-5-------5-|-2-6-------5--||
||o-----------|-----------|-----------|-------------o||
||------------|-----------|-----------|--------------||
|
|   Gtr III
|                                         PM------|
||------------|-----------|-----------|--------------||
||o-----------|-----------|-----------|-------------o||
||--2---------|-----------|-----------|--------------||
||--2---------|-3---------|-5---------|-2-2-2-2-2-2--||
||o-0---------|-3---------|-5---------|-2-2-2-2-2-2-o||
||------------|-1---------|-3---------|-0-0-0-0-0-0--||


    A5          F5          G5          E5
   3/4
    Gtr I
                                        ~
||------------|-----------|-----------|--------------||
||o-----------|-----------|-----------|-------------o||
||--2---4-5-2-|-------2---|-----2-4---|-----4-5-4----||
||------------|-3---5---3-|-5-------5-|-2-6-------5--||
||o-----------|-----------|-----------|-------------o||
||------------|-----------|-----------|--------------||
|
|   Gtr II
|                                       ~
||------------|-----------|-----------|--------------||
||o-------5---|-----------|-----------|-------5-----o||
||--5---7---5-|-----4-5---|-4---5-7-4-|---4-7---7-4--||
||------------|-7-------7-|-----------|-5------------||
||o-----------|-----------|-----------|-------------o||
||------------|-----------|-----------|--------------||
|
|   Gtr III
|                                         PM------|
||------------|-----------|-----------|--------------||
||o-----------|-----------|-----------|-------------o||
||--2---------|-----------|-----------|--------------||
||--2---------|-3---------|-5---------|-2-2-2-2-2-2--||
||o-0---------|-3---------|-5---------|-2-2-2-2-2-2-o||
||------------|-1---------|-3---------|-0-0-0-0-0-0--||


   Bridge
                                 D.S. al Coda
    A5       F5         G5       E5
   3/4
    Gtrs I, II
                                   PM--------|
||---------|----------|--------|----------------||
||o--------|----------|--------|---------------o||
||--2------|----------|--------|----------------||
||--2------|-3-3-3----|-5------|-2-2-2-2-2-2-2--||
||o-0------|-3-3-3----|-5------|-2-2-2-2-2-2-2-o||
||---------|-1-1-1----|-3------|-0-0-0-0-0-0-0--||


 Interlude
  Q=144
  &
  E5                E5                Bb5               Bb5
 4/4
  Gtr I
|-----------------|-----------------|-----------------|-----------------|
|-----------------|-----------------|-----------------|-----------------|
|-----------------|-----------------|-3---------------|-3-3-------------|
|-2-2-------------|-2-2-------------|-3---------------|-3-3-------------|
|-2-2-------------|-2-2-------------|-1---------------|-1-1-------------|
|-0-0-------------|-0-0-------------|-----------------|-----------------|
|
| Gtr II
| PM  PM  PM  PM    PM  PM  PM  PM    PM  PM  PM  PM    PM  PM  PM  PM
|-----------------|-----------------|-----------------|-----------------|
|-----------------|-----------------|-----------------|-----------------|
|-----------------|-----------------|-----------------|-----------------|
|-----------------|-----------------|-----------------|-----------------|
|---2---2---2---2-|---2---2---2---2-|---1---1---1---1-|---1---1---1---1-|
|-0---3---0---3---|-0---3---0---3---|-0---3---0---3---|-0---3---0---3---|


  E5                E5                Bb5        Bb5
|-----------------|-----------------|----------|---------|
|-----------------|-----------------|----------|---------|
|-----------------|-----------------|-3--------|-3-3-----|
|-2-2-------------|-2-2-------------|-3--------|-3-3-----|
|-2-2-------------|-2-2-------------|-1--------|-1-1-----|
|-0-0-------------|-0-0-------------|----------|---------|
|
| PM  PM  PM  PM    PM  PM  PM  PM
|-----------------|-----------------|----------|---------|
|-----------------|-----------------|----------|---------|
|-----------------|-----------------|-3--------|-3-3-----|
|-----------------|-----------------|-3--------|-3-3-----|
|---2---2---2---2-|---2---2---2---2-|-1--------|-1-1-----|
|-0---3---0---3---|-0---3---0---3---|----------|---------|


  Q=140
  Gtr IV
|---------------19---|-(19)---------------|
|-17-------20--------|--------------------|
|--------------------|--------------------|
|--------------------|--------------------|
|--------------------|--------------------|
|--------------------|--------------------|
|
| Gtrs I, II
|--------------------|--------------------|
|--------------------|--------------------|
|--------------------|--------------------|
|--------------------|--------------------|
|--------2---------2-|----------2---2---2-|
|--0-2-3----0-2--3---|---0--2-3---0---3---|


|-18-----------------|---------------------|
|----------20---17---|-(17)----------------|
|--------------------|----------------19---|
|--------------------|---------------------|
|--------------------|---------------------|
|--------------------|---------------------|
|
|--------------------|---------------------|
|--------------------|---------------------|
|--------------------|---------------------|
|--------------------|---------------------|
|----1---1----1----1-|------1---1---1----1-|
|--0---2----0----2---|---0----2---0----2---|


|---------------19---|-(19)-------24-------|
|-17-------20--------|---------------------|
|--------------------|---------------------|
|--------------------|---------------------|
|--------------------|---------------------|
|--------------------|---------------------|
|
|--------------------|---------------------|
|--------------------|---------------------|
|--------------------|---------------------|
|--------------------|---------------------|
|--------2---------2-|----------2----2---2-|
|--0-2-3----0-2--3---|---0--2-3----0---3---|


|-18-----------------|--------------------|
|----------20---17---|-(17)---------------|
|--------------------|--------------------|
|--------------------|--------------------|
|--------------------|--------------------|
|--------------------|--------------------|
|
|--------------------|--------------------|
|--------------------|--------------------|
|--------------------|--------------------|
|--------------------|--------------------|
|----1---1----1----1-|------1---1---1---1-|
|--0---2----0----2---|---0----2---0---2---|


    Q=144
    Gtr I
          ~     ~           ~     ~~~~~~~~      ~                 ~
||------------------|-----------------|---------2-------|---------2---------||
||o-----------------|-----------------|-----------------|------------------o||
||--2---4-5---2-5---|-2---4-5---2-5---|-4---------------|-4-----------------||
||------------------|-----------------|-------4---------|-------4-----------||
||o-----------------|-----------------|-----------------|------------------o||
||------------------|-----------------|-----------------|-------------------||
|
|   Gtr II
|         ~     ~           ~     ~~~~~~~~      ~~~~~~~~~~~~      ~
||------------------|-----------------|---------7-------|---------7---------||
||o-----------------|-----------------|-----------------|------------------o||
||--5---7-9---5-9---|-5---7-9---5-9---|-8---------------|-8-----------------||
||------------------|-----------------|-------9---------|-------9-----------||
||o-----------------|-----------------|-----------------|------------------o||
||------------------|-----------------|-----------------|-------------------||
|
|   Gtr III
|   PM  PM  PM  PM    PM  PM  PM  PM    PM  PM  PM  PM    PM  PM  PM  PM
||------------------|-----------------|-----------------|-------------------||
||o-----------------|-----------------|-----------------|------------------o||
||------------------|-----------------|-----------------|-------------------||
||------------------|-----------------|-----------------|-------------------||
||o---2---2---2---2-|---2---2---2---2-|---1---1---1---1-|---1---1---1---1--o||
||--0---3---0---3---|-0---3---0---3---|-0---3---0---3---|-0---3---0---3-----||


   Guitar Solo
    Q=210
    E5                          G#5
||-------------|--------------|------------|---------||
||o------------|--------------|-4------4h5-|--4-----o||
||-------------|-------4---5--|------------|---------||
||------4---5--|--7-----------|------------|---------||
||o-7----------|--------------|------------|--------o||
||-------------|--------------|------------|---------||
|
||-------------|--------------|------------|---------||
||o------------|--------------|------------|--------o||
||-------------|--------------|------------|---------||
||--2----------|-(2)----------|-6----------|-(6)-----||
||o-2----------|-(2)----------|-6----------|-(6)----o||
||--0----------|-(0)----------|-4----------|-(4)-----||


    A5          A5          A5        A5    A5    A5
    Gtr I
||----------------------------------|-----------------|
||o-4h5p==4-1h3p==1-0h1p==0-1h3p==1-|-5-----4-----5---|
||----------------------------------|-----------------|
||----------------------------------|-----------------|
||o---------------------------------|-----------------|
||----------------------------------|-----------------|
|
|   Gtr II
||----------------------------------|-----------------|
||o-4h5p==4-1h3p==1-0h1p==0-1h3p==1-|-5-----4-----5---|
||----------------------------------|-----------------|
||----------------------------------|-----------------|
||o---------------------------------|-----------------|
||----------------------------------|-----------------|
|
|   Gtr III
||----------------------------------|-----------------|
||o---------------------------------|-----------------|
||--2-----------2-----------2-------|-2-----2-----2---|
||--2-----------2-----------2-------|-2-----2-----2---|
||o-0---0---0---0---0---0---0---0---|-0-0-0-0-0-0-0-0-|
||----------------------------------|-----------------|


  C#5     C#5     C#5     C#5       C#5    C#5     C#5
|-4p2p==0-4p2p==0-4p2p==0-4p2p==0-|-/9-----7-9-7--------||
|---------------------------------|--------------------o||
|---------------------------------|---------------------||
|---------------------------------|---------------------||
|---------------------------------|--------------------o||
|---------------------------------|---------------------||
|
|---------------------------------|---------------------||
|-5p4p==2-5p4p==2-5p4p==2-5p4p==2-|-/9-----7-9-7-------o||
|---------------------------------|---------------------||
|---------------------------------|---------------------||
|---------------------------------|--------------------o||
|---------------------------------|---------------------||
|
|---------------------------------|---------------------||
|---------------------------------|--------------------o||
|-6-------6-------6-------6-------|--6-----6-------6----||
|-6-------6-------6-------6-------|--6-----6-------6----||
|-4---4---4---4---4---4---4---4---|--4-4-4-4---4-4-4-4-o||
|---------------------------------|---------------------||


  Q=195
  Gtr I
|-7-----5-7-5-------|-8-----7-5-8-7-5-8-7-5-|
|-------------------|-----------------------|
|-------------------|-----------------------|
|-------------------|-----------------------|
|-------------------|-----------------------|
|-------------------|-----------------------|
|
| Gtr II
|-7-----5-7-5-------|-8-----7-5-8-7-5-8-7-5-|
|-------------------|-----------------------|
|-------------------|-----------------------|
|-------------------|-----------------------|
|-------------------|-----------------------|
|-------------------|-----------------------|
|
| Gtrs III, V
|-------------------|-----------------------|
|-------------------|-----------------------|
|-2-----5-------5---|-2-----5---------5-----|
|-------------------|-----------------------|
|---0-0-----0-0---0-|---0-0-----0-0-----0---|
|-------------------|-----------------------|


  ~
|-7-----------(7)-5h7p5-|-------------------|
|-----------------------|-8-----7-----5\----|
|-----------------------|-------------------|
|-----------------------|-------------------|
|-----------------------|-------------------|
|-----------------------|-------------------|
|
| ~
|-----------------------|-------------------|
|-----------------------|-------------------|
|-4-----------(4)-2h4p2-|-------------------|
|-----------------------|-5-----4-----2\----|
|-----------------------|-------------------|
|-----------------------|-------------------|
|
|-----------------------|-------------------|
|-----------------------|-------------------|
|---2-----4---------4---|-----2-----4----4--|
|-----------------------|-------------------|
|-0---0-0---0--0--------|-0-0---0-0---0-----|
|-----------------------|-------------------|


  Gtr I
|-7-----5-7-5-------|-8-----7-5-8-7-5-8-7-5-|
|-------------------|-----------------------|
|-------------------|-----------------------|
|-------------------|-----------------------|
|-------------------|-----------------------|
|-------------------|-----------------------|
|
| Gtr II
|-------------------|-----------------------|
|-------------------|-----------------------|
|-2-----5-------5---|-2-----5---------5-----|
|-------------------|-----------------------|
|---0-0-----0-0---0-|---0-0-----0-0-----0---|
|-------------------|-----------------------|
|
| Gtr III
|-------------------|-----------------------|
|-------------------|-----------------------|
|-5-----9-------9---|-5-----9---------9-----|
|-------------------|-----------------------|
|---0-0-----0-0---0-|---0-0-----0-0-----0---|
|-------------------|-----------------------|


  ~
|-7-----------(7)-5h7p5-|-------------------|
|-----------------------|-8-----7-----5\----|
|-4-----------(4)-2h4p2-|-------------------|
|-----------------------|-5-----4-----2\----|
|-----------------------|-------------------|
|-----------------------|-------------------|
|
|-----------------------|-------------------|
|-----------------------|-------------------|
|---2-----4---------4---|-----2-----4----4--|
|-----------------------|-------------------|
|-0---0-0---0--0--------|-0-0---0-0---0-----|
|-----------------------|-------------------|
|
|-----------------------|-------------------|
|-----------------------|-------------------|
|---4-----7---------7---|-----4-----7----7--|
|-----------------------|-------------------|
|-0---0-0---0--0--------|-0-0---0-0---0-----|
|-----------------------|-------------------|


  Q=210
  E5  Dsus2
  Gtr I
|-----12-----12-----12-----|-(12)------(12)--------|
|-----15b17r=15b17r=15b17==|=(15)------(15)r-19b21-|
|--------------------------|-----------------------|
|--------------------------|-----------------------|
|--------------------------|-----------------------|
|--------------------------|-----------------------|
|
| Gtr II
|--------------------------|-----------------------|
|--------------------------|-----------------------|
|--------------------------|-----------------------|
|-2------------------------|--(2)------------------|
|-2------------------------|--(2)------------------|
|-0------------------------|--(0)------------------|


  G#5 F#sus2
                TP        TP
|-16--16--------------|----------|
|-----19b21===(19)----|-(19)r----|
|---------------------|----------|
|---------------------|----------|
|---------------------|----------|
|---------------------|----------|
|
|---------------------|----------|
|---------------------|----------|
|---------------------|----------|
|--6------------------|--(6)-----|
|--6------------------|--(6)-----|
|--4------------------|--(4)-----|


  E5          Dsus2
|-12-------12-12----15-12-|-----12----------------------|
|-15b17=======15r---------|-15-----15-12-15-12----12----|
|-------------------------|--------------------15----15-|
|-------------------------|-----------------------------|
|-------------------------|-----------------------------|
|-------------------------|-----------------------------|
|
|-------------------------|-----------------------------|
|-------------------------|-----------------------------|
|-------------------------|-----------------------------|
|--2----------------------|-(2)-------------------------|
|--2----------------------|-(2)-------------------------|
|--0----------------------|-(0)-------------------------|


  G#5
|----------------------------|----------------------------|
|----------------------------|----------------------------|
|-13p12h13-13p12h14p13-------|-12-------------------------|
|-------------------------14-|-----14-14p13-12------------|
|----------------------------|-----------------14-12-11---|
|----------------------------|----------------------------|
|
|----------------------------|----------------------------|
|----------------------------|----------------------------|
|----------------------------|----------------------------|
|--6-------------------------|-(6)------------------------|
|--6-------------------------|-(6)------------------------|
|--4-------------------------|-(4)------------------------|


 Outro
  Q=145
                                                        ~
|-------------------------------|--------------------------|
|---5-5-5-5-3-3-5-5-5-5-6-6-6-6-|---5-5-5-5-3-3-5-5-5-5-6--|
|-------------------------------|--------------------------|
|-------------------------------|--------------------------|
|-0-----------------------------|-0------------------------|
|-------------------------------|--------------------------|
|
|                                                       ~
|-------------------------------|--------------------------|
|-------------------------------|--------------------------|
|---5-5-5-5-4-4-5-5-5-5-7-7-7-7-|---5-5-5-5-4-4-5-5-5-5-7--|
|-------------------------------|--------------------------|
|-0-----------------------------|-0------------------------|
|-------------------------------|--------------------------|


    E5          D5      F5              E5          F5          D5
|-----------------------------------|------------------------------------|
|-----------------------------------|------------------------------------|
|---9-9-9-9-9-9-7-7-7-7-10-10-10-10-|---9-9-9-9-9-9-10-10-10-10-7-7-7-7--|
|---9-9-9-9-9-9-7-7-7-7-10-10-10-10-|---9-9-9-9-9-9-10-10-10-10-7-7-7-7--|
|---7-7-7-7-7-7-5-5-5-5--8--8--8--8-|---7-7-7-7-7-7--8--8--8--8-5-5-5-5--|
|-0---------------------------------|-0----------------------------------|
|
|-----------------------------------|------------------------------------|
|-----------------------------------|------------------------------------|
|---9-9-9-9-9-9-7-7-7-7-10-10-10-10-|---9-9-9-9-9-9-10-10-10-10-7-7-7-7--|
|---9-9-9-9-9-9-7-7-7-7-10-10-10-10-|---9-9-9-9-9-9-10-10-10-10-7-7-7-7--|
|---7-7-7-7-7-7-5-5-5-5--8--8--8--8-|---7-7-7-7-7-7--8--8--8--8-5-5-5-5--|
|-0---------------------------------|-0----------------------------------|


                                                        ~
|-------------------------------|--------------------------|
|---5-5-5-5-3-3-5-5-5-5-6-6-6-6-|---5-5-5-5-3-3-5-5-5-5-6--|
|-------------------------------|--------------------------|
|-------------------------------|--------------------------|
|-0-----------------------------|-0------------------------|
|-------------------------------|--------------------------|
|
|                                                       ~
|-------------------------------|--------------------------|
|-------------------------------|--------------------------|
|---5-5-5-5-4-4-5-5-5-5-7-7-7-7-|---5-5-5-5-4-4-5-5-5-5-7--|
|-------------------------------|--------------------------|
|-0-----------------------------|-0------------------------|
|-------------------------------|--------------------------|


    E5          D5      F5              E5
                                                                  ~~
|-----------------------------------|--------------------------|---------*|
|-----------------------------------|--------------------------|--5------*|
|---9-9-9-9-9-9-7-7-7-7-10-10-10-10-|---9-9-9-9-9-9-5-5--4-5-7-|---------*|
|---9-9-9-9-9-9-7-7-7-7-10-10-10-10-|---9-9-9-9-9-9------------|---------*|
|---7-7-7-7-7-7-5-5-5-5--8--8--8--8-|---7-7-7-7-7-7------------|---------*|
|-0---------------------------------|-0------------------------|---------*|
|
|                                                                 ~~
|-----------------------------------|--------------------------|---------*|
|-----------------------------------|--------------------------|---------*|
|---9-9-9-9-9-9-7-7-7-7-10-10-10-10-|---9-9-9-9-9-9------------|---------*|
|---9-9-9-9-9-9-7-7-7-7-10-10-10-10-|---9-9-9-9-9-9-7-7------9-|-10------*|
|---7-7-7-7-7-7-5-5-5-5--8--8--8--8-|---7-7-7-7-7-7-----10-8---|---------*|
|-0---------------------------------|-0------------------------|---------*|


Tablature Legend
----------------
 h   - hammer-on
 p   - pull-off
 b   - bend
 pb  - pre-bend
 r   - bend release (if no number after the r, then release immediately)
 /\  - slide into or out of (from/to "nowhere")
 s   - legato slide
 S   - shift slide
  - natural harmonic
[n]  - artificial harmonic
n(n) - tapped harmonic
 ~   - vibrato
 tr  - trill
 T   - tap
 TP  - trem. picking
 PM  - palm muting
\n/  - tremolo bar dip; n = amount to dip
 \n  - tremolo bar down
 n/  - tremolo bar up
/n\  - tremolo bar inverted dip
 =   - hold bend; also acts as connecting device for hammers/pulls
 <>  - volume swell (louder/softer)
 x   - on rhythm slash represents muted slash
 o   - on rhythm slash represents single note slash

Misc Legend
-----------
 |  - bar
||  - double bar
||o - repeat start
o|| - repeat end
*|  - double bar (ending)
 :  - bar (freetime)
 $  - Segno
 &  - Coda
Tempo markers -  = BPM(8/16=s8/s16), where s8 = swing 8ths, s16 = swing 16ths


***************************************************************************************
* Generated using Power Tab Editor by Brad Larsen - http://powertab.guitarnetwork.org *
***************************************************************************************
comments
We did not receive enough feedback on this tab! Please rate:
print report bad tab
1 2 3 4 5
I want to post or [tab]
guest
You may want to rate the tab now too:
select rating
Please do not post tabs as comments. Select "correction" instead!