Oops, an error
Loading. Please wait.

Brush The Dust Away Tab

ver1
ver1

Whole song

Interactive

More versions @911Tabs.com
3,063 views 3 this week
no commentswrite comment
1 2 3 4 5
excellent!
x 1
Autoscroll
+/-
esc
set tempo
stop
Contributor
WARNING: You are trying to view
                                    content from Ultimate-Guitar.com
                                    in an unauthorized application,
                                    which is prohibited.

                                    Please use an official Ultimate
                                    Guitar Tabs application for iPhone,
                                    iPad or Android to access legitimate
                                    chords, guitar, bass, and drum tabs
                                    from Ultimate-Guitar.com database.

                                    Type "ultimate guitar tabs" in Apple
                                    App Store's or Android Market's
                                    search to find the application.
#----------------------------------PLEASE NOTE---------------------------------#
#This file is the author's own work and represents their interpretation of the #
#song. You may only use this file for private study, scholarship, or research. #
#------------------------------------------------------------------------------#

         I N  F L A M E S  -  B R U S H  T H E  D U S T  A W A Y
                       From the Album CLAYMAN
                    Copyright 2000 NUCLEAR BLAST

Transcribed by: death8699

For Questions, Comments, Newest Version, or Corrections contact
 death8699: at ArchEnemies@aol.com

Check Out Death8699.com, With More Transcriptions On It:
 http://www.death8699.com

.  - palm mute                  /  - slide up to
\  - slide down to              ~  - vibrato
"  - tremelo picking           ( ) - ghost note
b  - bend                       h  - hammer-on
fb - full bend (1 step)         p  - pull-off
hb - half bend (1/2 step)       r  - release a bend
t  - tapping                    ah - artificial harmonic

Tune Gtr to C [C,F,A#,D#,G,C]

--BRUSH THE DUST AWAY--

[Drum Fill]

[Riff A]
[---------------------------------|-------------------------------------]
[---------------------------------|-------------------------------------]
[*--------------------------------|------------------------------------*]Gtr
[*--------------------------------|----------4--4/5--5--5--5--5--------*] I
[--2---2---2---2---2---2---2---2--|-2--2--2--2--2/3--3--3--3--3--2------]
[--0---0---0---0---0---0---0---0--|-0--0--0------sl--------------0------]
       .   .   .   .   .   .   *       .  .
[---------------------------------|-------------------------------------]
[---------------------------------|-------------------------------------]
[*--------------------------------|------------------------------------*]Gtr
[*-9------------------------------|-9----------------------------------*] II
[-----------10-------9-----9---7--|----------10--------9-----9--9___10--]
[-----0--0-----0--0-----0------*--|----0--0------0--0-----0-------h-----]
      .  .     .  .     .              .  .      .  .     .
 _________________________________ _____________________________________
|1.                               |2.                                   |
[---------------------------------|-------------------------------------]
[---------------------------------|-------------------------------------]
[*--------------------------------|------------------------------------*]Gtr
[*-9---9---9---9---7---7---7---7--|-9---9---9---9---7---\--------------*] I
[--7---7---7---7---5---5---5---5--|-7---7---7---7---5---\---------------]
[--0---0---0---0------------------|-0---0---0---0-------sl--------------]
 _________________________________ _____________________________________
|1.                               |2.                       [End Riff A]|
[---------------------------------|-------------------------------------]
[---------------------------------|-------------------------------------]
[*--------------------------------|------------------------------------*]Gtr
[*--------------------------------|------------------------------------*] II
[------9---7---7---7---7----------|-----9---7~----------\---------------]
[--0------------------------------|-0-------------------sl--------------]
   .                                .

 ____________
[* = Staccato]
[____________]


[Riff A.1] [w/Riff A]
[----------------------------------|------------------------------------]
[----------------------------------|------------------------------------]
[*-9-------------------------------|-9---------------------------------*]Gtr
[*----------10--------9-----9--7---|----------10--------9-----9--9__10-*] IV
[-----0--0------0--0-----0-----*---|----0--0------0--0-----0------h-----]
[----------------------------------|------------------------------------]
      .  .      .  .     .              .  .      .  .     .
 __________________________________ ____________________________________
|1.                                |2.                    [End Riff A.1]|
[----------------------------------|------------------------------------]
[----------------------------------|------------------------------------]
[*---------------------------------|-----------------------------------*]Gtr
[*-----9---7---7---7---7-----------|-----9---7~----\-------------------*] IV
[--0-------------------------------|-0-------------sl-------------------]
[----------------------------------|------------------------------------]
   .                                 .

 ____________
[* = Staccato]
[____________]


[Riff B] [Chorus]
[------------------------------------------|---------------------------------------]
[------------------------------------------|---------------------------------------]
[*-----------------------------------------|--------------------------------------*]Gtrs
[*------4--4--4--4----------5--5--5--5-----|----9-------------------9--7--7--7--7-*]I&II
[--2----2--2--2--2-----2----3--3--3--3-----|----7----3--3--3--3--2--7--5--5--5--5--]
[--0----------------32-0-------------------|-32/0----3--3--3--3--0--0--------------]
                                              sl
[------------------------------------------|---------------------------------------]
[-------------------------8--7__8_7--------|------------------------7_8--8--8-8-8--]
[*/9--7----------------9------h--p---9-7---|/9--7----------------9---h------------*]Gtr
[*sl-----9~--7--9--10----------------------|sl-----9~--7--9--10-------------------*]III
[------------------------------------------|---------------------------------------]
[------------------------------------------|---------------------------------------]

[------------------------------------------|---------------------------------------]
[------------------------------------------|---------------------------------------]
[*-----------------------------------------|--------------------------------------*]Gtrs
[*------4--4--4--4----------5--5--5--5-----|---9-------------------9--7--7--7--7--*]I&II
[--2----2--2--2--2-----2----3--3--3--3-----|---7----2--2--2--2--2--7--5--5--5--5---]
[--0----------------32-0-------------------|32/0----3--3--3--3--0--0---------------]
                                             sl
                                                                        [End Riff B]
[------------------------------------------|---------------------------------------]
[-------------------------8--7__8_7--------|------------------------7_8--8--8-8-8--]
[*/9--7----------------9------h--p---9-7---|/9--7----------------9---h------------*]Gtr
[*sl-----9~--7--9--10----------------------|sl-----9~--7--9--10-------------------*]III
[------------------------------------------|---------------------------------------]
[------------------------------------------|---------------------------------------]


[Riff B.1] [w/Riff B 1tx]                                             [End Riff B.1]
[------------------------------------------|---------------------------------------]
[-/12--10--------------1013-12_13_12-10----|/12--10--------------10-12_1313-131313-]
[*sl-----12~-9--11-12---------h--p-----12--|sl-----12~-9--11-12-------h-----------*]Gtr
[*-----------------------------------------|--------------------------------------*] IV
[------------------------------------------|---------------------------------------]
[------------------------------------------|---------------------------------------]


Play Riff A 2 times
Play Riff B 1 time
Play Riff B + B.1 1 time


[Riff C] [Bridge]
[-----------------------------------------------------]
[-----------------------------------------------------]
[*---------------------------------------------------*]Gtr
[*---------------------------7--10--9__10__9--7------*] I
[---------10--10------9--10-----------h--p-------10---]
[--8~--8----------7~----------------------------------]
       .              .   .
[-----------------------------------------------------]
[-----------------------------------------------------]
[*---------------------------------------------------*]Gtr
[*-5--------------4----------------------------------*] II
[--3--------------2-----------------------------------]
[-----------------------------------------------------]

                                           [End Riff C]
[-----------------------------------------------------]
[-----------------------------------------------------]
[*---------------------------------------------------*]Gtr
[*---------------------------7--9--7__9__7-----------*] I
[--------10--10------7--10-----------h-p---10--7------]
[--8~--8----------7~----------------------------------]
       .             .   .
[-----------------------------------------------------]
[-----------------------------------------------------]
[*---------------------------------------------------*]Gtr
[*-5--------------4----------------------------------*] II
[--3--------------2-----------------------------------]
[-----------------------------------------------------]


[Riff C.1]
[----------------------------------|----------------------------------]
[----------------------------------|----------------------------------]
[*---------------------------------|---------------------------------*]Gtr
[*------9----7----7--7--7--7-------|------9----7----4----5----7------*] I
[--2----7----5----5--5--5--5-------|-2----7----5----2----3----5-------]
[--0-------------------------------|-0--------------------------------]

[----------------------------------|----------------------------------]
[----------------------------------|----------------------------------]
[*---------------------------------|---------------------------------*]Gtr
[*-2--------------0-----------0-0--|-0-------------------------------*] II
[--3--------------2-----------2-2--|-2--------------------------------]
[----------------------------------|-0--------------------------------]

[----------------------------------|----------------------------------]
[--------------8--7__8__7----------|-------------7--8--7__8__7--------]
[*----------9-------h-p----9-------|----------9--7--7--7-h--p---9----*]Gtr
[*-------9--------------------9----|-------9-----------------------9-*]III
[-----710-----------------------107|----710---------------------------]
[--0-(0)---------------------------|-0-(0)----------------------------]
      .. .  .  .                        .. .  .                 .  .

                      [End Riff C.1]
[----------------------------------]
[----------------------------------]
[---------------------------------*]Gtrs
[----------4----5----7------------*]I&II
[----------2----3----5-------------]
[----------*----*----*-------------]

 ____________
[* = Staccato]
[____________]


Play Riff C.1 1 time


[Riff D]
[----------------------------------------------------------------]
[----------------------------------------------------------------]
[*--------------------------------------------------------------*]Gtrs
[*---------------------------------5--5--5--5--5--9--9--9--9--9-*]I&II
[--2----2--2--2--2--2--2--2--2--2--3--3--3--3--3--7--7--7--7--7--]
[--0----0--0--0--0--3--3--3--3--3-----------------0--0--0--0--0--]

[--7------------------7------------------7-----7--/--10----------]
[-----8------------8-----8------------8-----8----sl------12------]
[*-------9------9-----------9------9-------------------------12-*]Gtr
[*----------10-----------------10-------------------------------*]III
[----------------------------------------------------------------]
[----------------------------------------------------------------]
      @  @   @  @  @     @  @   @  @  @     @             @   @

[----------------------------------------------------------------]
[----------------------------------------------------------------]
[*--------------------------------------------------------------*]Gtrs
[*-4----4--4--4--4------------------------------------2---------*]I&II
[--5----5--5--5--5--2----2--2--2--2--2----2--2--2--2--3----------]
[-------------------0----0--0--0--0--3----3--3--3--3-------------]

[----------------------------------------------------------------]
[--10----------------------10------------------------------------]
[*----11----------------11----11----------------------11--------*]Gtr
[*-------12----------12----------12----------------12----12-----*]III
[-----------12-10-12----------------14----------14----------14---]
[--------------------------------------14-12-14------------------]
       @  @  @  @  @  @  @     @  @  @  @  @  @  @  @     @  @

[------------------------------]
[------------------------------]
[*----------------------------*]Gtrs
[*-4-------------9------------*]I&II
[--5-------------7-------------]
[----------------0-------------]

                    [End Riff D]
[------------------------------]
[------------------------------]
[*--------------11---------11~*]Gtr
[*-----------12----12---------*]III
[---------14---------14--------]
[-141214----------------14-----]
   @ @ @   @  @  @  @ @  @


Play Riff D 1 time


[Riff E]
[---------------------------------------------------------------------]
[---------------------------------------------------------------------]
[*-------------------------------------------------------------------*]Gtr
[*----------------------------------------------------7-----4--------*] I
[--2-----------------------------------------5--------5--0--2---------]
[--0-----------------------------------0--2--3---------------------3--]
                                       .  .              .         .
[---------------------------------------------------------------------]
[---------------------------------------------------------------------]
[*-------------------------------------------------------------------*]Gtr
[*-------5--4__5__4---------------------------------------4/5-5~-----*] II
[-----7-------h-p-------5-----5/7--7~-----------------50---sl---------]
[--0-----------------0-----0---sl------0--2--3~-----------------0--3--]
   .                 .     .           .  .           ..        .  .
[---------------------------------------------------------------------]
[---------------------------------------------------------------------]
[*-------------------------------------------------------------------*]Gtr
[*----------------------------------------------------7-----4--------*] I
[--2-----------------------------------------5--------5--0--2---------]
[--0-----------------------------------0--2--3------------------------]
                                       .  .              .

     [End Riff E]
[---------------]
[---------------]
[*-------------*]Gtr
[*----2/4--4~--*] II
[-----sl--------]
[--0------------]


[Riff E.1] [w/Riff E + E.2]
[---------------------------------------------------------------------]
[---------------------------------------------------------------------]
[*-------------------------------------------------------------------*]Gtr
[*-------9--7__9__7-----------------------------7/999-9~-------------*] I
[-----10------h-p----9----9910~------------------sl-------------------]
[--0--------------------0--------0--2--3~-----------------3--0--------]
   .                    .        .  .                     .

   [End Riff E.1]
[---------------]
[---------------]
[*-------------*]Gtr
[*-5/777-7~----*] I
[---sl----------]
[---------------]


[Riff E.2]                                               [End Riff E.2]
[---------------------------------------------------------------------]
[------12--10__12__10----------------------12~-----12/15-15~----------]
[*--9---------h--p--------9-----11/12-12~-------9----sl--------------*]Gtr
[*--------------------------------sl---------------------------------*]III
[----------------------7-----7----------------------------------------]
[--(0)----------------------------------------------------------------]


Play Riffs E + E.1 + E.2 3 times
Play Fill 2 [Gtrs 1 & 2 tacet for 1 bar]


[Guitar Solo]
[---------12141514151719-19_b21~-r19b21r19b21\--/17--15--14/15--14\----]
[--121315------------------------------------sl-sl--------sl------sl---]
[*--------------------------------------------------------------------*]Gtr
[*--------------------------------------------------------------------*]III
[----------------------------------------------------------------------]
[----------------------------------------------------------------------]


[Riff F] [Over solo]                                 Let ring > > > > > > ]
[----------------------------------|--------------------------------------]
[----------------------------------|--------------------------------------]
[*---------------------------------|-------------------------------------*]Gtrs
[*-------------------------4-----2-|-----------------------7-------5-----*]I&II
[--------2--------2--------4-----2-|---------------------7---7---5---5----]
[--0--0--0--0--0-----0--0-----0----|-0--0--0--0--0--0--5-------3-------3--]
   .  .     .  .     .  .     .      .  .  .  .  .  .

                        [End Riff F]
[----------------------------------]
[----------------------------------]
[---------------------------------*]Gtrs
[*--------------------------------*]I&II
[----------12----------9-----------]
[--10--10--10----7--7--7-----------]
    .   .        .  .


[w/Riff F 1 time]
[-------15------14------12------12\10--------------------------------]
[--/12------12------12------12----sl---12--10_b12r10--8--------------]
[*-sl-----------------------------------------------------11~-\-----*]Gtr
[*-----------------------------------------------------------sl-----*]III
[--------------------------------------------------------------------]
[--------------------------------------------------------------------]

[--------------------------------------------------------------------]
[----------------------------------13-----12_b13r12b13r12\-----------]
[*----12-----11_12b11rb12r11\--/9------9-----------------sl---------*]Gtr
[*-9------9----------------sl--sl-----------------------------------*]III
[--------------------------------------------------------------------]
[--------------------------------------------------------------------]

[--------------------------------------------------------------------]
[--------------------------------------12-13_12----------------------]
[*--------------------------9-11_12_14------p---14_12\11------------*]Gtr
[*------------------9_10_12-----h--h--------------p--sl-14----------*]III
[---------7-9_10_12--h--h----------------------------------14_10-----]
[--7_8_10----h--h--------------------------------------------p---12~\]
    h h                                                            sl


[Riff G]                     [End Riff G]
[---------|---------|---------|---------]
[---------|---------|---------|---------]
[*--------|---------|---------|--------*]Gtrs
[*-10~----|-9~------|-10~/----|-12-----*]I&II
[---------|---------|---------|---------]
[--8~-----|-7~------|-8~-/----|-10------]
                      sl         *

 ____________
[* = Staccato]
[____________]


[---------------------------12-17_12--------------------------------14-]
[--15_b17-r15\-----------13------p---13--------------------------15----]
[*----------sl--------14----------------14--------------------16------*]Gtr
[*-----------------14----------------------14--------------16---------*]III
[------------12_15----------------------------15-12\14--17-------------]
[--------------h----------------------------------sl-------------------]

[--19_14-------------------------------15/17_20_15---------------------]
[----p---15-------------------------17--sl--h--p---17------------------]
[*----------16-------------------17-------------------17--------------*]Gtr
[*-------------16-------------17-------------------------17-----------*]III
[-----------------17-14/15-19-------------------------------19-15~-\---]
[---------------------sl-------------------------------------------sl--]

              [End Solo]
[--20--19--19_b20-\----]
[-----------------sl---]
[*--------------------*]Gtr
[*--------------------*]III
[----------------------]
[----------------------]


[Riff H]
[------------------------------------------|-----------------------------]
[------------------------------------------|-----------------------------]
[*-----------------------------------------|----------------------------*]Gtrs
[*-9------5--5-5-5--9-9----7--7--5--5-5-5--|-9-9----5--5-5-5--12-12--12-*]I&II
[--7------5--5-5-5--7-7----7--7--5--5-5-5--|-7-7----7--7-7-7--10-10--10--]
[--0----------------0-0--------------------|-0-0-------------------------]

[-------------------------7----------------|-----------------------------]
[--8---7----------7--8-88--10/12_10_8\7---7|-8-88--7------------7/8------]
[*-------9-7_9-9------------sl--p--p-sl-9--|----------9-7_9-9---sl------*]Gtr
[*----------h------------------------------|-------------h--------------*]III
[------------------------------------------|-----------------------------]
[------------------------------------------|-----------------------------]

[------------------------------------------]
[------------------------------------------]
[*----------------------------------------*]Gtrs
[*-9-(9)----------------------------------*]I&II
[--7-(7)-----------------------------------]
[------------------------------------------]

                                [End Riff H]
[------------------------------------------]
[--10--12~--\------------------------------]
[*---------sl-----------------------------*]Gtr
[*----------------------------------------*]III
[------------------------------------------]
[------------------------------------------]


[Riff H.1] [w/Riff H]
[-------------------------------12----------------------|----------------]
[--13-12------------12--13-1313----15/17_15_13\12----12-|-131313--12-----]
[*-------14-12_14-14----------------sl--p--p--sl--14----|------------14-*]Gtr
[*------------h-----------------------------------------|---------------*] IV
[-------------------------------------------------------|----------------]
[-------------------------------------------------------|----------------]

                                           [End Riff H.1]
[-------------------------------------------------------]
[----------12/13--15--17~--\----------------------------]
[*-12_14-14-sl------------sl---------------------------*]Gtr
[*---h-------------------------------------------------*] IV
[-------------------------------------------------------]
[-------------------------------------------------------]


[Riff A.2] [w/Riff A.1]
[------------------------------------------------------]
[------------------------------------------------------]
[*----------------------------------------------------*]Gtrs
[*-0---0---0---0---0---0---0---0---0---0---0---0---0--*]I&II
[--0---0---0---0---0---0---0---0---0---0---0---0---0---]
[------------------------------------------------------]
   .   .   .   .   .   .   .   .   .   .   .   .   .
[------------------------------------------------------]
[------------------------------------------------------]
[*-9--------------------------------------------------*]Gtr
[*----------10-----9-----9--7-------------------------*]III
[-----0--0------0-----0--------0--0--0--0--0--0--0--0--]
[------------------------------------------------------]
      .  .      .     .        .  .  .  .  .  .  .  .
[------------------------------------------------------]
[------------------------------------------------------]
[*----------------------------------------------------*]Gtrs
[*-0---0---0-------2---0--4/5---0-----4--2--2--2--2---*]I&II
[--0---0---0-------2---0--4/5---0-----4--2--2--2--2----]
[--------------------------sl--------------------------]
   .   .   .           .        .
[------------------------------------------------------]
[------------------------------------------------------]
[*-9--------------------------------------------------*]Gtr
[*----------10-----9-----9--9__10-----9--7--7--7--7---*]III
[-----0--0------0-----0------h-----0-------------------]
[------------------------------------------------------]
      .  .      .     .            .
[------------------------------------------------------]
[------------------------------------------------------]
[*----------------------------------------------------*]Gtrs
[*-0---0---0---0---0---0---0---0---0---0---0---0---0--*]I&II
[--0---0---0---0---0---0---0---0---0---0---0---0---0---]
[------------------------------------------------------]
   .   .   .   .   .   .   .   .   .   .   .   .   .
[------------------------------------------------------]
[------------------------------------------------------]
[*9---------------------------------------------------*]Gtr
[*---------10-----9-----9--7------9--9/10-----10-----9*]III
[----0--0------0-----0--------0-------sl---0------0----]
[------------------------------------------------------]
     .  .      .     .        .            .      .
[------------------------------]
[------------------------------]
[*----------------------------*]Gtrs
[*-0---0---0---0---0---0---0--*]I&II
[--0---0---0---0---0---0---0---]
[------------------------------]
   .   .   .   .   .   .   .

                  [End Riff A.2]
[------------------------------]
[------------------------------]
[*----10--10__9-----9--7~-----*]Gtr
[*----------p-----------------*]III
[--0-------------0-------------]
[------------------------------]
   .             .


Play Riff D 1.5 times


[Final]
[-------------|-------------|-------------|-------------|-------------]
[-------------|-------------|-------------|-------------|-------------]
[*------------|-------------|-------------|-------------|------------*]Gtrs
[*------------|-------------|-2-----------|-4-----------|-9-\--------*]I&II
[--2----------|-2-----------|-3-----------|-5-----------|-7-\------2--]
[--0----------|-3-----------|-------------|-------------|-0-sl-----0--]
                                                                 [End]

Check Out Death8699.com, With More Transcriptions On It:
 http://www.death8699.com
comments
We did not receive enough feedback on this tab! Please rate:
print report bad tab
1 2 3 4 5
I want to post or [tab]
guest
You may want to rate the tab now too:
select rating
Please do not post tabs as comments. Select "correction" instead!