Oops, an error
Loading. Please wait.

Brush The Dust Away Tab

ver2
ver2

Whole song

More versions @911Tabs.com
307 views 1 this week
no commentswrite comment
1 2 3 4 5
please rate
Autoscroll
+/-
esc
set tempo
stop
Contributor
Difficulty
Tuning
advanced
C F A# D# G C
WARNING: You are trying to view
                                    content from Ultimate-Guitar.com
                                    in an unauthorized application,
                                    which is prohibited.

                                    Please use an official Ultimate
                                    Guitar Tabs application for iPhone,
                                    iPad or Android to access legitimate
                                    chords, guitar, bass, and drum tabs
                                    from Ultimate-Guitar.com database.

                                    Type "ultimate guitar tabs" in Apple
                                    App Store's or Android Market's
                                    search to find the application.
/---------------------------------------------------------------------------/
/    The following is the author's own interpretation of the song, to be    /
/                     used for private use and studying                     /
/---------------------------------------------------------------------------/

                   IN FLAMES - BRUSH THE DUST AWAY
                       From the Album CLAYMAN
                    Copyright 2000 NUCLEAR BLAST

                        Version 2.0 - AUG '02

Transcribed by: Death8699 & Jeremy Disten

For Questions, Comments, Newest Version, or Corrections contact
 Death8699: at MethylinInfo@aol.com 
    Jeremy: at jdustpan@hotmail.com

.  - palm mute                  /  - slide up to
\  - slide down to              ~  - vibrato
"  - tremelo picking           ( ) - ghost note
b  - bend                       h  - hammer-on
fb - full bend (1 step)         p  - pull-off
hb - half bend (1/2 step)       r  - release a bend
t  - tapping                    ah - artificial harmonic

Tune Gtr to C

--BRUSH THE DUST AWAY--

(Drum Fill)

Note - They sometimes play slight variations of 
       the riff on repeats. (Extra strums, etc..)

Riff A
|------------------------|--------------------------|
|------------------------|--------------------------|
|------------------------|--------------------------|Gtr 
|-2----------------------|-2------------------------| I
|-2--2--2--2--2--2--2--2-|-2------------------------|
|-0--0--0--0--0--0--0--0-|-0------------------------|
|    .  .  .  .  .  .  .                            |
|                                                   |
|------------------------|--------------------------|
|------------------------|--------------------------|
|------------------------|--------------------------|Gtr 
|-9--------7-------------|--------------------------| II
|----------------10----9-|-7------------------------|
|----0--0-----0------0---|--------------------------|
|    .  .     .      .                              |
|                                                   |
|------------------------|--------------------------|
|------------------------|--------------------------|
|------------------------|--------------------------|Gtr 
|-2--------7-7-7-7-----7-|-7-----5------------------| I
|-2--2--2--5-5-5-3-----5-|-5-----3------------------|
|-0--0--0----------------|--------------------------|
|    .  .                                           |
|                                                   |
|------------------------|--------------------------|
|------------------------|--------------------------|
|------------------------|--------------------------|Gtr 
|-9--------7-------------|--------------------------| II
|----------------10----9-|-9-10---7---7-7-7---------|
|----0--0-----0------0---|------0-------------------|
     .  .     .      .    
                      

Repeat Riff A


Riff B (chorus)
|-----------------------------------------------------------|
|-----------------------------------------------------------|
|-----------------------------------------------------------|Gtr
|-------4---4-4-4-------5---5-5-5-------4---4-4-4---7-7--5--| I
|-2-----2---2-2-2-2-----3---3-3-3-2-----5---5-5-5---5-5--3--|
|-0---------------0---------------0-------------------------|
|                                                           |
|                                                           |
|--------------------------hp-------------------------------|
|-----------------------8-787-----------------------7----8~-|
|-9~----7-----7-9-9~----------9-7-9~----7-----7-9-9---------|Gtr
|-----------9-------------------------------9---------------| II
|-----------------------------------------------------------|
|-----------------------------------------------------------|
|                                                           |
|                                                           |
|-----------------------------------------------------------|
|-----------------------------------------------------------|
|-----------------------------------------------------------|Gtr
|-------4---4-4-4-------5---5-5-5-------4---4-4-4---7-7--5--| I
|-2-----2---2-2-2-2-----3---3-3-3-2-----5---5-5-5---5-5--3--|
|-0---------------0---------------0-------------------------|
|                                                           |
|                                                           |
|--------------------------hp-------------------------------|
|-----------------------8-787-----------------------7----8~-|
|-9~----7-----7-9-9~----------9-7-9~----7-----7-9-9---------|Gtr
|-----------9-------------------------------9---------------| II
|-----------------------------------------------------------|
|-----------------------------------------------------------|
|                                                           |
|                          hp                               |
|-----------------------7-575-----------------------5----7~-|
|-8~----7-----7-8-8~----------8-7-8~----7-----7-8-8---------|
|-----------7-------------------------------7---------------|Gtr
|-----------------------------------------------------------|III
|-----------------------------------------------------------|
|-----------------------------------------------------------|


Repeat Riff A (2x)
Repeat Riff B (2x) 


Riff C (bridge)
|------------------------------------------|
|------------------------------------------|
|:----------------------------------------:|Gtr
|:-5--------------4-----------------------:| I
|--3--------------2------------------------|
|------------------------------------------|
|                                          |
|------------------------------------------|
|------------------------------------------|
|:-------------------------------hp-------:|Gtr
|:--------------7----------9-10-9109-7----:| II
|------------10----------9-------------10--|
|--8~------8------7----7-------------------|
           .           .             
       
|----------------------------------|----------------------------|
|----------------------------------|----------------------------|
|:---------------------------------|---------------------------:|Gtr
|:-----------9---7-------------7-7-|-------------9---4---5---4~:| I
|--2---------7---5-------------5-5-|-2-----------7---2---3------|
|--0-------------------------------|-0--------------------------|
|                                  |                            |
|----------------------------------|----------------------------|
|------------8p7-------------------|-------------8p7------------|
|:---------------------------------|---------------------------:|Gtr
|:---------------7-------------7-7-|-----------------4---5---7-:| II
|--2-------------5-------------5-5-|-2---------------2---3---5--|
|--0-------------------------------|-0--------------------------|


Riff D 
|---------------------------------------------------------------|
|---------------------------------------------------------------|
|---------------------------------------------------------------|Gtrs
|---------------------------------5--5--5--5--5--9--9--9--9--9--|I&II
|-2----2--2--2--2--2--2--2--2--2--3--3--3--3--3--7--7--7--7--7--|
|-0----0--0--0--0--3--3--3--3--3-----------------0--0--0--0--0--|
|                                                               |
|                                                               |
|-7------------------7------------------7-----7--/--10----------|
|----8------------8-----8------------8-----8----sl------12------|
|-------9------9-----------9------9-------------------------12--|Gtr
|----------10-----------------10--------------------------------|III
|---------------------------------------------------------------|
|---------------------------------------------------------------|     
|    @  @   @  @  @     @  @   @  @  @     @             @   @  |
|                                                               |
|---------------------------------------------------------------|
|---------------------------------------------------------------|
|---------------------------------------------------------------|Gtrs
|-4----4--4--4--4------------------------------------2----------|I&II
|-5----5--5--5--5--2----2--2--2--2--2----2--2--2--2--3----------|
|------------------0----0--0--0--0--3----3--3--3--3-------------|
|                                                               |
|                                                               |
|---------------------------------------------------------------|
|-10----------------------10------------------------------------|
|----11----------------11----11----------------------11---------|Gtr
|-------12----------12----------12----------------12----12------|III
|----------12-10-12----------------14----------14----------14---|
|-------------------------------------14-12-14------------------|
|     @  @  @  @  @  @  @     @  @  @  @  @  @  @  @     @  @   |
|                                                               |
|---------------------------------------------------------------|
|---------------------------------------------------------------|
|---------------------------------------------------------------|Gtrs
|-4-------------9-----------------------------------------------|I&II
|-5-------------7-----------------------------------------------|
|---------------0-----------------------------------------------|   
|                                                               |
|                                                   (End Riff D)|
|---------------------------------------------------------------|
|---------------------------------------------------------------|
|-------------------11---------------11~------------------------|Gtr
|---------------12------12--------------------------------------|III
|-----------14--------------14----------------------------------|
|-14-12-14----------------------14------------------------------|
   @  @  @   @   @   @   @   @   @


Repeat Riff D (1x)


Riff E                                                    
|--------------------------------------------------------------------|
|--------------------------------------------------------------------|
|--------------------------------------------------------------------|Gtr
|----------------------------------------------------7-----4---------| I
|-2-----------------------------------------5--------5--0--2---------|
|-0-----------------------------------0--2--3---------------------3--|
|                                     .  .              .            |
|                                                                    |
|--------------------------------------------------------------------|
|--------------------------------------------------------------------|
|-----------hp-------------------------------------------------------|Gtr
|-------5--454-------------------------------------------4/5-5~------| II
|----7-----------------5-----5/7--7~-----------------50--------------|
|-0-----------------0-----0-----------0--2--3~-----------------0--3--|
|    .              .     .           .  .           ..        .  .  |   
|                                                                    |
|--------------------------------------------------------------------|
|--------------------------------------------------------------------|
|--------------------------------------------------------------------|Gtr
|----------------------------------------------------7-----4---------| I
|-2-----------------------------------------5--------5--0--2---------|
|-0-----------------------------------0--2--3------------------------|
|                                     .  .              .            |
|                                                        (End Riff E)|
|--------------------------------------------------------------------|
|--------------------------------------------------------------------|
|--------------------------------------------------------------------|Gtr
|----2/4--4~---------------------------------------------------------| II
|--------------------------------------------------------------------|
|-0------------------------------------------------------------------|
  .


Riff E.1 (w/Riff E + E.2)       
|------------------------------------------------------------------|
|------------------------------------------------------------------|
|-----------hp-----------------------------------------------------|Gtr
|-------9--797---------------------------------7/999-9~------------| I
|----10-------------9----9910~-------------------------------------|
|-0--------------------0--------0--2--3~-----------------3--0------|
|    .                 .        .  .                     .  .      |
|                                                                  |
|                                                    (End Riff E.1)|
|------------------------------------------------------------------|
|------------------------------------------------------------------|
|------------------------------------------------------------------|Gtr
|-5/777-7~---------------------------------------------------------| I
|------------------------------------------------------------------|
|------------------------------------------------------------------|


Riff E.2                                              (End Riff E.2)
|-----------h-p----------------------------------------------------|
|-----12--101210--10----------------------12~-----12/15-15~--------|
|--9---------------------9-----11/12-12~-------9-------------------|Gtr
|------------------------------------------------------------------|III
|---------------------7-----7--------------------------------------|
|-(0)--------------------------------------------------------------|


Repeat Riffs E + E.1 + E.2 (3x)
Repeat Fill 2              (1x)


Riff F (over solo)                                    ----let ring----
|---------------------------------|------------------------------------|
|---------------------------------|------------------------------------|
|---------------------------------|------------------------------------|Gtrs
|-------------------------4-----2-|-----------------------7-------5----|I&II
|-------2--------2--------4-----2-|---------------------7---7---5---5--|
|-0--0--0--0--0-----0--0-----0----|-0--0--0--0--0--0--5-------3-------3|
| .  .     .  .     .  .     .      .  .  .  .  .  .
|
|                      (End Riff F)
|---------------------------------|
|---------------------------------|
|---------------------------------|Gtrs
|---------------------------------|I&II
|---------12----------9-----------|
|-10--10--10----7--7--7-----------|
   .   .        .  .


Guitar Solo w/Riff F (1x)
|--------12141514151719-19_b21~-r19b21r19b21\--/17--15--14/15--14\---|
|-121315-------------------------------------------------------------|
|--------------------------------------------------------------------|Gtr
|--------------------------------------------------------------------|III
|--------------------------------------------------------------------|
|--------------------------------------------------------------------|
|                                                                    |
|                                                                    |
|------15------14------12------12\10---------------------------------|
|-/12------12------12------12---------12--10_b12r10--8---------------|
|--------------------------------------------------------11~-\-------|Gtr
|--------------------------------------------------------------------|III
|--------------------------------------------------------------------|
|--------------------------------------------------------------------|
|                                                                    |
|                                                                    |
|--------------------------------------------------------------------|
|---------------------------------13-----12_b13r12b13r12\------------|
|----12-----11_12b11rb12r11\--/9------9------------------------------|Gtr
|-9------9-----------------------------------------------------------|III
|--------------------------------------------------------------------|
|--------------------------------------------------------------------|
|                                                                    |
|                                                                    |
|--------------------------------------------------------------------|
|-------------------------------------12-13p12-----------------------|
|--------------------------9-11h12h14----------14p12\11--------------|Gtr
|------------------9h10h12-----------------------------14------------|III
|--------7-9h10h12----------------------------------------14p10------|
|-7h8h10--------------------------------------------------------12~\-|



Riff G             (End Riff G)
|-----------------------------|
|-----------------------------|
|-----------------------------|Gtrs
|-10~-----9~------10~/----12--|I&II
|-----------------------------|
|-8~------7~------8~-/----10--|
                   

|--------------------------12-17p12--------------------------------14|
|-15_b17-r15\-----------13----------13--------------------------15---|
|--------------------14----------------14--------------------16------|Gtr
|-----------------14----------------------14--------------16---------|III
|-----------12h15----------------------------15-12\14--17------------|
|--------------------------------------------------------------------|
|                                                                    |
|                                                                    |
|-19p14-------------------------------15/17h20p15--------------------|
|-------15-------------------------17-------------17-----------------|
|----------16-------------------17-------------------17--------------|Gtr
|-------------16-------------17-------------------------17-----------|III
|----------------17-14/15-19-------------------------------19-15~-\--|
|--------------------------------------------------------------------|
|
|            (End Solo)
|-20--19--19_b20-\----|
|---------------------|
|---------------------|Gtr
|---------------------|III
|---------------------|
|---------------------|


Riff H 
|-----------------------------------------|----------------------------|
|-----------------------------------------|----------------------------|
|-----------------------------------------|----------------------------|Gtrs
|-9------5--5-5-5--9-9----7--7--5--5-5-5--|-9-9----5--5-5-5--12-12--12-|I&II
|-7------5--5-5-5--7-7----7--7--5--5-5-5--|-7-7----7--7-7-7--10-10--10-|
|-0----------------0-0--------------------|-0-0------------------------|
|                                                                      |
|                                                                      |
|------------------------7----------------|----------------------------|
|-8---7----------7--8-88--10/12p10p8\7---7|-8-88--7------------7/8-----|
|-------9-7h9-9------------------------9--|----------9-7h9-9-----------|Gtr
|-----------------------------------------|----------------------------|III
|-----------------------------------------|----------------------------|
|-----------------------------------------|----------------------------|
|                       
|                  
|-----------------------------------------|
|-----------------------------------------|
|-----------------------------------------|Gtrs
|-9-(9)-----------------------------------|I&II
|-7-(7)-----------------------------------|
|-----------------------------------------|
|
|                              (End Riff H)
|-----------------------------------------|
|-10--12~--\------------------------------|
|-----------------------------------------|Gtr
|-----------------------------------------|III
|-----------------------------------------|
|-----------------------------------------|


Riff H.1 (w/Riff H)
|------------------------------12----------------------|
|-13-12------------12--13-1313----15/17p15p13\12----12-|
|-------14-12h14-14------------------------------14----|Gtr
|------------------------------------------------------| IV
|------------------------------------------------------|
|------------------------------------------------------|
|                                                      |
|                                                      |
|------------------------------------------------------|
|-13-13-13--12----------------12/13--15--17~--(17\)----|
|--------------14---12h14-14---------------------------|Gtr
|------------------------------------------------------| IV
|------------------------------------------------------|
|------------------------------------------------------|


Riff A.2 (w/Riff A.1)
|-----------------------------------------------------|
|-----------------------------------------------------|
|-----------------------------------------------------|Gtrs
|-0---0---0---0---0---0---0---0---0---0---0---0---0---|I&II
|-0---0---0---0---0---0---0---0---0---0---0---0---0---|
|-----------------------------------------------------|
| .   .   .   .   .   .   .   .   .   .   .   .   .   |
|                                                     |
|-----------------------------------------------------|
|-----------------------------------------------------|
|-9---------------------------------------------------|Gtr
|----------10-----9-----9--7--------------------------|III
|----0--0------0-----0--------0--0--0--0--0--0--0--0--|
|-----------------------------------------------------|
|    .  .      .     .        .  .  .  .  .  .  .  .  |
|                                                     |
|-----------------------------------------------------|
|-----------------------------------------------------|
|-----------------------------------------------------|Gtrs
|-0---0---0-------2---0--4/5---0-----4--2--2--2--2----|I&II
|-0---0---0-------2---0--4/5---0-----4--2--2--2--2----|
|-----------------------------------------------------|
| .   .   .           .        .                      |
|                                                     |
|-----------------------------------------------------|
|-----------------------------------------------------|
|-9---------------------------------------------------|Gtr
|----------10-----9-----9--9h10------9--7--7--7--7----|III
|----0--0------0-----0------------0-------------------|
|-----------------------------------------------------|
|    .  .      .     .            .                   |
|                                                     |
|-----------------------------------------------------|
|-----------------------------------------------------|
|-----------------------------------------------------|Gtrs
|-0---0---0---0---0---0---0---0---0---0---0---0---0---|I&II
|-0---0---0---0---0---0---0---0---0---0---0---0---0---|
|-----------------------------------------------------|
| .   .   .   .   .   .   .   .   .   .   .   .   .   |  
|                                                     |
|-----------------------------------------------------|
|-----------------------------------------------------|
|-9---------------------------------------------------|Gtr
|----------10-----9-----9--7------9--9/10-----10-----9|III
|----0--0------0-----0--------0------------0------0---|
|-----------------------------------------------------|
|    .  .      .     .        .            .      .
|
|-----------------------------|
|-----------------------------|
|-----------------------------|Gtrs
|-0---0---0---0---0---0---0---|I&II
|-0---0---0---0---0---0---0---|
|-----------------------------|
| .   .   .   .   .   .   .
|
|                (End Riff A.2)
|-----------------------------|
|-----------------------------|
|----10--10p9------9--7~------|Gtr
|-----------------------------|III
|-0-------------0-------------|
|-----------------------------|
  .             .


Repeat Riff D (1.5x)


Final
|--------------------------------------------------------------------|
|--------------------------------------------------------------------|
|--------------------------------------------------------------------|Gtrs
|---------------------------2------------4------------9-\------------|I&II
|-2------------2------------3------------5------------7-\----------2-|
|-0------------3--------------------------------------0------------0-|
                                                                  End!
comments
We did not receive enough feedback on this tab! Please rate:
print report bad tab
1 2 3 4 5
I want to post or [tab]
guest
You may want to rate the tab now too:
select rating
Please do not post tabs as comments. Select "correction" instead!