Oops, an error
Loading. Please wait.

Bullet Ride Tab

ver2
ver2

Whole song

Video

More versions @911Tabs.com
10,379 views 12 this week
6 commentsread comments
1 2 3 4 5
excellent!
x 3
Autoscroll
+/-
esc
set tempo
stop
Contributor
Difficulty
intermediate
Hey! There's an official Ultimate Guitar app which is ideal
for learning songs when you're away from computer. Get the app
WARNING: You are trying to view
                                    content from Ultimate-Guitar.com
                                    in an unauthorized application,
                                    which is prohibited.

                                    Please use an official Ultimate
                                    Guitar Tabs application for iPhone,
                                    iPad or Android to access legitimate
                                    chords, guitar, bass, and drum tabs
                                    from Ultimate-Guitar.com database.

                                    Type "ultimate guitar tabs" in Apple
                                    App Store's or Android Market's
                                    search to find the application.
                                IN FLAMES
                               BULLET RIDE

     Here is bullet ride by In Flames. the tab is a little bit messy, but i
     hope you can read it.

      pm - Palm Mute
      ~  - vibrato
      a.h- Artificial Harmonic
      /  - Slide from below
      \  - Slide from above
      h  - Hammer on
      p  - Pull off

      Rhythm - 4/4
      Tempo  - 185 bpm
      Tuning - C G D# A# F C


  Intro
  Guitar 1 dist
         pm--|       pm--|               pm--|       pm-------------|
|-------------------------------------------------------------------|
|-------------------------------------------------------------------|
|-2-2-2-2-----2-2-2-2-----2-2-----4-4-4-4-----4-4-4-4-----4-4-------|
|-2-2-2-2-----2-2-2-2-----2-2-----2-2-2-2-----2-2-2-2-----2-2-------|
|---------0-0---------0-0-----0-0---------0-0---------0-0-----0-0---|
|-------------------------------------------------------------------|

         pm--|       pm--|               pm-----------------------|
|-----------------------------------------------------------------|
|---------------------------------3-3-3-3-----3-3-3-3-------------|
|-5-5-5-5-----5-5-5-5-----5-5-----4-4-4-4-----4-4-4-4-------------|
|-3-3-3-3-----3-3-3-3-----3-3-----5-5-5-5-----5-5-5-5-------------|
|---------0-0---------0-0-----0-0---------0-0---------0-0-5-8-----|
|---------------------------------------------------------5-8-----|


 Guitar 2 dist
                                                           a.h
|---------------------------------------------------------------|
|---------------------------------------------------------------|
|-2-------------------------------------------------------------|
|-2-------------------------------------------------------------|
|-0---------------------------------------------------0-0-5-----|
|---------------------------------------------------------5-8---|

 Intro 2
 Guitar 1
         pm--|       pm--|               pm--|       pm-------------|
|-------------------------------------------------------------------|
|-------------------------------------------------------------------|
|-2-2-2-2-----2-2-2-2-----2-2-----4-4-4-4-----4-4-4-4-----4-4-------|
|-2-2-2-2-----2-2-2-2-----2-2-----2-2-2-2-----2-2-2-2-----2-2-------|
|---------0-0---------0-0-----0-0---------0-0---------0-0-----0-0---|
|-------------------------------------------------------------------|

         pm--|       pm--|               pm-----------------------|
|-----------------------------------------------------------------|
|---------------------------------3-3-3-3-----3-3-3-3-------------|
|-5-5-5-5-----5-5-5-5-----5-5-----4-4-4-4-----4-4-4-4-------------|
|-3-3-3-3-----3-3-3-3-----3-3-----5-5-5-5-----5-5-5-5-------------|
|---------0-0---------0-0-----0-0---------0-0---------0-0-5-8-----|
|---------------------------------------------------------5-8-----|x2

 Guitar 2
         pm--|       pm--|               pm--|       pm-------------|
|-------------------------------------------------------------------|
|-------------------------------------------------------------------|
|-2-2-2-2-----2-2-2-2-----2-2-----4-4-4-4-----4-4-4-4-----4-4-------|
|-2-2-2-2-----2-2-2-2-----2-2-----2-2-2-2-----2-2-2-2-----2-2-------|
|---------0-0---------0-0-----0-0---------0-0---------0-0-----0-0---|
|-------------------------------------------------------------------|

         pm--|       pm--|               pm-----------------------|              a.h
|-----------------------------------------------------------------|
|---------------------------------3-3-3-3-----3-3-3-3-------------|
|-5-5-5-5-----5-5-5-5-----5-5-----4-4-4-4-----4-4-4-4-------------|
|-3-3-3-3-----3-3-3-3-----3-3-----5-5-5-5-----5-5-5-5-------------|
|---------0-0---------0-0-----0-0---------0-0---------0-0-5-------|
|---------------------------------------------------------5-8-----|x2

 Verse 1
 Guitar 1 clean
let ring----------------------------------------------------------|
|-----------------------------------0-----------------------------|
|---------------------------------------3-------------------------|
|---0---0---------------0---0-----2---2---------0---0-------------|
|-2---2---------------2---2-------------------2---2---------------|
|-----------------------------------------------------------------|
|-----------------------------------------------------------------|

let ring------------------|
|-------------------------|
|-------------------------|
|---0---0-------2---4-----|
|-2---2-------0---0-------|
|-------------------------|
|-------------------------|x2


 Guitar 2 clean
let ring----------------------------------------------------------|
|-----------------------------------------------------------------|
|-------0-------------------0-------1--0------------0-------------|
|---0-------------------0---------2------------0------------------|
|-2---2---------------2---2------------------2---2----------------|
|-----------------------------------------------------------------|
|-----------------------------------------------------------------|

let ring------------------|
|-------------------------|
|-------0-----------------|
|---0---------------0-----|
|-2---2---------4---------|
|-------------5---5-------|
|-------------------------|x2

 Pre-Chorus
 Guitar 1 dist                pm-------------------------------|
|--------------------------------------------------------------|
|--------------------------------------------------------------|
|-2-2-2-2---2-2-2-2---2-5-5-7----------------------------------|
|-2-2-2-2---2-2-2-2---2-5-5-7----------------------------------|
|-0-0-0-0---0-0-0-0---0-3-3-5--0-0-0-0-0-0-0---------------3---|
|------------------------------0-0-0-0-0-0-0-0-2-2-3-3-5-5-----|x2

 Guitar 2 dist
|---------------------------------------------------------------------|
|-/13---12~------/13---12------------------------------10-10/12-12h13-|
|-----------9~-------------9-9--10-10----9h10-10/12-12----------------|
|---------------------------------------------------------------------|
|---------------------------------------------------------------------|
|---------------------------------------------------------------------|x2

 Rest before chorus
 Guitar 1,2
|--------|
|--------|
|--------|
|--------|
|--------|
|--------|

 Chorus
 Guitar 1 dist
 pm          pm-|
|---------------------------------------------------|
|---------------------------------------------------|
|---------------------------------------------------|
|---10-9-7----7-7-9-7-5--------7-5---7-5------------|
|-7------------------------8-8-----8-----8-8--------|
|---------------------------------------------------|

 pm--|          pm-|
|------------------------------------------------------|
|------------------------------------------------------|
|------------------------------------------------------|
|-----10-9-7----7-7-9-7-5-------------------5----6-----|
|-7-7------------------------3-/5-5-7-7-8-8------------|
|------------------------------------------------------|x2

 Guitar 2 dist
|--------------------------------------------------------|
|--------------------------------------------------------|
|-2--2--2-2-2--------------------------------------------|
|-2--2--2-2-2--------------------------------------------|
|-0--0--0-0-0-2--2-2--2-2-2-3--3-3--3-3-3-0--0-0--0-0-0--|
|-------------2--2-2--2-2-2-3--3-3--3-3-3-0--0-0--0-0-0--|

|--------------------------------------------------------|
|--------------------------------------------------------|
|-2--2--2-2-2--------------------------------------------|
|-2--2--2-2-2--------------------------------------------|
|-0--0--0-0-0-2--2-2--2-2-2-3--3-3--3-3-3-5--5-5-6--6-6--|
|-------------2--2-2--2-2-2-3--3-3--3-3-3-5--5-5-6--6-6--|x2

 Verse 2
 Guitar 1 clean
let ring----------------------------------------------------------|
|-----------------------------------0-----------------------------|
|---------------------------------------3-------------------------|
|---0---0---------------0---0-----2---2---------0---0-------------|
|-2---2---------------2---2-------------------2---2---------------|
|-----------------------------------------------------------------|
|-----------------------------------------------------------------|

let ring------------------|
|-------------------------|
|-------------------------|
|---0---0-------2---4-----|
|-2---2-------0---0-------|
|-------------------------|
|-------------------------|x2

 Guitar 2 clean
let ring----------------------------------------------------------|
|-----------------------------------------------------------------|
|-------0-------------------0-------1--0------------0-------------|
|---0-------------------0---------2------------0------------------|
|-2---2---------------2---2------------------2---2----------------|
|-----------------------------------------------------------------|
|-----------------------------------------------------------------|

let ring------------------|
|-------------------------|
|-------0-----------------|
|---0---------------0-----|
|-2---2---------4---------|
|-------------5---5-------|
|-------------------------|x2

 Pre-Chorus
 Guitar 1 dist
|---------------------------------------------------------------------|
|-/13---12~------/13---12------------------------------10-10/12-12h13-|
|-----------9~-------------9-9--10-10----9h10-10/12-12----------------|
|---------------------------------------------------------------------|
|---------------------------------------------------------------------|
|---------------------------------------------------------------------|x2


 Guitar 2 dist
                              pm-------------------------------|
|--------------------------------------------------------------|
|--------------------------------------------------------------|
|-2-2-2-2---2-2-2-2---2-5-5-7----------------------------------|
|-2-2-2-2---2-2-2-2---2-5-5-7----------------------------------|
|-0-0-0-0---0-0-0-0---0-3-3-5--0-0-0-0-0-0-0---------------3---|
|------------------------------0-0-0-0-0-0-0-0-2-2-3-3-5-5-----|x2


 Rest before chorus
 Guitar 1,2
|--------|
|--------|
|--------|
|--------|
|--------|
|--------|

 Chorus
 Guitar 1 dist
 pm           pm-|
|---------------------------------------------------|
|---------------------------------------------------|
|---------------------------------------------------|
|---10-9-7----7-7-9-7-5--------7-5---7-5------------|
|-7------------------------8-8-----8-----8-8--------|
|---------------------------------------------------|
 pm--|          pm-|
|------------------------------------------------------|
|------------------------------------------------------|
|------------------------------------------------------|
|-----10-9-7----7-7-9-7-5-------------------5----6-----|
|-7-7------------------------3-/5-5-7-7-8-8------------|
|------------------------------------------------------|x2

 Guitar 2 dist
|--------------------------------------------------------|
|--------------------------------------------------------|
|-2--2--2-2-2--------------------------------------------|
|-2--2--2-2-2--------------------------------------------|
|-0--0--0-0-0-2--2-2--2-2-2-3--3-3--3-3-3-0--0-0--0-0-0--|
|-------------2--2-2--2-2-2-3--3-3--3-3-3-0--0-0--0-0-0--|

|--------------------------------------------------------|
|--------------------------------------------------------|
|-2--2--2-2-2--------------------------------------------|
|-2--2--2-2-2--------------------------------------------|
|-0--0--0-0-0-2--2-2--2-2-2-3--3-3--3-3-3-5--5-5-6--6-6--|
|-------------2--2-2--2-2-2-3--3-3--3-3-3-5--5-5-6--6-6--|x2

 Bridge
 Guitar 1 dist
         pm--|       pm--|               pm--|       pm-------------|
|-------------------------------------------------------------------|
|-------------------------------------------------------------------|
|-2-2-2-2-----2-2-2-2-----2-2-----4-4-4-4-----4-4-4-4-----4-4-------|
|-2-2-2-2-----2-2-2-2-----2-2-----2-2-2-2-----2-2-2-2-----2-2-------|
|---------0-0---------0-0-----0-0---------0-0---------0-0-----0-0---|
|-------------------------------------------------------------------|

         pm--|       pm--|               pm-------------------------|
|-------------------------------------------------------------------|
|---------------------------------3-3-3-3-----3-3-3-3---------------|
|-5-5-5-5-----5-5-5-5-----5-5-----4-4-4-4-----4-4-4-4---------------|
|-3-3-3-3-----3-3-3-3-----3-3-----5-5-5-5-----5-5-5-5---------------|
|---------0-0---------0-0-----0-0---------0-0---------0-0-5-8-------|
|---------------------------------------------------------5-8-------|
         pm--|       pm--|               pm--|       pm-------------|
|-------------------------------------------------------------------|
|-------------------------------------------------------------------|
|-2-2-2-2-----2-2-2-2-----2-2-----4-4-4-4-----4-4-4-4-----4-4-------|
|-2-2-2-2-----2-2-2-2-----2-2-----2-2-2-2-----2-2-2-2-----2-2-------|
|---------0-0---------0-0-----0-0---------0-0---------0-0-----0-0---|
|-------------------------------------------------------------------|

         pm--|       pm--|               pm------------------------|
|------------------------------------------------------------------|
|---------------------------------3-3-3-3-----3-3------------------|
|-5-5-5-5-----5-5-5-5-----5-5-----4-4-4-4-----4-4------------------|
|-3-3-3-3-----3-3-3-3-----3-3-----5-5-5-5-----5-5----2-0h2p0-------|
|---------0-0---------0-0-----0-0---------0-0-----------------2----|
|-------------------------------------------------2----------------|

 Guitar 2 dist
         pm--|       pm--|               pm--|       pm-------------|
|-------------------------------------------------------------------|
|-------------------------------------------------------------------|
|-2-2-2-2-----2-2-2-2-----2-2-----4-4-4-4-----4-4-4-4-----4-4-------|
|-2-2-2-2-----2-2-2-2-----2-2-----2-2-2-2-----2-2-2-2-----2-2-------|
|---------0-0---------0-0-----0-0---------0-0---------0-0-----0-0---|
|-------------------------------------------------------------------|

         pm--|       pm--|               pm-----------------------|              a.h
|-----------------------------------------------------------------|
|---------------------------------3-3-3-3-----3-3-3-3-------------|
|-5-5-5-5-----5-5-5-5-----5-5-----4-4-4-4-----4-4-4-4-------------|
|-3-3-3-3-----3-3-3-3-----3-3-----5-5-5-5-----5-5-5-5-------------|
|---------0-0---------0-0-----0-0---------0-0---------0-0-5-------|
|---------------------------------------------------------5-8-----|

         pm--|       pm--|               pm--|       pm-------------|
|-------------------------------------------------------------------|
|-------------------------------------------------------------------|
|-2-2-2-2-----2-2-2-2-----2-2-----4-4-4-4-----4-4-4-4-----4-4-------|
|-2-2-2-2-----2-2-2-2-----2-2-----2-2-2-2-----2-2-2-2-----2-2-------|
|---------0-0---------0-0-----0-0---------0-0---------0-0-----0-0---|
|-------------------------------------------------------------------|

         pm--|       pm--|               pm------------------------|
|------------------------------------------------------------------|
|---------------------------------3-3-3-3-----3-3------------------|
|-5-5-5-5-----5-5-5-5-----5-5-----4-4-4-4-----4-4------------------|
|-3-3-3-3-----3-3-3-3-----3-3-----5-5-5-5-----5-5----3-2h3p2-------|
|---------0-0---------0-0-----0-0---------0-0-----------------5----|
|-------------------------------------------------2----------------|

 Solo 1
 Guitar 1 dist
 pm------------------------------------|
|--------------------------------------|
|--------------------------------------|
|------9---7------9---7------9---7~----|
|---10-------10---------10-------------|
|-8------8------8---8------8---8-------|
|--------------------------------------|


  pm-----------------------------------------------|
|--------------------------------------------------|
|--------------------------------------------------|
|-------10----9-------10----9-------9h10p9---------|
|----10---------10------------10-----------12-10---|
|-12-------12------12----12------12----------------|
|--------------------------------------------------|

 pm------------------------------------|
|--------------------------------------|
|--------------------------------------|
|------9---7------9---7------9---7~----|
|---10-------10---------10-------------|
|-8------8------8---8------8---8-------|
|--------------------------------------|


 Guitar 2 dist
 pm-------------------------------------|
|---------------------------------------|
|-----8-----------8------------8--------|
|---------10----------10-----------10---|
|------------10----------10-------------|
|-8-8---8-------8---8-------8----8------|
|---------------------------------------|

 pm----------------------------------------|
|------------------------------------------|
|------------------------------------------|
|-----10---9-9---10---9-----9h10p9-7-------|
|-7-7----7-----7----7---7-7-----------10---|
|------------------------------------------|
|------------------------------------------|


pm--------------------------------------|
|---------------------------------------|
|-----8-----------8-----------8---------|
|---------10----------10----------10----|
|------------10----------10-------------|
|-8-8---8-------8---8-------8---8-------|
|---------------------------------------|

 Solo 2
 Guitar 1 dist
|-------------15-17-15-------------------------------------|
|----------18-------------------------------------------15-|
|----14-17----------------------17-14----17-14----17-------|
|-15----------------------------------15-------15----15----|
|----------------------------------------------------------|
|----------------------------------------------------------|

|-----------------------------------------15~----------|
|-------------------------15-----------15--------------|
|-14-17-14-16-14-17-14-17----17-16--17-----------------|
|------------------------------------------------------|
|------------------------------------------------------|
|------------------------------------------------------|

|----------------------------|
|----------------------------|
|-7-----------------2--------|
|-7--------2--------2--------|
|-5--------2--------0--------|
|----------2-----------------|

 Guitar 2 dist

|--------------------------------|
|----------15-17-18-17~----------|
|----14-14-----------------------|
|-15-----------------------------|
|--------------------------------|
|--------------------------------|


|-------------------------------------------------|
|-17-13----17-13----17----18----17----15----17----|
|-------14-------14----14----14----14----14----14-|
|-------------------------------------------------|
|-------------------------------------------------|
|-------------------------------------------------|

                                                   b 1/4 r
|--------------------------------17~--------19----19----17----|
|-17-18-17-15--17-18-17~--------------------------------------|
|-------------------------------------------------------------|
|-------------------------------------------------------------|
|-------------------------------------------------------------|
|-------------------------------------------------------------|

 Bridge with solo
 Guitar 1 dist
         pm--|       pm--|               pm--|       pm-------------|
|-------------------------------------------------------------------|
|-------------------------------------------------------------------|
|-2-2-2-2-----2-2-2-2-----2-2-----4-4-4-4-----4-4-4-4-----4-4-------|
|-2-2-2-2-----2-2-2-2-----2-2-----2-2-2-2-----2-2-2-2-----2-2-------|
|---------0-0---------0-0-----0-0---------0-0---------0-0-----0-0---|
|-------------------------------------------------------------------|

         pm--|       pm--|               pm-----------------------|
|-----------------------------------------------------------------|
|---------------------------------3-3-3-3-----3-3-3-3-------------|
|-5-5-5-5-----5-5-5-5-----5-5-----4-4-4-4-----4-4-4-4-------------|
|-3-3-3-3-----3-3-3-3-----3-3-----5-5-5-5-----5-5-5-5-------------|
|---------0-0---------0-0-----0-0---------0-0---------0-0-5-8-----|
|---------------------------------------------------------5-8-----|

Guitar 2 dist
                                                                a.h
 |-----just keep the note alive-----|                b full  r  b 1/4-----|
|-17----17----17--17--17-17---17--17------17--15-17-18------15--17--------|
|-------------------------------------------------------------------------|
|-------------------------------------------------------------------------|
|-------------------------------------------------------------------------|
|-------------------------------------------------------------------------|
|-------------------------------------------------------------------------|

                          a.h
|-19-20-19--------------------|
|-----------------------------|
|-----------------------------|
|-----------------------------|
|-------------------0-0-5-----|
|-----------------------5-8---|

Bridge
Guitar 1 dist
         pm--|       pm--|               pm--|       pm-------------|
|-------------------------------------------------------------------|
|-------------------------------------------------------------------|
|-2-2-2-2-----2-2-2-2-----2-2-----4-4-4-4-----4-4-4-4-----4-4-------|
|-2-2-2-2-----2-2-2-2-----2-2-----2-2-2-2-----2-2-2-2-----2-2-------|
|---------0-0---------0-0-----0-0---------0-0---------0-0-----0-0---|
|-------------------------------------------------------------------|

         pm--|       pm--|               pm-----------------------|
|-----------------------------------------------------------------|
|---------------------------------3-3-3-3-----3-3-3-3-------------|
|-5-5-5-5-----5-5-5-5-----5-5-----4-4-4-4-----4-4-4-4-------------|
|-3-3-3-3-----3-3-3-3-----3-3-----5-5-5-5-----5-5-5-5-------------|
|---------0-0---------0-0-----0-0---------0-0---------0-0-5-8-----|
|---------------------------------------------------------5-8-----|

Guiter 2 dist
         pm--|       pm--|               pm--|       pm-------------|
|-------------------------------------------------------------------|
|-------------------------------------------------------------------|
|-2-2-2-2-----2-2-2-2-----2-2-----4-4-4-4-----4-4-4-4-----4-4-------|
|-2-2-2-2-----2-2-2-2-----2-2-----2-2-2-2-----2-2-2-2-----2-2-------|
|---------0-0---------0-0-----0-0---------0-0---------0-0-----0-0---|
|-------------------------------------------------------------------|

         pm--|       pm--|               pm-|               a.h
|---------------------------------------------------------------|
|---------------------------------3-3-3-3-----3-3-3-3-----------|
|-5-5-5-5-----5-5-5-5-----5-5-----4-4-4-4-----4-4-4-4-----------|
|-3-3-3-3-----3-3-3-3-----3-3-----5-5-5-5-----5-5-5-5-----------|
|---------0-0---------0-0-----0-0---------0-0---------0-0-5-----|
|---------------------------------------------------------5-8---|

Verse 3
Guitar 1 clean
let ring----------------------------------------------------------|
|-----------------------------------0-----------------------------|
|---------------------------------------3-------------------------|
|---0---0---------------0---0-----2---2---------0---0-------------|
|-2---2---------------2---2-------------------2---2---------------|
|-----------------------------------------------------------------|
|-----------------------------------------------------------------|


let ring------------------|
|-------------------------|
|-------------------------|
|---0---0-------2---4-----|
|-2---2-------0---0-------|
|-------------------------|
|-------------------------|x2


 Guitar 2 clean
let ring----------------------------------------------------------|
|-----------------------------------------------------------------|
|-------0-------------------0-------1--0------------0-------------|
|---0-------------------0---------2------------0------------------|
|-2---2---------------2---2------------------2---2----------------|
|-----------------------------------------------------------------|
|-----------------------------------------------------------------|


let ring------------------|
|-------------------------|
|-------0-----------------|
|---0---------------0-----|
|-2---2---------4---------|
|-------------5---5-------|
|-------------------------|x2

 Pre-Chorus
 Guitar 1 dist
                              pm-------------------------------|
|--------------------------------------------------------------|
|--------------------------------------------------------------|
|-2-2-2-2---2-2-2-2---2-5-5-7----------------------------------|
|-2-2-2-2---2-2-2-2---2-5-5-7----------------------------------|
|-0-0-0-0---0-0-0-0---0-3-3-5--0-0-0-0-0-0-0---------------3---|
|------------------------------0-0-0-0-0-0-0-0-2-2-3-3-5-5-----|x2

 Guitar 2 dist
|---------------------------------------------------------------------|
|-/13---12~------/13---12------------------------------10-10/12-12h13-|
|-----------9~-------------9-9--10-10----9h10-10/12-12----------------|
|---------------------------------------------------------------------|
|---------------------------------------------------------------------|
|---------------------------------------------------------------------|x2

 Rest before chorus
 Guitar 1,2
|----------------|
|----------------|
|----------------|
|----------------|
|----------------|
|----------------|

 Chorus
 Guitar 1 dist
 pm           pm-|
|---------------------------------------------------|
|---------------------------------------------------|
|---------------------------------------------------|
|---10-9-7----7-7-9-7-5--------7-5---7-5------------|
|-7------------------------8-8-----8-----8-8--------|
|---------------------------------------------------|

  pm-|          pm-|
|------------------------------------------------------|
|------------------------------------------------------|
|------------------------------------------------------|
|-----10-9-7----7-7-9-7-5-------------------5----6-----|
|-7-7------------------------3-/5-5-7-7-8-8------------|
|------------------------------------------------------|x2

 Guitar 2 dist
|--------------------------------------------------------|
|--------------------------------------------------------|
|-2--2--2-2-2--------------------------------------------|
|-2--2--2-2-2--------------------------------------------|
|-0--0--0-0-0-2--2-2--2-2-2-3--3-3--3-3-3-0--0-0--0-0-0--|
|-------------2--2-2--2-2-2-3--3-3--3-3-3-0--0-0--0-0-0--|

|--------------------------------------------------------|
|--------------------------------------------------------|
|-2--2--2-2-2--------------------------------------------|
|-2--2--2-2-2--------------------------------------------|
|-0--0--0-0-0-2--2-2--2-2-2-3--3-3--3-3-3-5--5-5-6--6-6--|
|-------------2--2-2--2-2-2-3--3-3--3-3-3-5--5-5-6--6-6--|x2

 Outro part 1
 Guitar 1 dist
         pm--|       pm--|               pm--|       pm-------------|
|-------------------------------------------------------------------|
|-------------------------------------------------------------------|
|-2-2-2-2-----2-2-2-2-----2-2-----4-4-4-4-----4-4-4-4-----4-4-------|
|-2-2-2-2-----2-2-2-2-----2-2-----2-2-2-2-----2-2-2-2-----2-2-------|
|---------0-0---------0-0-----0-0---------0-0---------0-0-----0-0---|
|-------------------------------------------------------------------|

         pm--|       pm--|               pm-----------------------|
|-----------------------------------------------------------------|
|---------------------------------3-3-3-3-----3-3-3-3-------------|
|-5-5-5-5-----5-5-5-5-----5-5-----4-4-4-4-----4-4-4-4-------------|
|-3-3-3-3-----3-3-3-3-----3-3-----5-5-5-5-----5-5-5-5-------------|
|---------0-0---------0-0-----0-0---------0-0---------0-0-5-8-----|
|---------------------------------------------------------5-8-----|


 Guitar 2 dist
         pm--|       pm--|               pm--|       pm-------------|
|-------------------------------------------------------------------|
|-------------------------------------------------------------------|
|-2-2-2-2-----2-2-2-2-----2-2-----4-4-4-4-----4-4-4-4-----4-4-------|
|-2-2-2-2-----2-2-2-2-----2-2-----2-2-2-2-----2-2-2-2-----2-2-------|
|---------0-0---------0-0-----0-0---------0-0---------0-0-----0-0---|
|-------------------------------------------------------------------|

         pm--|       pm--|               pm-----------------------|              a.h
|-----------------------------------------------------------------|
|---------------------------------3-3-3-3-----3-3-3-3-------------|
|-5-5-5-5-----5-5-5-5-----5-5-----4-4-4-4-----4-4-4-4-------------|
|-3-3-3-3-----3-3-3-3-----3-3-----5-5-5-5-----5-5-5-5-------------|
|---------0-0---------0-0-----0-0---------0-0---------0-0-5-------|
|---------------------------------------------------------5-8-----|

 Outro part 2
 Guitar 1
                pm--------------------------------|
|-------------------------------------------------|
|-------------------------------------------------|
|------------------------------5-----------5------|
|----------------------0-2-3-5-3-----------3------|
|----------------0-2-3---------0-----------0------|
|-------------------------------------------------|

|-----------------------------------------|
|-----------------------------------------|
|-4---------------4----------2-2-2--------|
|-3---------------3----------2-2-2--------|
|-0---------------0----------0-0-0--------|
|-----------------------------------------|

 Guitar 2 dist
                                      pm--|       pm--|   pm-----|
|----------------------------------------------------------------|
|----------------------------------------------------------------|
|-2-2-2-2--2-2-2---------------5-5-5-5-----5-5-5-5-----5-5-------|
|-2-0-0-0--2-2-2---------------3-3-3-3-----3-3-3-3-----3-3-------|
|-0-0-0-0--0-0-0-----------------------0-0---------0-0-----0-0---|
|----------------------------------------------------------------|

         pm--|       pm--|   pm-----|
|-----------------------------------|
|-----------------------------------|
|-4-4-4-4-----5-5-5-5-----5-5-------|
|-3-3-3-3-----3-3-3-3-----3-3-------|
|---------0-0---------0-0-----0-0---|
|-----------------------------------|

 Outro part 3
 Guitar 1 dist
         pm--|
|---------------------------------------|
|---------------------------------------|
|-7-7-7-7-----7-7-7-7-----------2-2-2-2-|
|-5-5-5-5-----5-5-5-5-----------2-2-2-2-|
|---------0-0---------0-0-5-8---0-0-0-0-|
|-------------------------5-8-----------|

 Guitar 2 dist
         pm--|             a.h
|---------------------------------------|
|---------------------------------------|
|-7-7-7-7-----7-7-7-7-----------2-2-2-2-|
|-5-5-5-5-----5-5-5-5-----------2-2-2-2-|
|---------0-0---------0-0-5-----0-0-0-0-|
|-------------------------5-8-----------|
comments
We did not receive enough feedback on this tab! Please rate:
print report bad tab
1 2 3 4 5
6 comments total. Showing first comments.
0 reply
min_mamma wrote on May 28 2007, 12:14 pm

I did some misstakes, some palm-mutes is't where they shuld be, but exept that i think it's a pretty good tab

0 reply
lucasbzerbe wrote on December 17 2010, 06:10 pm

ok i found this by ears i believe it sounds eggzactly like the recording
E----------------------------------------------------------
B-----------------------------------------------------5----
G-4----------4----4----6----------------7-------------6----
D-4----------4----4----4----------------7-------------7----
A-2-x4(rest)-2-x4-2-x2-2-(same pattern)-5(samePatern)------
E-------------------------------------------------------000
E----
B----
G--4-
D--4-
A--2-(I bend all strings on this note)

E----

0 reply
Raygunn wrote on July 17 2011, 10:30 pm

do not like that 3 on the F string (standard tuning B string) in the intro, otherwise great tab

I want to post or [tab]
guest
You may want to rate the tab now too:
select rating
Please do not post tabs as comments. Select "correction" instead!