Oops, an error
Loading. Please wait.

Clad In Shadows Tab

ver1
ver1

Solo

Whole song

Interactive

More versions @911Tabs.com
4,396 views 1 this week
no commentswrite comment
1 2 3 4 5
excellent!
x 4
add to favorites launch autoscroll
font size
0
reset
Autoscroll
+/-
esc
set tempo
stop
WARNING: You are trying to view
                                    content from Ultimate-Guitar.com
                                    in an unauthorized application,
                                    which is prohibited.

                                    Please use an official Ultimate
                                    Guitar Tabs application for iPhone,
                                    iPad or Android to access legitimate
                                    chords, guitar, bass, and drum tabs
                                    from Ultimate-Guitar.com database.

                                    Type "ultimate guitar tabs" in Apple
                                    App Store's or Android Market's
                                    search to find the application.
                      IN FLAMES - CLAD IN SHADOWS '99
                           From the Album COLONY
                    Copyright 1999 NUCLEAR BLAST RECORDS
                         Version 1.0 - August 2001

Transcribed by: Marcus Päiviö

For Questions, Comments, Newest Version, or Corrections contact
 MaKe: at the_parasite24@hotmail.com

Check Out Death Warp, With More Transcriptions On It:
 http://www.sorrowsend.com/DeathWarp/

- palm mute          /  - slide up to
\  - slide down to   ~  - vibrato h  - hammer on          b  - bend
p  - pull off        Suffixes for bend
                          ph - pinch harmonic
                           f - full bend    h - half bend
*  - see comment           r - release      t - tap bend
X  - percussion mute       ~ - vibrato bend
@  - slight palm mute     () - ghost note, sustained note


Tune Gtr to C(C,F,A#,D#,G,C)

In Flames - Clad In Shadows '99

Riff A.1
|----------------------------------|
|----------------------------------|
|----------------------------------|Gtr
|-----2222----2222----3333---------| I
|-0000----3000----3000----1111-----|
|-----------------------------3333-|
|                                  |
|----------------------------------|
|----------------------------------|
|-2-----------------------3--------|Gtr
|-2-----------------------3---5----| II
|-0-----------------------1---5----|
|-----------------------------3----|

Repeat Riff A.1 (3 times)

Riff B.1
|---------------------------------|
|---------------------------------|
|---------------------------------|Gtr
|---------------------------------| I
|-----8~------7~------5~------7~--|
|-0-0-----0-0-----0-0-----0-0-----|
| . .     . .     . .     . .     |
|---------------------------------|
|---------------------------------|
|---------------------------------|Gtr
|-------------9~--------------9~--| II
|-----5~--------------8~----------|
|-0-0-----0-0-----0-0-----0-0-----|
  . .     . .     . .     . .

Repeat Riff B.1 (1 time)
Repeat Riff A.1 (1 time)

Riff A.2
|-------------------------------|
|-------------------------------|
|-------------------------------|Gtr
|-----2222----2222----3333------| I
|-0000----3000----3000----1-----|
|---------------------------3---|
|                               |
|-------------------------------|
|-------------------------------|
|-2-----------------------3-----|Gtr
|-2-----------------------3-5---| II
|-0-----------------------1-5---|
|---------------------------3---|

Riff A.3
|----------------------------------|
|----------------------------------|
|----------------------------------|Gtr
|-----2222----2222----3333---------| I
|-0000----3000----3000----1111-----|
|-----------------------------3333-|
|                                  |
|----------------------------------|
|----------------------------------|
|----------------------------------|Gtr
|-2222----2222----22223333---------| II
|-----3333----3333--------55555555-|
|----------------------------------|
|                                  |
|----------------------------------|
|----------------------------------|
|-2-----------------------3--------|Gtr
|-2-----------------------3---5----|III
|-0-----------------------1---5----|
|-----------------------------3----|

Repeat Riff A.3 (1 time)

Riff C.1
|-----------------------------------------------------------------------|
|-----------------------------------------------------------------------|
|-----------------------------------------------------------------------|Gtrs I
|------------------------------------------------9-----------------9----|  & II
|-----7-----9-10-9-----7-----9-10-9-----9-----10---10-----9-----10---10-|
|-0-0---0-0--------0-0---0-0--------7-7---7-7---------7-7---7-7---------|
  . .   . .        . .   . .        . .   . .         . .   . .

Repeat Riff C.1 (1 time)

Riff C.2
|---------------------------------------------------------------------|
|---------------------------------------------------------------------|
|---------------------------------------------------------------------|Gtrs I
|---------------------------------------------9----------------9------|  & II
|-----7-----9-10-9-----7-----9-10-9-----9-------9-10-----9-------9-10-|
|-6-6---6-6--------6-6---6-6--------7-7---7-7--------7-7---7-7--------|
  . .   . .        . .   . .        . .   . .        . .   . .

Riff C.3
|-------------------------------------------------------------------------|
|-------------------------------------------------------------------------|
|-------------------------------------------------------------------------|Gtr
|--------------------------------------------------9-----------------9----| I
|-----7------9-10-9-----7------9-10-9-----9-----10---10-----9-----10---10-|
|-0-0----0-0--------0-0----0-0--------7-7---7-7---------7-7---7-7---------|
| . .    . .        . .    . .        . .   . .         . .   . .         |
|-------------------------------------------------------------------------|
|-------------------------------------------------------------------------|
|-------------------------------------------------------------------------|Gtr
|-----------------------------------------7-----------------7-------------| II
|-----10-----9-7--9-----10-----9-7--9-----------10-9-10-----------10-9-10-|
|-0-0----0-0--------0-0----0-0--------7-7---7-7---------7-7---7-7---------|
  . .    . .        . .    . .        . .   . .         . .   . .

Repeat Riff C.3 (1 time)

Riff C.4
|------------------------------------------------------------------------|
|------------------------------------------------------------------------|
|------------------------------------------------------------------------|Gtr
|---------------------------------------------9-------7------------------| I
|-----7-----9-10-9-----7-----9-10-9-----9-------9-10----10-9-7-10-9-7----|
|-6-6---6-6--------6-6---6-6--------7-7---7-7-------------------------10-|
| . .   . .        . .   . .        . .   . .                            |
|------------------------------------------------------------------------|
|------------------------------------------------------------------------|
|-----------------------------------------------------7-5------5---------|Gtr
|---------------------------------------7-----9------------9-7----9-7-5--| II
|-----7-----9-10-9-----7-----9-10-9-------------9-10---------------------|
|-6-6---6-6--------6-6---6-6--------7-7---7-7----------------------------|
  . .   . .        . .   . .        . .   . .

Solo 1
|/7----------------h-----p-h---|
|---10-8-7----7-8-810---8-7-8~-|
|-----------7------------------|Gtr
|------------------------------| I
|------------------------------|
|------------------------------|

Solo 1 Riff play on top of Solo 1
|--------------------------------------------------------------------|
|--------------------------------------------------------------------|
|--------------------------------------------------------------------|Gtr
|-------4-5--------------4-5--------------4-5--------------4-5-------| II
|-2-222-----2-2-2--2-222-----2-2-0--2-222-----2-2-2--2-222-----2-2-2-|
|--------------------------------------------------------------------|
  . ...     . . .  . ...     . . .  . ...     . . .  . ...     . . .

Solo 2
|-7"-8"---5"-7"-8"--10"--7"-8"---5"-8"--7~--|
|-------------------------------------------|
|-------------------------------------------|Gtr
|-------------------------------------------| I
|-------------------------------------------|
|-------------------------------------------|
|                                           |
|-------------------------------------------|
|-8"-10"--7"-8"-10"-12"--8"-10"--7"-10"-8~--|
|-------------------------------------------|Gtr
|-------------------------------------------| II
|-------------------------------------------|
|-------------------------------------------|
|                                           |
|-------------------------------------------|
|-------------------------------------------|
|-2----------------------2------------------|Gtr
|-2----------------------2------------------|III
|-0----------------------0------------------|
|-------------------------------------------|


|-----------------------------------------------------------------|
|-3p0h3p0h3p0h3p0h5p0h5p0h5p0h5p0h2p0h2p0h2p0h2p0h3p0h3p0h3p0h3p0-|
|-----------------------------------------------------------------|Gtr
|-----------------------------------------------------------------| I
|-----------------------------------------------------------------|
|-----------------------------------------------------------------|
|                                                                 |
|-----------------------------------------------------------------|
|-7p0h7p0h7p0h7p0h8p0h8p0h8p0h8p0h5p0h5p0h5p0h5p0h7p0h7p0h7p0h7p0-|
|-----------------------------------------------------------------|Gtr
|-----------------------------------------------------------------| II
|-----------------------------------------------------------------|
|-----------------------------------------------------------------|
|                                                                 |
|-----------------------------------------------------------------|
|-----------------------------------------------------------------|
|-4-------------------------------4-----------------------5---2---|Gtr
|-4-------------------------------4-----------------------5---2---|III
|-2-------------------------------2-----------------------3---0---|
|-----------------------------------------------------------------|


|-----------------------------------------------------------------|
|-3p0h3p0h3p0h3p0h5p0h5p0h5p0h5p0h2p0h2p0h2p0h2p0h3p0h3p0h3p0h3p0-|
|-----------------------------------------------------------------|Gtr
|-----------------------------------------------------------------| I
|-----------------------------------------------------------------|
|-----------------------------------------------------------------|
|                                                                 |
|-----------------------------------------------------------------|
|-7p0h7p0h7p0h7p0h8p0h8p0h8p0h8p0h5p0h5p0h5p0h5p0h7p0h7p0h7p0h7p0-|
|-----------------------------------------------------------------|Gtr
|-----------------------------------------------------------------| II
|-----------------------------------------------------------------|
|-----------------------------------------------------------------|
|                                                                 |
|-----------------------------------------------------------------|
|-----------------------------------------------------------------|
|-4------------------------------(4)----------------------5---2---|Gtr
|-4------------------------------(4)----------------------5---2---| II
|-2------------------------------(2)----------------------3---0---|
|-----------------------------------------------------------------|


|---------------------------------------------------------------------------------|
|-12p0h10p0h12p0h13p0h12p0h10p0h12p0h10p0h12p0h10p0h12p0h13p0h15p0h13p0h12p0h10p0-|
|---------------------------------------------------------------------------------|
|---------------------------------------------------------------------------------|
|---------------------------------------------------------------------------------|
|---------------------------------------------------------------------------------|
|                                                                                 |
|---------------------------------------------------------------------------------|
|-8-p0h7-p0h8-p0h10p0h8 p0h7 p0h8 p0h7 p0h8 p0h7 p0h8 p0h10p0h12p0h10p0h8-p0h7p0--|
|---------------------------------------------------------------------------------|Gtr
|---------------------------------------------------------------------------------| II
|---------------------------------------------------------------------------------|
|---------------------------------------------------------------------------------|
|                                                                                 |
|---------------------------------------------------------------------------------|
|---------------------------------------------------------------------------------|
|-4-------------------------------4-------------------------------------5----2----|Gtr
|-4-------------------------------4-------------------------------------5----2----| II
|-2-------------------------------2-------------------------------------3----0----|
|---------------------------------------------------------------------------------|


|---------------------------------------------------------------------------------|
|-12p0h10p0h12p0h13p0h12p0h10p0h12p0h10p0h12p0h10p0h12p0h13p0h15p0h13p0h12p0h10p0-|
|---------------------------------------------------------------------------------|
|---------------------------------------------------------------------------------|
|---------------------------------------------------------------------------------|
|---------------------------------------------------------------------------------|
|                                                                                 |
|---------------------------------------------------------------------------------|
|-8-p0h7-p0h8-p0h10p0h8 p0h7 p0h8 p0h7 p0h8 p0h7 p0h8 p0h10p0h12p0h10p0h8-p0h7p0--|
|---------------------------------------------------------------------------------|Gtr
|---------------------------------------------------------------------------------| II
|---------------------------------------------------------------------------------|
|---------------------------------------------------------------------------------|
|                                                                                 |
|---------------------------------------------------------------------------------|
|---------------------------------------------------------------------------------|
|-4------------------------------(4)----------------------------------------------|Gtr
|-4------------------------------(4)----------------------------------------------| II
|-2------------------------------(2)----------------------------------------------|
|---------------------------------------------------------------------------------|


|-5~-------------------------------5\--|
|--------------------------------------|
|--------------------------------------|Gtr
|--------------------------------------| I
|--------------------------------------|
|--------------------------------------|
|                                      |
|-8~-------------------------------8\--|
|--------------------------------------|
|--------------------------------------|Gtr
|--------------------------------------| II
|--------------------------------------|
|--------------------------------------|
|                                      |
|-------------------------------------------------------------------|
|-------------------------------------------------------------------|
|-2--------------(2)------3--------2-----------------------3--------|Gtr
|-2--------------(2)------3---5----2-----------------------3---5----|III
|-0--------------(0)------1---5----0-----------------------1---5----|
|-----------------------------3--------------------------------3----|
|                                                                   |
|-------------------------------------------------------------------|
|-------------------------------------------------------------------|
|-------------------------------------------------------------------|Gtr
|-----2222----2222----3333-------------2222----2222----3333---------| IV
|-0000----3000----3000----1111-----0000----3000----3000----1111-----|
|-----------------------------3333-----------------------------3333-|

Repeat Riff A.3 (2 times)
Repeat Riff B.1 (2 times)
Repeat Riff A.1 (1 time)
Repeat Riff A.2 (1 time)
Repeat Riff A.1 (2 times)
Repeat Riff C.1 (2 times)
Repeat Riff C.2 (1 time)

Solo 3
|-----------------------------------------------------------------------------|
|-----------------------------------------------------------------------------|
|----------------------------------------999------------------------h--p---h--|Gtr
|-------------7-9-10-9~--7-------------------10-12-9-10----9-10-9--9-10-9\7-9-| I
|-7~---7-9-10--------------10-9--7-6-7~-----------------12--------------------|
|-----------------------------------------------------------------------------|
|      . . .                                                                  |
|-----------------------------------------------------------------------------|
|----------------------------------------888------------------------h--p---h--|
|-------------5-7-9--7~--5-------------------9--11-7-9-----7-9--7--7-9--7\5-7-|Gtr
|-5~---5-7-9---------------9--7--5-4-5~-----------------10--------------------| II
|-----------------------------------------------------------------------------|
|-----------------------------------------------------------------------------|
|      . . .                                                                  |
|-----------------------------------------------------------------------------|
|-----------------------------------------------------------------------------|
|--------------------4------------------------------------------4-------------|Gtr
|-2------------------4---------------2--------------------------4-------------| II
|-2------------------2---------------2--------------------------2-------------|
|-0----------------------------------0----------------------------------------|


|--------------------------|
|--------------------------|
|--------------------h--p--|Gtr
|-8~-------------8-9--10-9-| I
|--------------------------|
|--------------------------|
|                          |
|--------------------------|
|-------11-----------------|
|----10----10~-------h--p--|Gtr
|-8~-------------8-9--10-9-| II
|--------------------------|
|--------------------------|
|                          |
|--------------------------|
|--------------------------|
|-3--------(3)-----4-------|Gtr
|-3--------(3)-----4-------| II
|-1--------(1)-----2-------|
|--------------------------|


|----------------------------------------|
|----------------------------------------|
|----------------------------------------|Gtr
|-10-9-7----9-7-------10-9-7----9-7------| I
|--------10-----10-9---------10-----10-9-|
|----------------------------------------|
|                                        |
|----------------------------------------|
|----------------------------------------|
|-4-------------------4------------------|Gtr
|-4-------------------4------------------| II
|-2-------------------2------------------|
|----------------------------------------|


|----------------------|
|----------------------|
|----------------------|Gtr
|-10-9-7-----9-7-------| I
|---------10------10-9-|
|----------------------|
|                      |
|----------------------|
|----------------------|
|-9--7-------7---------|Gtr
|------10-9----10-9--7-| II
|----------------------|
|----------------------|
|                      |
|----------------------|
|----------------------|
|-4--------------------|Gtr
|-2--------------------|III
|-2--------------------|
|----------------------|


|-15-12----------|
|-------12-------|
|----------12-9~-|Gtr
|----------------| II
|----------------|
|----------------|
|                |
|----------------|
|----------------|
|----------------|Gtr
|-2--2--2--2--2--|III
|-2--2--2--2--2--|
|-0--0--0--0--0--|
  .  .  .  .

Check Out Death Warp, With More Transcriptions On It:
 http://www.sorrowsend.com/DeathWarp/
comments
print report bad tab
I want to post or [tab]
guest
You may want to rate the tab now too:
select rating
Please do not post tabs as comments. Select "correction" instead!