Oops, an error
Loading. Please wait.

Dead End Tab

ver1
ver1

Intro

Whole song

Interactive

More versions @911Tabs.com
7,339 views 42 this week
no commentswrite comment
1 2 3 4 5
excellent!
x 5
Autoscroll
+/-
esc
set tempo
stop
Contributor
Hey! There's an official Ultimate Guitar app which is ideal
for learning songs when you're away from computer. Get the app
WARNING: You are trying to view
                                    content from Ultimate-Guitar.com
                                    in an unauthorized application,
                                    which is prohibited.

                                    Please use an official Ultimate
                                    Guitar Tabs application for iPhone,
                                    iPad or Android to access legitimate
                                    chords, guitar, bass, and drum tabs
                                    from Ultimate-Guitar.com database.

                                    Type "ultimate guitar tabs" in Apple
                                    App Store's or Android Market's
                                    search to find the application.
[Dead End]
[Come Clarity]
[In Flames]

Tuning: A# F A# D# G C (Drop D 2 Steps Down / Drop A Sharp)
joshuaoliveira@hotmail.com by request of Andrew Rawle.

each riff typed once to conserve space. times show when riffs are played and replayed.

symbols at bottum. gp on the way if accepted. yes! it does match up!

enjoy :)

[Riff 1] - [00:00] - [00:11]
- ------------------------------------------------------------------|
- ------------------------------------------------------------------|
- ------------------------------------------------------------------|
- -7-7---5---7--------------8-8-5-5-7-7---5---7-----8-8-8-8-5-5-5-5-|
- -5-5-5-5-5-5-5-5-55-5-5-5-5-5-5-5-5-5-5-5-5-5-5-5-8-8-8-8-5-5-5-5-|
- -0-0-0-0-0-0-0-0-00-0-0-0-0-0-0-0-0-0-0-0-0-0-0-0-8-8-8-8-5-5-5-5-|
PM     .   .   ............             .   .   ...
-
- ------------------------------------------------------------------|
- ------------------------------------------------------------------|
- ----------------------------------------------------------3-3-3-3-|
- -3-3---2---3--------------5-5-2-2-3-3---2---3-----0-0-0-0-5-5-5-5-|
- -5-5-5-5-5-5-5-5-55-5-5-5-5-5-5-5-5-5-5-5-5-5-5-5-1-1-1-1---------|
- -0-0-0-0-0-0-0-0-00-0-0-0-0-0-0-0-0-0-0-0-0-0-0-0-----------------|
PM     .   .   ............             .   .   ...


- ------------------------------------------------------------------|
- ------------------------------------------------------------------|
- ------------------------------------------------------------------|
- -7-7---5---7--------------8-8-5-5-7-7---5---7-----3-3-3-3-5-5-5-5-|
- -5-5-5-5-5-5-5-5-55-5-5-5-5-5-5-5-5-5-5-5-5-5-5-5-1-1-1-1-3-3-3-3-|
- -0-0-0-0-0-0-0-0-00-0-0-0-0-0-0-0-0-0-0-0-0-0-0-0-----------------|
PM     .   .   ............             .   .   ...
-
- ------------------------------------------------------------------|
- ------------------------------------------------------------------|
- ------------------------------------------------------------------|
- -3-3---2---3--------------5-5-2-2-3-3---2---3-----0-0-0-0-2-2-2-2-|
- -5-5-5-5-5-5-5-5-55-5-5-5-5-5-5-5-5-5-5-5-5-5-5-5-1-1-1-1-3-3-3-3-|
- -0-0-0-0-0-0-0-0-00-0-0-0-0-0-0-0-0-0-0-0-0-0-0-0-----------------|
PM     .   .   ............             .   .   ...

----------------------------------------------------------------------------

[Riff 2, Gtr 1 & 2] - [00:11] - [00:12]
- -----------------|
- -----------------|
- -----------------|
- -----------------|
- -----------0-----|
- -3-3-3-5-----5-3-|

----------------------------------------------------------------------------

[Riff 1] - [00:12] - [00:23]

----------------------------------------------------------------------------

[Riff 3, Gtr 1 & 2] - [00:23] - [00:28]
- -----------------------------------------------------------------|
- ---------6-6-----5-5---------------------6-6-----6---8---5-------|
- -------------------------7-7-5-5-----------------------------7---|
- ---7-7-----------------------------7-7---------------------------|
- -5-----5-----5-5-----5-5---------5-----5-----5-5-----------------|
- -----------------------------------------------------------------|

----------------------------------------------------------------------------

[Riff 4] - [00:28] - [00:34]
- ---------5-5------------------------------5-5-----5-------6--8---|
- -----------------8-8-----6-6-5-5----------------------8----------|
- -----------------------------------------------------------------|
- ---7-7-----------------------------7-7---------------------------|
- -5-----5-----5-5-----5-5---------5-----5-----5-5-----------------|
- -----------------------------------------------------------------|
-
- -------------------------------------------------------------5---|
- ---------6-6-----5-5---------------------6-6-----6---5---8-------|
- -------------------------7-7-5-5---------------------------------|
- ---7-7-----------------------------7-7---------------------------|
- -5-----5-----5-5-----5-5---------5-----5-----5-5-----------------|
- -----------------------------------------------------------------|

----------------------------------------------------------------------------

[Riff 1 & Riff 3] - [00:34] - [00:39]
[Riff 1 & Riff 4] - [00:39] - [00:45]

----------------------------------------------------------------------------

[Riff 5] - [00:45] - [00:50]
- -----------------------------------------------------------------|
- -----------------------------------------------------------------|
- -----------------------------------------------------------------|
- -----------------------------------------------------------------|
- -------------------------0/1-1/3-------------------------3/5-5---|
- -3-5---3-5---3-5---3-5/7---------3-5---3-5---3-5---3-5-3---------|
PM                                                   .....
-
- -----------------------------------------------------------------|
- -----------------------------------------------------------------|
- -----------------------------------------------------------------|
- ---------------------------------------------------------2/3-3---|
- -0-1---0-1---0-1---0-1/3-3/5-5/6-0-1---0-1---0-1---0-1-0---------|
- -----------------------------------------------------------------|
PM                                                   .....

---------------------------------------------------------------------------

[Riff 6] - [00:50] - [00:56]
- -----------------------------------------------------------------|
- -----------------------------------------------------------------|
- -----------------------------------------------------------------|
- -----------------------------------------------------------------|
- -------------------------0-1-1-3-----------------333-333-5\3-----|
- -3-5-5-3-5-5-3-5-5-3-5-5---------3-5-5-3-5-5-3-5-333-333---------|
PM .......................................................
-
- -----------------------------------------------------------------|
- -----------------------------------------------------------------|
- -----------------------------------------------------------------|
- ---------------------------------------------------------3\2-----|
- -0-1-1-0-1-1-0-1-1-0-1-1-3-5-5-6-0-1-1-0-1-1-0-1-333-333---------|
- -------------------------------------------------333-333---------|
PM .......................................................

----------------------------------------------------------------------------

[Riff 7] - [00:56] - [01:06]
- ----------------------------------------------------|
- ----10-10----10-10----10-------------11-10h11p10----|
- ----------------------------12-12----------------12-|
- -12-------12-------12----12-------12----------------|
- ----------------------------------------------------|
- ----------------------------------------------------|
-
- ----------------------------------------------------|
- ----------------------------------------------------|
- ----10-10----10-10----10-------------10--9h10p9-----|
- ----------------------------12-12----------------12-|
- -12-------12-------12----12-------12----------------|
- ----------------------------------------------------|
-
- ----------------------------------------------------|
- ----------------------------------------------------|
- ----------------------------------------------------|
- -7--7--7--7--7--7--7--7--8--8--8--8--8--8-----8--8--|
- -5--5--5--5--5--5--5--5--8--8--8--8--8--8-----8--8--|
- -------------------------8--8--8--8--8--8-----8--8--|


- -------------------------------------------------|
- ----10-10----10-10----10----11-11----10----------|
- -------------------------------------------12----|
- -12-------12-------12----12-------12----12-------|
- -------------------------------------------------|
- -------------------------------------------------|
-
- -------------------------------------------------|
- -------------------------------------------------|
- ----10-10----10-10----10----10-10----9-----------|
- -------------------------------------------12----|
- -12-------12-------12----12-------12----12-------|
- -------------------------------------------------|
-
- -------------------------------------------------|
- -------------------------------------------------|
- -------------------------------------------------|
- -3--3--3--3--3--3--3--3--5--5--5--5--5--5--5--5--|
- -3--3--3--3--3--3--3--3--3--3--3--3--3--3--3--3--|
- -3--3--3--3--3--3--3--3--------------------------|

----------------------------------------------------------------------------

[Riff 8, Gtr 1 & 2] - [01:06] - [01:12]
- ----------------------------------|
- ----------------------------------|
- ----------------------------------|
- -0---0-0--------------------------|
- -0---0-0-----------00-0-0-0-0-0-0-|
- -0---0-0-----------00-0-0-0-0-0-0-|
PM                   ..............

----------------------------------------------------------------------------

[Riff 9] - [01:12] - [01:18]
- ---------------------------------|
- ---------------------------------|
- ---------------------------------|
- -0---0-0-----------------5\3-3---|
- -0---0-0-----------0-3-5---------|
- -0---0-0-----------0-3-5---------|
PM                   .....
-
- ---------------------------------|
- ---------------------------------|
- -------------------------3\2-2---|
- -0---0-0-------------------------|
- -0---0-0-----------0-3-5---------|
- -0---0-0-----------0-3-5---------|
PM                   .....

----------------------------------------------------------------------------

[Riff 3] - [01:18] - [01:23]
[Riff 4] - [01:23] - [01:28]
[Riff 1 & 3] - [01:28] - [01:33]
[Riff 1 & 4] - [01:33] - [01:39]
[Riff 2] - [01:39] - [01:41]
[Riff 6] - [01:41] - [01:46]
[Riff 7] - [01:46] - [01:57]
[Riff 8] - [01:57] - [02:05]

----------------------------------------------------------------------------

[Riff 10] - [02:05] - [02:08]
- ---------------------------------|
- ---------------------------------|
- -----------------------------2h3-|
- -0---0-0-----------------3h5-----|
- -0---0-0-----------0-3-5---------|
- -0---0-0-----------0-3-5---------|
PM                   .....
-
- ---------------------------------|
- ---------------------------------|
- -----------------------------0h2-|
- -0---0-0-----------------3h5-----|
- -0---0-0-----------0-3-5---------|
- -0---0-0-----------0-3-5---------|
PM                   .....

----------------------------------------------------------------------------

[Riff 11] - [02:08] - [02:19]
- ---7------------------5-----7-5h7p5-----|
- -8---8---10-8-7---------7-----------8-7-|
- -------9---------9--7-----7-------------|
- ----------------------------------------|
- ----------------------------------------|
- ----------------------------------------|
-
- ----------------------------------------|
- ---8------------------7-----8-7h8p7-----|
- -9---9---11-9-----------7-----------9-7-|
- -------9------12-10-9-----9-------------|
- ----------------------------------------|
- ----------------------------------------|
-
- ----------------------------------------|
- ----------------------------------------|
- ----------------------------------------|
- -9-9-9-7----7-7--7--4-4-4-5---5-----5-5-|
- -7-7-7-5----5-5--5--2-2-2-3---3-----3-3-|
- ----------------------------------------|


- ---7------------------------------------|
- -8---8---10-8-7-----------------7--8-10-|
- -------9---------9----------7-9---------|
- --------------------10-9-10-------------|
- ----------------------------------------|
- ----------------------------------------|
-
- -----------------------------------7-8--|
- ---8------------------------7-8-10------|
- -9---9---11-9--------9--7-9-------------|
- -------9------12-10---------------------|
- ----------------------------------------|
- ----------------------------------------|
-
- ----------------------------------------|
- ----------------------------------------|
- ----------------------------------------|
- -9-9-9-7----7-7--7---2--2-2-4---4--4-4--|
- -7-7-7-5----5-5--5---0--0-0-2---2--2-2--|
- ----------------------------------------|


- ---7------------------5-----7-5h7p5-----|
- -8---8---10-8-7---------7-----------8-7-|
- -------9---------9--7-----7-------------|
- ----------------------------------------|
- ----------------------------------------|
- ----------------------------------------|
-
- ----------------------------------------|
- ---8------------------7-----8-7h8p7-----|
- -9---9---11-9-----------7-----------9-7-|
- -------9------12-10-9-----9-------------|
- ----------------------------------------|
- ----------------------------------------|
-
- ----------------------------------------|
- ----------------------------------------|
- ----------------------------------------|
- -9-9-9-7----7-7--7--4-4-4-5---5-----5-5-|
- -7-7-7-5----5-5--5--2-2-2-3---3-----3-3-|
- ----------------------------------------|


- -------7---------8--7---------------10-|
- -8-7-8---10-7-10------10-8-7---7-10----|
- -----------------------------7---------|
- ---------------------------------------|
- ---------------------------------------|
- ---------------------------------------|
-
- ---------------------------------------|
- -------8-7----7--10-8------------7--10-|
- -9-7-9------7---------7--9-7---7-------|
- -----------------------------7---------|
- ---------------------------------------|
- ---------------------------------------|
-
- ---------------------------------------|
- ---------------------------------------|
- ---------------------------------------|
- -2-2-2-4----4-5--------------7---------|
- -0-0-0-2----2-3--------------5---------|
- ---------------------------------------|

----------------------------------------------------------------------------

[Riff 12] - [02:19] - [02:30]
- -------------------------------------------------|
- -------------11-11----------------------11----10-|
- ----12-12-------------10----13----11-------------|
- -------------------------------------------------|
- -10-------10-------10----10----10----10----10----|
- -------------------------------------------------|
-
- -------------------------------------------------|
- ----------------------------------------13----11-|
- -------------12-12----------12----10-------------|
- ----12-12-------------10-------------------------|
- -10-------10-------10----10----10----10----10----|
- -------------------------------------------------|
-
- -------------------------------------------------|
- -------------------------------------------------|
- -------------------------------------------------|
- -5--5--5--5--5--5--5--5--5--5--5--5--------------|
- -5--5--5--5--5--5--5--5--5--5--5--5--111---333---|
- -5--5--5--5--5--5--5--5--5--5--5--5--111---333---|
PM                                     .........


- -------------------------------------------------|
- -------------11-11----------------------11----10-|
- ----12-12-------------10----10----12-------------|
- -------------------------------------------------|
- -10-------10-------10----10----10----10----10----|
- -------------------------------------------------|
-
- -------------------------------------------------|
- -------------------------------------------------|
- -------------12-12----------------------12----10-|
- ----12-12-------------10----12----13-------------|
- -10-------10-------10----10----10----10----10----|
- -------------------------------------------------|
-
- -------------------------------------------------|
- -------------------------------------------------|
- -------------------------------------------------|
- -5--5--5--5--5--5--5--5--5--5--5--5--------------|
- -5--5--5--5--5--5--5--5--5--5--5--5--111---333---|
- -5--5--5--5--5--5--5--5--5--5--5--5--111---333---|
PM                                     .........


- -------------------------------------------------|
- -------------11-11----------------------11----10-|
- ----12-12-------------10----13----11-------------|
- -------------------------------------------------|
- -10-------10-------10----10----10----10----10----|
- -------------------------------------------------|
-
- -------------------------------------------------|
- ----------------------------------------13----11-|
- -------------12-12----------12----10-------------|
- ----12-12-------------10-------------------------|
- -10-------10-------10----10----10----10----10----|
- -------------------------------------------------|
-
- -------------------------------------------------|
- -------------------------------------------------|
- -------------------------------------------------|
- -5--5--5--5--5--5--5--5--5--5--5--5--------------|
- -5--5--5--5--5--5--5--5--5--5--5--5--111---333---|
- -5--5--5--5--5--5--5--5--5--5--5--5--111---333---|
PM                                     .........


- -------------10-10-------------------------|
- ----11-11-------------13~------------------|
- -------------------------------------------|
- -------------------------------------------|
- -10-------10-------10----------------------|
- -------------------------------------------|
-
- -------------------------------------------|
- -------------11-11----10~------------------|
- ----12-12----------------------------------|
- -------------------------------------------|
- -10-------10-------10----------------------|
- -------------------------------------------|
-
- -------------------------------------------|
- -------------------------------------------|
- -------------------------------------------|
- -5--5--5--5--5--5--5--5--5--5--5--5--------|
- -5--5--5--5--5--5--5--5--5--5--5--5--1-1-3-|
- -5--5--5--5--5--5--5--5--5--5--5--5--1-1-3-|
PM                                     .....

----------------------------------------------------------------------------

[Riff 5] - [02:30] - [02:35]
[Riff 3] - [02:35] - [02:40]
[Riff 4] - [02:40] - [02:46]
[Riff 7] - [02:46] - [03:07]
[Riff 8] - [03:07] - [03:16]
[Riff 10] - [03:16] - [03:19]

----------------------------------------------------------------------------

[Riff 13, Gtr 1 & 2] - [03:19] - [03:23]
- ---------------------------------------|
- ---------------------------------------|
- ---------------------------------------|
- -0~------------------------------------|
- -0~------------------------------------|
- -0~------------------------------------|

----------------------------------------------------------------------------

[Symbols]
PM... Palm mute notes with ... under them
/     Slide Up
\     Slide Down
h     Hammer On
p     Pull Off
~     Vibrato
comments
print report bad tab
I want to post or [tab]
guest
You may want to rate the tab now too:
select rating
Please do not post tabs as comments. Select "correction" instead!