Oops, an error
Loading. Please wait.

Dead God In Me Tab

ver1
ver1

Whole song

Interactive

More versions @911Tabs.com
3,094 views 1 this week
no commentswrite comment
1 2 3 4 5
excellent!
x 2
Autoscroll
+/-
esc
set tempo
stop
Hey! There's an official Ultimate Guitar app which is ideal
for learning songs when you're away from computer. Get the app
WARNING: You are trying to view
                                    content from Ultimate-Guitar.com
                                    in an unauthorized application,
                                    which is prohibited.

                                    Please use an official Ultimate
                                    Guitar Tabs application for iPhone,
                                    iPad or Android to access legitimate
                                    chords, guitar, bass, and drum tabs
                                    from Ultimate-Guitar.com database.

                                    Type "ultimate guitar tabs" in Apple
                                    App Store's or Android Market's
                                    search to find the application.
                  In Flames - Dead God In Me
                  From the Album Jester Race
                 Copyright DATE Nuclear Blast
                  Version 1.1 - January 2001

Transcribed by: Ben Bordiss
Different Note placements on Riff A,B and M By Jeremy Disten

For Questions, Comments, Newest Version, or Corrections contact
Ben Bordiss: at cladinshadows99@excite.com <-(EXCELLENT TABBER!!!)
Jeremy Disten: at jdustpan@hotmail.com

Check Out Death Warp, With More Transcriptions On It:
 http://tiger.towson.edu/~dalvis1

..  - palm mute          /  - slide up to
 \  - slide down to      ~  - vibrato
 h  - hammer on          b  - bend
 p  - pull off            Suffixes for bend
                          ph - pinch harmonic
                           f - full bend    h - half bend
*  - see comment           r - release      t - tap bend
X  - percussion mute       ~ - vibrato bend
@  - slight palm mute     () - ghost note, sustained note

Tune Gtr to 1:C, 2:F, 3:Bb, 4:Eb, 5:G, 6:C

Dead God In Me

Riff A1
|----------------------------------------------------------|
|----------------------------------------------------------|
|----------------------------------------------------------|Gtr
|-7-----10-----9-----10p9h10-7-----10-----9-----10p9h10----| I
|---0-0----0-0---0-0-----------0-0----0-0---0-0------------|
|----------------------------------------------------------|
|   . .    . .   . .           . .    . .   . .            |
|----------------------------------------------------------|
|----------------------------------------------------------|
|--------9-----7------9p7h9---------9-----7-----9~---------|Gtr
|-10------------------------10-----------------------------| II
|----0-0---0-0---0-0-----------0-0----0-0---0-0------------|
|----------------------------------------------------------|
     . .   . .   . .           . .    . .   . .

Riff A2
|----------------------------------|
|----------------------------------|
|----------------------------------|Gtr
|-7-----10-----9-----10~-----------| I
|---0-0----0-0---0-0---------------|
|----------------------------------|
|   . .    . .   . .               |
|----------------------------------|
|----------------------------------|
|--------9-----7-----9~------------|Gtr
|-10-------------------------------| II
|----0-0---0-0---0-0---------------|
|----------------------------------|
     . .   . .   . .

Riff B
|-------------------------------------------------------|
|-------------------------------------------------------|
|-------------------------------------------------------|Gtrs I
|-----------------------------------------------9~------|  & II
|--7---10-9---6-7---2-3---0-7---10-9---6-7-9-10---------|
|----0------0-----0-----0-----0------0------------------|
     .      .     .     .     .      .                  

|-------------------------------------------------------|
|-------------------------------------------------------|
|-------------------------------------------------------|Gtr I
|-----------------------------------------------9~------|
|--7---10-9---6-7---2-3---0-7---10-9---6-7-9-10---------|
|----0------0-----0-----0-----0------0------------------|
|    .      .     .     .     .      .                  |
|-------------------------------------------------------|
|-------------------------------------------------------|
|------------------------------------------------7~-----|Gtr
|------9-7-----------------------9-7---------7-9--------| II
|-10---------9-10---7-9---6-10-------10-9-10------------|
|----0-----0------0-----0------0------------------------|
     .     .      .     .      .

Riff C
|-------------------------------------------------------|
|-8--7-8--7---------------------------------------------|
|-----------7---9p7h9-7---------------------------------|Gtr
|-------------9---------9----10-9-10-9--------7---------| I
|-------------------------10-----------10--7----9----7~-|
|-------------------------------------------------10----|
|                                                       |
|-7----7------------------------------------------------|
|---10---10-7---8-7-8-7---------------------------------|
|-------------7---------7-----9-7--9-7------------------|Gtr
|--------------------------9------------9----10-7-------| II
|-----------------------------------------10-------9-10~|
|-------------------------------------------------------|
|                                                       |
|-------------------------------------------------------|
|-------------------------------------------------------|
|-5-------7-----9-----4------5--------------7------9----|Gtr
|-5-------7-----9-----4------5-------5------7------9----|III
|-3-------5-----7-----2------3-------5------5------7----|
|------------------------------------3------------------|

Fill 1
|--------------------------------------------------------|
|--------------------------------------------------------|
|--------------------------------------------------------|Gtr
|--------------------------------------------------------| I
|10-10-10-10---7-10-10-10-10---6-9-9-9-9---6-9-9-9-9---6-|
|------------0---------------0-----------0-----------0---|
|                                                        |
|--------------------------------------------------------|
|--------------------------------------------------------|
|--------------------------------------------------------|Gtr
|-8--8--8--8---5--8--8--8--8---4-7-7-7-7---4-7-7-7-7---4-| II
|--------------------------------------------------------|
|------------6---------------5-----------5-----------5---|

Riff D
|--------------------------------------------------------------------|
|--------------------------------------------------------------------|
|--------------------------------------------------------------------|Gtr
|-------------------------------------55------55--33------33---------|I
|-----55------55------55------55--6633--336633--33--55--55--55--55---|
|-6633--336633--335522--225522--22--------------------66------66-----|
|                                                                    |
|--------------------------------------------------------------------|
|--------------------------------------------------------------------|
|--------------------------------------------------------------------|Gtr
|--------------------------------------------------------------------| II
|---------------------------------33333333333333331111111111111111---|
|-33333333333333332222222222222222-----------------------------------|

|--------------------------------------------------------------------|
|--------------------------------------------------------------------|
|--------------------------------------------------------------------|Gtr
|-------------------------------------55------55--33-------3~--------|I
|-----55------55------55------55--6633--336633--33--55--55(5)--------|
|-6633--336633--335522--225522--22--------------------66-------------|
|                                                                    |
|--------------------------------------------------------------------|
|--------------------------------------------------------------------|
|--------------------------------------------------------------------|Gtr
|--------------------------------------------------------------------| II
|---------------------------------3333333333333333111111111~---------|
|-33333333333333332222222222222222-----------------------------------|

Fill 2
|--------------------------------------------------------------------|
|--------------------------------------------------------------------|
|--------------------------------------------------------------------|Gtr
|-5------------------------------------------------------------------| I
|-5------------------------------------------------5--5----------5-5-|
|-3------------------------------------3--3--3--3--3--3--2-2-2-2-2-2-|
|                                      .  .  .  .        . . . .     |
|--------------------------------------------------------------------|
|--------------------------------------------------------------------|
|--------------------------------------------------------------------|Gtr
|-5------------------------------------------------------------------| II
|-5------------------------------------------------5--5----------5-5-|
|-3------------------------------------3--3--3--3--3--3--2-2-2-2-2-2-|
                                       .  .  .  .        . . . .

Riff E
|-------------------------------------------------|
|-------------------------------------------------|
|-------------------------------------------------|Gtr
|----9------------------10-10-----------------9-9-| I
|----7-------------------7--7-----------------7-7-|
|0-0--------------0-0-0-----------------0-0-0-----|
|. .              . . .                 . . .     |
|-------------------------------------------------|
|-------------------------------------------------|
|-------------------------------------------------|Gtr
|2-2--------------2-2-2-----------------2-2-2-----| II
|2-2--------------2-2-2-----------------2-2-2-----|
|0-0--------------0-0-0-----------------0-0-0-----|
 . .              . . .                 . . .

|-------------------------------------------------|
|-------------------------------------------------|
|-----7-------------------------------------------|Gtr
|-----5-------------------------9--9---------7-7--| I
|-----5------------10-10-10-10-10-10-9-9-9-9-9-9--|
|-0-0---------------------------------------------|
| . .              .  .  .  .        . . . .      |
|-------------------------------------------------|
|-------------------------------------------------|
|-------------------------------------------------|Gtr
|-2-2---------------------------------------------| II
|-2-2--------------------------5--5----------5-5--|
|-0-0--------------3--3--3--3--3--3--2-2-2-2-2-2--|
  . .              .  .  .  .        . . . .

Riff F
|-------------------------------------------------|
|-------------------------------------------------|
|-------------------------------------------------|Gtr
|----9------------------10-10-----------------9-9-| I
|----7-------------------7--7-----------------7-7-|
|0-0--------------0-0-0-----------------0-0-0-----|
|. .              . . .                 . . .     |
|-------------------------------------------------|
|-------------------------------------------------|
|----4------------------5-5-------------------4-4-|Gtr
|2-2-2------------2-2-2-2-2-------------2-2-2-2-2-| II
|2-2--------------2-2-2-----------------2-2-2-----|
|0-0--------------0-0-0-----------------0-0-0-----|
 . .              . . .                 . . .

|-------------------------------------------------|
|-------------------------------------------------|
|-----7-------------------------------------------|Gtr
|-----5-------------------------9--9---------7-7--| I
|-----5------------10-10-10-10-10-10-9-9-9-9-9-9--|
|-0-0---------------------------------------------|
| . .              .  .  .  .        . . . .      |
|-------------------------------------------------|
|-------------------------------------------------|
|-------------------------------------------------|Gtr
|-2-2-5-------------------------------------------| II
|-2-2-5------------------------5--5----------5-5--|
|-0-0-3------------3--3--3--3--3--3--2-2-2-2-2-2--|
  . .              .  .  .  .        . . . .

Riff G
|--------------------------------------------------------------------|
|--------------------------------------------------------------------|
|---------------------------------4---------------4---5---4----------|Gtr
|-7---5---4---5---7---5---4---5-------7---5---7---------------7------|III
|--------------------------------------------------------------------|
|--------------------------------------------------------------------|

Riff H
|--------------------------------------------------------------------|
|--------------------------------------------------------------------|
|---------------------------------4---------------4---5---4----------|Gtr
|-7---5---4---5---7---5---4---5-------7---5---7---------------7------| I
|--------------------------------------------------------------------|
|--------------------------------------------------------------------|
|                                                                    |
|--------------------------------------------------------------------|
|--------------------------------------------------------------------|
|--5--4-------4---5---4-------4--------------------------------------|Gtr
|---------7---------------7-------5--4--------4---5---7---5---4------| II
|-----------------------------------------7--------------------------|
|--------------------------------------------------------------------|
|                                                                    |
|--------------------------------------------------------------------|
|--------------------------------------------------------------------|
|--------------------------------------------------------------------|Gtr
|-2-2-2-2-2-2-2-2-2-2-2-2-2-2-2-2-5-5-5-5-5-5-5-5--------------------|III
|-2-2-2-2-2-2-2-2-2-2-2-2-2-2-2-2-5-5-5-5-5-5-5-5-5-5-5-5-5-5-5-5----|
|-0-0-0-0-0-0-0-0-0-0-0-0-0-0-0-0-3-3-3-3-3-3-3-3-2-2-2-2-2-2-2-2----|

Riff I
|--------------------------------------------------------------------|
|--------------------------------------------------------------------|
|-9--------9--7h9p7----------------9--------9-7h9p7------------------|Gtr
|----10--7-----------9--10--7----7----10--7----------9--10--7----7---| I
|------------------------------9-------------------------------9-----|
|--------------------------------------------------------------------|
|                                                                    |
|--------------------------------------------------------------------|
|--------------------------------------------------------------------|
|-5--------5-4h5p4-----------------5--------5-4h5p4------------------|Gtr
|-----7-------------5---7---4----4-----7-------------5--7---4----4---| II
|--------7---------------------5----------7--------------------5-----|
|--------------------------------------------------------------------|
|                                                                    |
|--------------------------------------------------------------------|
|--------------------------------------------------------------------|
|-2---------------------7----------2--------------------7------------|Gtr
|-2----------5----------7----------2----------5---------7------------|III
|-0----------5----------5----------0----------5---------5------------|
|------------3--------------------------------3----------------------|


Riff J
|--------------------------------------------------------------------|
|--------------------------------------------------------------------|
|-11------11-9h11p9-----------------11------11-9h11p9----------------|Gtr
|----12-9-----------11--12--9----9-----12-9-----------11--12--9----9-| I
|-----------------------------11--------------------------------11---|
|--------------------------------------------------------------------|
|                                                                    |
|--------------------------------------------------------------------|
|--------------------------------------------------------------------|
|-7--------7-6h7p6-------------------7-------7-6h7p6-----------------|Gtr
|----9---------------7---9--6----6------9--------------7--9--6----6--| II
|-------9----------------------7----------9---------------------7----|
|--------------------------------------------------------------------|
|                                                                    |
|--------------------------------------------------------------------|
|--------------------------------------------------------------------|
|-4----------------------9-----------4--------------------9----------|Gtr
|-4----------7-----------9-----------4---------7----------9----------|III
|-2----------7-----------7-----------2---------7----------7----------|
|------------5---------------------------------5---------------------|

Riff K
|--------------------------------------------------------|
|--------------------------------------------------------|
|-4-----------------------4------------------------------|Gtr
|----5--5h7p5--4--5--7--4----5--5h7p5--4--5--7--4--------| I
|--------------------------------------------------------|
|--------------------------------------------------------|
|                                                        |
|--------------------------------------------------------|
|--------------------------------------------------------|
|--------------------------------------------------------|Gtr
|-5-----------------------5------------------------------| II
|----7--7h9p7--6--7--9--6----7--7h9p7--6--7--9--6--------|
|--------------------------------------------------------|
|                                                        |
|--------------------------------------------------------|
|--------------------------------------------------------|
|--------------------------------------------------------|Gtr
|--------------------------------------------------------|III
|-----------------2-2-2-2-----------------2-2-2-2--------|
|-0-0-0-0-3-3-3-3---------0-0-0-0-3-3-3-3----------------|


Riff L
|--------------------------------------------------------|
|--------------------------------------------------------|
|-4-4-4-------5-5-5-------7-7-7-------9-9-9-5-5-5--------|Gtr
|-------5-5-5-------7-7-7-------9-9-9--------------------| I
|--------------------------------------------------------|
|--------------------------------------------------------|
|                                                        |
|--------------------------------------------------------|
|--------------------------------------------------------|
|-------------------------4-4-4-------5-5-5--------------|Gtr
|-5-5-5-------7-7-7-------------5-5-5-------7-7-7--------| II
|-------7-7-7-------9-9-9--------------------------------|
|--------------------------------------------------------|
|                                                        |
|--------------------------------------------------------|
|--------------------------------------------------------|
|--------------------------------------------------------|Gtr
|--------------------------------------------------------|III
|--------------------------------------------------------|
|-0--0--0--0--2--2--2--2--3--3--3--3--5--5--5--5---------|

Riff M
|--------------------------------------------------------------------|
|--------------------------------------------------------------------|
|-7-7-9-9-7-7-5-5-7-7-5-5-4-4-5-5-4-4-2-2-4-4-2-2-0-0-2-2-0-0--------|Gtr
|-------------------------------------------------------------4-4-2--| I
|--------------------------------------------------------------------|
|--------------------------------------------------------------------|
|                                                                    |
|--------------------------------------------------------------------|
|--------------------------------------------------------------------|
|-4-4-5-5-4-4-----4-4------------------------------------------------|Gtr
|-------------7-7-----7-7-5-5-7-7-5-5-4-4-5-5-4-4-----4-4------------| II
|-------------------------------------------------7-7-----7-7-6-6-7--|
|--------------------------------------------------------------------|
|                                                                    |
|--------------------------------------------------------------------|
|--------------------------------------------------------------------|
|-7-------7---------------4-------5-------5---------------2----------|Gtr
|-7-------7---------------4-------5-------5---------------2-------2--|III
|-5-------5---------------2-------3-------3---------------0-------2--|
|-----------------------------------------------------------------0--|

Fill 3                                                         (3.43)
|--------------------------------------------------------------------|
|--------------------------------------------------------------------|
|--------------------------------------------------------------2-2-2-|Gtrs
|-2~-----------------------------------------------------------2-2-2-|I&II
|-2~-----------------------------------------------------------0-0-0-|
|-0~-----------------------------------------------------------------|
                                                               . . .
Riff N
|--------------------------------------------------|
|--------------------------------------------------|
|--------------------------------------------5p4h5-|Gtr
|-2-----5-----------5p4h5--2-----5-----------------| I
|-------------3p2h3--------------------3p2h3-------|
|---0-0---0-0----------------0-0---0-0-------------|
|   . .   . .                . .   . .             |
|--------------------------------------------------|
|--------------------------------------------------|
|--------------------------------------------5-----|Gtr
|-2-----5-----------5------2-----5-----------------| II
|-------------3------------------------3-----------|
|---0-0---0-0---0-0----0-0---0-0---0-0---0-0-------|
    . .   . .   . .    . .   . .   . .   . .

Arrangement:
Riff A1 (0.00)                 Riff H (2.13) x2
Riff B (0.04)                  Riff I (2.29)
Riff A1 (0.10)                 Riff J (2.33)
Riff B (0.14)                  Riff I (2.38)
Riff C (0.21)                  Riff K (2.43)
Riff A2 (0.24)                 Riff L (2.46)
Riff B (0.26)                  Riff M (2.50)
Riff A1 (0.33)                 Riff K (2.54)
Riff B (0.36)                  Riff L (2.58)
Riff C (0.43)                  Riff M (3.01)
Fill 1 (0.47)                  Fill 3 (3.05)
Riff D (0.50) x2               Riff A2 (3.45)
Fill 2 (1.19)                  Riff B (3.47)
Riff E (1.25) x2               Riff A1 (3.54)
Riff F (1.43) x4               Riff B (3.57)
Riff G (1.58) (over Riff F)    Riff N (4.00) x4

Check Out Death Warp, With More Transcriptions On It:
 http://tiger.towson.edu/~dalvis1
comments
We did not receive enough feedback on this tab! Please rate:
print report bad tab
1 2 3 4 5
I want to post or [tab]
guest
You may want to rate the tab now too:
select rating
Please do not post tabs as comments. Select "correction" instead!