Oops, an error
Loading. Please wait.

Delight And Angers Tab

ver1
ver1

Whole song

More versions @911Tabs.com
8,091 views 18 this week
no commentswrite comment
1 2 3 4 5
worth learning
x 2
Autoscroll
+/-
esc
set tempo
stop
Contributor
Difficulty
Tuning
intermediate
A# F A# D# G C
WARNING: You are trying to view
                                    content from Ultimate-Guitar.com
                                    in an unauthorized application,
                                    which is prohibited.

                                    Please use an official Ultimate
                                    Guitar Tabs application for iPhone,
                                    iPad or Android to access legitimate
                                    chords, guitar, bass, and drum tabs
                                    from Ultimate-Guitar.com database.

                                    Type "ultimate guitar tabs" in Apple
                                    App Store's or Android Market's
                                    search to find the application.
Song:   Delight and Angers
Artist: In Flames     
Album:  A Sense of Purpose

Tuning: Drop A#  (A# F A# D# G C)

This is my first tab. I hope it works.

h  = Hammer-on
p  = Pull-off
AH = Artificial harmonic
/  = Slide
*  = Palm-mute



INTRO
      
||----------------------------------| 
||----------------------------------|
||----------------------------------|
||--7---------------7---------3--5--|
||--5---------------5---------1--3--|
||----0-5-3-0-3-5-0------5-3--------|
      * * * * * * *

|-----------------------------------||
|-----------------------------------||
|-----------------------------------||
|--7---------------7----------------||
|--5---------------5----5-7--8--7---||
|----0-5-3-0-3-5-0------------------|| repeat 4x
     * * * * * * * 

|---------------------|
|---------------------|
|---------------------|
|---------------------|
|---5---3--7----7h8---|
|---------------------| 



VERSE

|-----------------------------------|
|-----------------------------------|
|-----------------------------------|
|--7-------7-------7-----7----------|
|--5-------5-------5-----5---5-3h5--|
|----0-0-0---0-0-0---0-0---0--------|
     * * *   * * *   * *   *

|-----------------------------------|
|-----------------------------------|
|-----------------------------------|
|--8-------8-------8-----8----------|
|--8-------8-------8-----8---8-5h8--|
|----0-0-0---0-0-0---0-0---0--------|
     * * *   * * *   * *   *

|-----------------------------------|
|-----------------------------------|
|-----------------------------------|
|--8-------8-------8-----8----------|
|--5-------5-------5-----5---8-7h8--|
|----5-5-5---5-5-5---5-5---5--------|
     * * *   * * *   * *   *

|------------------------------|
|------------------------------|
|------------------------------|
|--7-------7--------5----8AH---| 
|--5-------5--------3----------|
|----3-3-3---3-3-3--2----------| 
     * * *   * * * 

|-----------------------------------|
|-----------------------------------|
|-----------------------------------|
|--7-------7-------7-----7----------|
|--5-------5-------5-----5---5-3h5--|
|----0-0-0---0-0-0---0-0---0--------|
     * * *   * * *   * *   *

|-----------------------------------|
|-----------------------------------|
|-----------------------------------|
|--8-------8-------8-----8----------|
|--8-------8-------8-----8---8-5h8--|
|----0-0-0---0-0-0---0-0---0--------|
     * * *   * * *   * *   *

|-----------------------------------|
|-----------------------------------|
|-----------------------------------|
|--8-------8-------8-----8----------|
|--5-------5-------5-----5---8-7h8--|
|----5-5-5---5-5-5---5-5---5--------|
     * * *   * * *   * *   *
|---------------------------------|
|---------------------------------|
|---------------------------------|
|--7-------7--------5----3-2-0-0--|
|--5-------5--------3-------------|
|----3-3-3---3-3-3--2-------------|
     * * *   * * *


PRE-CHORUS

(This is only the rhythm-guitar part, sorry. It's played clean)

|-------------------------|-----------------------------|
|-------6-5-3p1-----------|-------5/6----------8--8-----|
|-------5-------3-3----5--|-------4/5----------5--5-----|
|--0--0-3---------3----2--|--0--0-2/3-----2--2-------2--|
|-----------------1----0--|-----------------------------|
|-------------------------|-----------------------------|

|-------------------------|-------------------------|-----------------------|
|-------6-5-3p1-----------|-------6-5-3p1-----------|-------5/6-------------|
|-------5-------3-3----5--|-------5-------3-3----5--|-------4/5-------------|
|--0--0-3---------3----2--|--0--0-3---------3----2--|--0--0-2/3---7--8--10--|
|-----------------1----0--|-----------------1----0--|-------------7--8--10--|
|-------------------------|-------------------------|-------------7--8--10--|



CHORUS

|-----------------------------------|
|-----------------------------------|
|-----------------------------------|
|--0-0-3-3-3-3-0-0-0-0-3-3-3-3-0-0--|
|--0-0-------------0-0--------------|
|--0-0-------------0-0--------------|
   * *             * *

|-----------------------------------|
|-----------------------------------|
|----------------------3-3-7-7-5-3--|
|--3-3-7-7-7-7-5-5-5-5--------------|
|--3-3-------------5-5--------------|
|--3-3-------------5-5--------------|
   * *             * *

|-----------------------------------|
|-----------------------------------|
|-----------------------------------|
|--0-0-3-3-3-3-0-0-0-0-3-3-3-3-0-0--|
|--0-0-------------0-0--------------|
|--0-0-------------0-0--------------|
   * *             * *

|--------------------------------|
|--------------------------------|
|-----------------------3--2-----|
|--3-3-5-5-7-7-5-5-3-3--------3--|
|--3-3-------------3-3-----------|
|--3-3-------------3-3-----------|
   * *             * *

|-----------------------------------|
|-----------------------------------|
|-----------------------------------|
|--0-0-0-0-0-0-3-3-0-0-0-0-0-0-3-3--|
|--0-0-------------0-0--------------|
|--0-0-------------0-0--------------|
   * *             * *

|-----------------------------------|
|-----------------------------------|
|----------------------3-3-7-7-5-3--|
|--3-3-7-7-7-7-5-5-5-5--------------|
|--3-3-------------5-5--------------|
|--3-3-------------5-5--------------|
   * *             * *

|-----------------------------------|
|-----------------------------------|
|-----------------------------------|
|--0-0-0-0-0-0-3-3-0-0-0-0-0-0-3-3--|
|--0-0-------------0-0--------------|
|--0-0-------------0-0--------------|
   * *             * *

|------------------------------|
|------------------------------|
|------------------------------|
|--3-3-5-5-7-7-5-5-3--5--2--3--|
|--3-3-------------3--5--2--3--|
|--3-3-------------3--5--2--3--|
   * *             

|-------------------------------| 
|-------------------------------|
|-----------------------7--5~~--|
|--7---------------7----5--3~~--|
|--5---------------5------------|
|----0-5-3-0-3-5-0--------------|
     * * * * * * * 



BRIDGE

|-----------------------------------| 
|-----------------------------------|
|-----------------------------------|
|---7---------------7---------3--5--|
|---5---------------5---------1--3--|
|-----0-5-3-0-3-5-0------5-3--------|
      * * * * * * *

|----------------------------------|
|----------------------------------|
|----------------------------------|
|--7---------------7---------------|
|--5---------------5----5-7--8--7--|
|----0-5-3-0-3-5-0-----------------|
     * * * * * * *


VERSE

|-----------------------------------|
|-----------------------------------|
|-----------------------------------|
|--7-------7-------7-----7----------|
|--5-------5-------5-----5---5-3h5--|
|----0-0-0---0-0-0---0-0---0--------|
     * * *   * * *   * *   *

|-----------------------------------|
|-----------------------------------|
|-----------------------------------|
|--8-------8-------8-----8----------|
|--8-------8-------8-----8---8-5h8--|
|----0-0-0---0-0-0---0-0---0--------|
     * * *   * * *   * *   *

|-----------------------------------|
|-----------------------------------|
|-----------------------------------|
|--8-------8-------8-----8----------|
|--5-------5-------5-----5---8-7h8--|
|----5-5-5---5-5-5---5-5---5--------|
     * * *   * * *   * *   * 

|-------------------------------|
|-------------------------------|
|-------------------------------|
|--7-------7--------5----8AH----| 
|--5-------5--------3-----------|
|----3-3-3---3-3-3--2-----------| 
     * * *   * * *

|-----------------------------------|
|-----------------------------------|
|-----------------------------------|
|--7-------7-------7-----7----------|
|--5-------5-------5-----5---5-3h5--|
|----0-0-0---0-0-0---0-0---0--------|
     * * *   * * *   * *   *

|-----------------------------------|
|-----------------------------------|
|-----------------------------------|
|--8-------8-------8-----8----------|
|--8-------8-------8-----8---8-5h8--|
|----0-0-0---0-0-0---0-0---0--------|
     * * *   * * *   * *   *

|-----------------------------------|
|-----------------------------------|
|-----------------------------------|
|--8-------8-------8-----8----------|
|--5-------5-------5-----5---8-7h8--|
|----5-5-5---5-5-5---5-5---5--------|
     * * *   * * *   * *   *

|---------------------------------|
|---------------------------------|
|---------------------------------|
|--7-------7--------5----3-2-0-0--|
|--5-------5--------3-------------|
|----3-3-3---3-3-3--2-------------|
     * * *   * * *



PRE-CHORUS

|-------------------------|-----------------------------|
|-------6-5-3p1-----------|--------------------8--8-----|
|-------5-------3-3----5--|-------4/5----------5--5-----|
|--0--0-3---------3----2--|--0--0-2/3-----2--2-------2--|
|-----------------1----0--|-----------------------------|
|-------------------------|-----------------------------|

|-------------------------|-------------------------|
|-------6-5-3p1-----------|-------6-5-3p1-----------|
|-------5-------3-3----5--|-------5-------3-3----5--|
|--0--0-3---------3----2--|--0--0-3---------3----2--|
|-----------------1----0--|-----------------1----0--|
|-------------------------|-------------------------|

|-------------------------------------------------------|
|---------5/6-------------------------------------------|
|---------4/5-----14--12-14-12--------------12--14--15--|
|--0---0--2/3-------------------15--14--15--------------|
|-------------------------------------------------------|
|-------------------------------------------------------|



CHORUS

|-----------------------------------|
|-----------------------------------|
|-----------------------------------|
|--0-0-3-3-3-3-0-0-0-0-3-3-3-3-0-0--|
|--0-0-------------0-0--------------|
|--0-0-------------0-0--------------|
   * *             * *

|-----------------------------------|
|-----------------------------------|
|----------------------3-3-7-7-5-3--|
|--3-3-7-7-7-7-5-5-5-5--------------|
|--3-3-------------5-5--------------|
|--3-3-------------5-5--------------|
   * *             * *
 
|-----------------------------------|
|-----------------------------------|
|-----------------------------------|
|--0-0-3-3-3-3-0-0-0-0-3-3-3-3-0-0--|
|--0-0-------------0-0--------------|
|--0-0-------------0-0--------------|
   * *             * *

|--------------------------------|
|--------------------------------|
|-----------------------3--2-----|
|--3-3-5-5-7-7-5-5-3-3--------3--|
|--3-3-------------3-3-----------|
|--3-3-------------3-3-----------|
   * *             * *

|-----------------------------------|
|-----------------------------------|
|-----------------------------------|
|--0-0-0-0-0-0-3-3-0-0-0-0-0-0-3-3--|
|--0-0-------------0-0--------------|
|--0-0-------------0-0--------------|
   * *             * * 

|-----------------------------------|
|-----------------------------------|
|----------------------3-3-7-7-5-3--|
|--3-3-7-7-7-7-5-5-5-5--------------|
|--3-3-------------5-5--------------|
|--3-3-------------5-5--------------|
   * *             * * 

|-----------------------------------|
|-----------------------------------|
|-----------------------------------|
|--0-0-0-0-0-0-3-3-0-0-0-0-0-0-3-3--|
|--0-0-------------0-0--------------|
|--0-0-------------0-0--------------|
   * *             * *

|------------------------------|
|------------------------------|
|------------------------------|
|--3-3-5-5-7-7-5-5-3--5--2--3--|
|--3-3-------------3--5--2--3--|
|--3-3-------------3--5--2--3--|
   * *               



BREAK

||------------------------------------|
||---6-6-6-6-----6-6-6-6-----6-6------|
||o--5-5-5-5-----5-5-5-5-----5-5------|
||o--3-3-3-3-----3-3-3-3-----3-3------|
||-----------3-3---------3-3-----3-3--|
||-----------3-3---------3-3-----3-3--|
             * *         * *     * *

|-----------------------------------|
|--10101010----8-8-8-8-----8-8------|
|--9-9-9-9-----9-9-9-9-----9-9------|
|--7-7-7-7-----7-7-7-7-----7-7------|
|----------7-7---------7-7-----7-7--|
|----------7-7---------7-7-----7-7--|
           * *         * *     * *
 
|-----------------------------------|
|--6-6-6-6-----6-6-6-6-----6-6------|
|--7-7-7-7-----7-7-7-7-----7-7------|
|--7-7-7-7-7-7-7-7-7-7-7-7-7-7-7-7--|
|----------5-5---------5-5-----5-5--|
|-----------------------------------|
           * *         * *     * *

|----------------------------------------||
|--5-5-5-5-----5h6-5---------------------||
|--5-5-5-5-----------7-5-----0h2-0------o||
|--5-5-5-5-5-5-----------5-5-------3-2--o||
|----------3-3---------------------------||
|----------------------------------------|| 
           * *       * *



SOLO

|-----|--------|----------------------|------------------|-----|
|-----|--------|----------------------|------------------|-----|
|--7--|--5--3--|--2-------2--3--2-----|------------------|--7--|
|-----|--------|-------3-----------3--|--5----3--2-------|-----|
|-----|--------|----------------------|---------------3--|-----|
|-----|--------|----------------------|------------------|-----|

|--------|-----------------|------------------|
|--------|--6----6-8-10-6--|--8----6--5----1--|
|--5--3--|-----5-----------|------------------|
|--------|-----------------|------------------|
|--------|-----------------|------------------|
|--------|-----------------|------------------|

||--------------------------||
||-----1--------1-----------||
||--------3--------3--------||
||-----------------------3--||
||--1--------1--------1-----||
||--------------------------|| repeat 3x

|--------------------------|--------------------|
|--------------------------|--6~~~~~~~~~~~~~~---|
|--------5-----7-----5-----|--7~~~~~~~~~~~~~~---|
|-----5-----5-----5-----5--|--------------------|
|--3-----------------------|--------------------|
|--------------------------|--------------------|

|-----------------------------------------|
|-----------------------------------------|
|--14---12-14-12--------------12--14--15--|
|-----------------15--14--15--------------|
|-----------------------------------------|
|-----------------------------------------|



CHORUS


|-----------------------------------|
|-----------------------------------|
|-----------------------------------|
|--0-0-3-3-3-3-0-0-0-0-3-3-3-3-0-0--|
|--0-0-------------0-0--------------|
|--0-0-------------0-0--------------|
   * *             * *

|-----------------------------------|
|-----------------------------------|
|----------------------3-3-7-7-5-3--|
|--3-3-7-7-7-7-5-5-5-5--------------|
|--3-3-------------5-5--------------|
|--3-3-------------5-5--------------|
   * *             * *

|-----------------------------------|
|-----------------------------------|
|-----------------------------------|
|--0-0-3-3-3-3-0-0-0-0-3-3-3-3-0-0--|
|--0-0-------------0-0--------------|
|--0-0-------------0-0--------------|
   * *             * *

|--------------------------------|
|--------------------------------|
|-----------------------3--2-----|
|--3-3-5-5-7-7-5-5-3-3--------3--|
|--3-3-------------3-3-----------|
|--3-3-------------3-3-----------|
   * *             * *

|-----------------------------------|
|-----------------------------------|
|-----------------------------------|
|--0-0-0-0-0-0-3-3-0-0-0-0-0-0-3-3--|
|--0-0-------------0-0--------------|
|--0-0-------------0-0--------------|
   * *             * *

|-----------------------------------|
|-----------------------------------|
|----------------------3-3-7-7-5-3--|
|--3-3-7-7-7-7-5-5-5-5--------------|
|--3-3-------------5-5--------------|
|--3-3-------------5-5--------------|
   * *             * *

|-----------------------------------|
|-----------------------------------|
|-----------------------------------|
|--0-0-0-0-0-0-3-3-0-0-0-0-0-0-3-3--|
|--0-0-------------0-0--------------|
|--0-0-------------0-0--------------|
   * *             * *

|------------------------------|
|------------------------------|
|------------------------------|
|--3-3-5-5-7-7-5-5-3--5--2--3--|
|--3-3-------------3--5--2--3--|
|--3-3-------------3--5--2--3--|
   * *         



OUTRO

|----------------------------------| 
|----------------------------------|
|----------------------------------|
|--7---------------7---------3--5--|
|--5---------------5---------1--3--|
|----0-5-3-0-3-5-0------5-3--------|
     * * * * * * *

|----------------------------------|
|----------------------------------|
|----------------------------------|
|--7---------------7---------------|
|--5---------------5----5-7--8--7--|
|----0-5-3-0-3-5-0-----------------|
     * * * * * * *

|----------------------------------| 
|----------------------------------|
|----------------------------------|
|--7---------------7---------3--5--|
|--5---------------5---------1--3--|
|----0-5-3-0-3-5-0------5-3--------|
     * * * * * * * 

|---------------------|
|---------------------|
|------------3---5-7--|
|--7---------3---5-7--|
|--5---------1---3-5--|
|----0-0-0-0---0------|
     * * * *   *


That's it. If you have any corrections please mail me at janhartung@freenet.de!

   ::IN FLAMES WE TRUST::
comments
We did not receive enough feedback on this tab! Please rate:
print report bad tab
1 2 3 4 5
I want to post or [tab]
guest
You may want to rate the tab now too:
select rating
Please do not post tabs as comments. Select "correction" instead!