Oops, an error
Loading. Please wait.

Delight And Angers Tab

ver2
ver2

Whole song

Interactive

More versions @911Tabs.com
4,729 views 18 this week
2 commentsread comments
1 2 3 4 5
not so good
x 3
Autoscroll
+/-
esc
set tempo
stop
Contributor
Difficulty
Tuning
intermediate
C# G# C# F# A# D#
Hey! There's an official Ultimate Guitar app which is ideal
for learning songs when you're away from computer. Get the app
WARNING: You are trying to view
                                    content from Ultimate-Guitar.com
                                    in an unauthorized application,
                                    which is prohibited.

                                    Please use an official Ultimate
                                    Guitar Tabs application for iPhone,
                                    iPad or Android to access legitimate
                                    chords, guitar, bass, and drum tabs
                                    from Ultimate-Guitar.com database.

                                    Type "ultimate guitar tabs" in Apple
                                    App Store's or Android Market's
                                    search to find the application.
----------------------------------------------------------------------------
                             Delight and Angers
                                In Flames
----------------------------------------------------------------------------

What a DELIGHT it is to make a tab for In Flames, because after all... They Rock!! AND I
no ANGERS toward anyone who feels the same way. To weird? I hope this tab will be 100%
to your ears. Enjoy!

Username: dkm817 (same on X box live)
Youtube Guitar Cover: http://www.youtube.com/watch?v=kkLT6BsQS2g
Email: guitardrums@rockfan.com

Guitar 1 Rhythmic (C# G# C# F# A# D#)
Guitar 2 Lead     (C# G# C# F# A# D#)
Guitar 3 Rhythmic (C# G# C# F# A# D#)

Intro 1

Guitar 1 & 3
D#-----------------------------------------------------------------|
A#-----------------------------------------------------------------|
F#-4~~~~~~---------------------------------------------------------|
C#-4~~~~~~---------------------------------------------5~~~~~~-7---|
G#-2~~~~~~---------------------------------------------5~~~~~~-7---|
C#-----------------------------------------------------5~~~~~~-7---|

Guitar 2
D#-----------------------------------------------------------------|
A#-----------------------------------------------------------------|
F#-----------------------------------------------------------------|
C#-----------------------------------------------------------------|
G#-2-------------------------------2---------------------------0h--|
C#-----4---2---0---4---4---0---0-------0---2p--0---0---5---0-------|
Pm     .   .   .   .   .   .   .       .           .       .

Guitar 1 & 3
D#-----------------------------------------------------------------|
A#-----------------------------------------------------------------|
F#-4~~~~~~---------------------------------------------------------|
C#-4~~~~~~---------------------------------------------------------|
G#-2~~~~~~---------------------------------------------------------|
C#-----------------------------------------------------------------|

Guitar 2
D#-----------------------------------------------------------------|
A#-----------------------------------------------------------------|
F#-----------------------------------------------------------------|
C#-----------------------------------------------------------------|
G#-2-------------------------------2-------2h--4-------5-------4---|
C#-----4---2---0---4---4---0---0-------0-----------0-------0-------|
Pm     .   .   .   .   .   .   .       .           .       .

Guitar 1 & 3
D#-----------------------------------------------------------------|
A#-----------------------------------------------------------------|
F#-4~~~~~~---------------------------------------------------------|
C#-4~~~~~~---------------------------------------------5~~~~~~-7---|
G#-2~~~~~~---------------------------------------------5~~~~~~-7---|
C#-----------------------------------------------------5~~~~~~-7---|

Guitar 2
D#-----------------------------------------------------------------|
A#-----------------------------------------------------------------|
F#-----------------------------------------------------------------|
C#-----------------------------------------------------------------|
G#-2-------------------------------2---------------------------0h--|
C#-----4---2---0---4---4---0---0-------0---2p--0---0---5---0-------|
Pm     .   .   .   .   .   .   .       .           .       .

Guitar 1 & 3
D#-----------------------------------------------------------------|
A#-----------------------------------------------------------------|
F#-4~~~~~~---------------------------------------------------------|
C#-4~~~~~~-------------------------------------------------9\~~~~~-|
G#-2~~~~~~-------------------------------------------------9\~~~~~-|
C#---------------------------------------------------------9\~~~~~-|

Guitar 2
D#-----------------------------------------------------------------|
A#-----------------------------------------------------------------|
F#-----------------------------------------------------------------|
C#-----------------------------------------------------------------|
G#-2-------------------------------2-------2h--4-------5-------4---|
C#-----4---2---0---4---4---0---0-------0-----------0-------0-------|
Pm     .   .   .   .   .   .   .       .           .       .

Intro 2

Guitar 1 & 3
D#-----------------------------------------------------------------|
A#-----------------------------------------------------------------|
F#-----------------------------------------------------------------|
C#-----------------------------------------------------------------|
G#-2-------------------------------2---------------------------0h--|
C#-----4---2---0---4---4---0---0-------0---2p--0---0---5---0-------|
Pm     .   .   .   .   .   .   .       .           .       .

Guitar 2
D#-----------------------------------------------------------------|
A#-----------------------------------------------------------------|
F#-----------------------------------------------------------------|
C#-----------------------------------------------------------------|
G#-2-------------------------------2---------------------------0h--|
C#-----4---2---0---4---4---0---0-------0---2p--0---0---5---0-------|
Pm     .   .   .   .   .   .   .       .           .       .

Guitar 1 & 3
D#-----------------------------------------------------------------|
A#-----------------------------------------------------------------|
F#-----------------------------------------------------------------|
C#-----------------------------------------------------------------|
G#-2-------------------------------2-------2p--0---------------0h--|
C#-----4---2---0---4---4---0---0-------0-----------0---5---0-------|
Pm     .   .   .   .   .   .   .       .           .       .

Guitar 2
D#-----------------------------------------------------------------|
A#-----------------------------------------------------------------|
F#-----------------------------------------------------------------|
C#-----------------------------------------------------------------|
G#-2-------------------------------2-------2h--4-------5-------4---|
C#-----4---2---0---4---4---0---0-------0-----------0-------0-------|
Pm     .   .   .   .   .   .   .       .           .       .

Guitar 1 & 3
D#-----------------------------------------------------------------|
A#-----------------------------------------------------------------|
F#-----------------------------------------------------------------|
C#-----------------------------------------------------------------|
G#-2-------------------------------2---------------------------0h--|
C#-----4---2---0---4---4---0---0-------0---2p--0---0---5---0-------|
Pm     .   .   .   .   .   .   .       .           .       .

Guitar 2
D#-----------------------------------------------------------------|
A#-----------------------------------------------------------------|
F#-----------------------------------------------------------------|
C#-----------------------------------------------------------------|
G#-2-------------------------------2---------------------------0h--|
C#-----4---2---0---4---4---0---0-------0---2p--0---0---5---0-------|
Pm     .   .   .   .   .   .   .       .           .       .

Guitar 1 & 3
D#-----------------------------------------------------------------|
A#-----------------------------------------------------------------|
F#-----------------------------------------------------------------|
C#-----------------------------------------------------------------|
G#-2-------------------------------2-------2p--0---------------0---|
C#-----4---2---0---4---4---0---0-------0-----------0---5---0-------|
Pm     .   .   .   .   .   .   .       .           .       .

Guitar 2
D#-----------------------------------------------------------------|
A#-----------------------------------------------------------------|
F#-----------------------------------------------------------------|
C#-----------------------------------------------------------------|
G#-2-------------------------------2-------2h--4-------5-------4---|
C#-----4---2---0---4---4---0---0-------0-----------0-------0-------|
Pm     .   .   .   .   .   .   .       .           .       .

Guitar 1 & 3
D#---------------------------------|
A#---------------------------------|
F#---------------------------------|
C#-----------------------------2---|
G#-------------0-------2h--5-------|
C#-0---5---0-------0---------------|
Pm .       .       .

Guitar 2
D#---------------------------------|
A#---------------------------------|
F#---------------------------------|
C#---------------------0---2---4---|
G#-----2-------4-------------------|
C#-0-------0-------0---------------|
Pm .       .       .

Verse

Guitar 1 & 3
D#-----------------------------------------------------------------|
A#-----------------------------------------------------------------|
F#-----------------------------------------------------------------|
C#-4---4---4---4---4---4---4---4---4---4---4---4---4---4p--2h--4---|
G#-2---2---2---2---2---2---2---2---2---2---2---2---2---2~~~~~~~~~~-|
C#-----------------------------------------------------------------|
Pm     .   .   .       .   .   .       .   .       .

Guitar 1 & 3
D#-----------------------------------------------------------------|
A#-----------------------------------------------------------------|
F#-----------------------------------------------------------------|
C#-5---5---5---5---5---5---5---5---5---5---5---5---5---5p--4h--5---|
G#-2---2---2---2---2---2---2---2---2---2---2---2---2---2~~~~~~~~~~-|
C#-----------------------------------------------------------------|
Pm     .   .   .       .   .   .       .   .       .

Guitar 1 & 3
D#-----------------------------------------------------------------|
A#-----------------------------------------------------------------|
F#-----------------------------------------------------------------|
C#-5---5---5---5---5---5---5---5---5---5---5---5---5---5p--4h--5---|
G#-2---2---2---2---2---2---2---2---2---2---2---2---2---2~~~~~~~~~~-|
C#-2---2---2---2---2---2---2---2---2---2---2---2---2---2~~~~~~~~~~-|
Pm     .   .   .       .   .   .       .   .       .

Guitar 1 & 3
D#-----------------------------------------------------------------|
A#-----------------------------------------------------------------|
F#-----------------------------------------------------------------|
C#-0---0---0---0---0---0---0---0-----------------------------------|
G#-0---0---0---0---0---0---0---0-----------------------2*~~~~~~~~~-|
C#-0---0---0---0---0---0---0---0---0---2---2---2---2---------------|
Pm     .   .   .       .   .   .

Guitar 1 & 3
D#-----------------------------------------------------------------|
A#-----------------------------------------------------------------|
F#-----------------------------------------------------------------|
C#-4---4---4---4---4---4---4---4---4---4---4---4---4---4p--2h--4---|
G#-2---2---2---2---2---2---2---2---2---2---2---2---2---2~~~~~~~~~~-|
C#-----------------------------------------------------------------|
Pm     .   .   .       .   .   .       .   .       .

Guitar 2 (I’m not sure about this part because the wah effect and fade in get into the
of it, so it makes it very hard to hear.)
D#-----------------------------------------------------------------|
A#-----------------------------------------------------------------|
F#-6---4---4---4---6---4---6---4---6---7---7---4---7---4---6---4---|
C#-4---4---4---4---4---4---4---4---4---4---4---4---4---4---4---4---|
G#-----------------------------------------------------------------|
C#-----------------------------------------------------------------|

Guitar 1 & 3
D#-----------------------------------------------------------------|
A#-----------------------------------------------------------------|
F#-----------------------------------------------------------------|
C#-5---5---5---5---5---5---5---5---5---5---5---5---5---5p--4h--5---|
G#-2---2---2---2---2---2---2---2---2---2---2---2---2---2~~~~~~~~~~-|
C#-----------------------------------------------------------------|
Pm     .   .   .       .   .   .       .   .       .

Guitar 2
D#-----------------------------------------------------------------|
A#-----------------------------------------------------------------|
F#-6---4---4---4---6---4---6---4---6---7---7---4---7---4---6---4---|
C#-5---5---5---5---5---5---5---5---5---5---5---5---5---5---5---5---|
G#-----------------------------------------------------------------|
C#-----------------------------------------------------------------|

Guitar 1 & 3
D#-----------------------------------------------------------------|
A#-----------------------------------------------------------------|
F#-----------------------------------------------------------------|
C#-5---5---5---5---5---5---5---5---5---5---5---5---5---5p--4h--5---|
G#-2---2---2---2---2---2---2---2---2---2---2---2---2---2~~~~~~~~~~-|
C#-2---2---2---2---2---2---2---2---2---2---2---2---2---2~~~~~~~~~~-|
Pm     .   .   .       .   .   .       .   .       .

Guitar 2
D#-----------------------------------------------------------------|
A#-----------------------------------------------------------------|
F#-4---2---2---2---4---2---4---2---4---5---5---2---5---2---4---2---|
C#-2---2---2---2---2---2---2---2---2---2---2---2---2---2---2---2---|
G#-----------------------------------------------------------------|
C#-----------------------------------------------------------------|

Guitar 1 & 3
D#-----------------------------------------------------------------|
A#-----------------------------------------------------------------|
F#-----------------------------------------------------------------|
C#-0---0---0---0---0---0---0---0-----------------------------------|
G#-0---0---0---0---0---0---0---0-----------------------------------|
C#-0---0---0---0---0---0---0---0---0---2---2---2---2---0^\~~~~~~~~-|
Pm     .   .   .       .   .   .

Guitar 2
D#-----------------------------------------------------------------|
A#---------------------------------7---8---8---8---8\--7~~~~~~~~~~-|
F#-2---0---0---0---2---0---0---0---6---7---7---7---7\--6~~~~~~~~~~-|
C#-0---0---0---0---0---0---0---0-----------------------------------|
G#-----------------------------------------------------------------|
C#-----------------------------------------------------------------|

Pre Chorus 1

Guitar 1 (Sweeping) (Clean)
D#-----------------------------------------------------------------|
A#-------3~~-------------3~~~~~~~~---------5---------------3-------|
F#-----4------4---------2----------------4---4-----------2---2-----|
C#---4----------4-----0----------------2-------2-------0-------0---|
G#-2--------------2-0----------------------------2---0-----------0-|
C#---------------------------------2~~-------------0---------------|

Guitar 2 (Clean)
D#------------------------------------------------------8~~~-6h7p6-|
A#-7~~~~~~~~~-7~~~-9h10~-8~~-7h-8p-7~~~~~~~~~~~~~~-10~~-8~~~-------|
F#-----------------------------------------------------------------|
C#-----------------------------------------------------------------|
G#-----------------------------------------------------------------|
C#-----------------------------------------------------------------|

Guitar 1
D#-----------------------------------------------------------------|
A#-------3~~-------------5~~---------------3---------------5-------|
F#-----4-----4---------4-----4-----------4---4-----------4---4-----|
C#---4---------4-----2---------2-------4-------4-------2-------2---|
G#-2-------------2-2-------------2---2-----------2---2-----------2-|
C#---------------------------------2---------------2---------------|

Guitar 2                                           (Distorted)
D#-----------------------------------------------------------------|
A#-----------------------------------------------------------------|
F#-7~~~~~~~~~~~~~-/6~~~~~~~~~~~~~~-4~~~~~~~~~~~~~~-----------------|
C#-------------------------------------------------4~~-4-5~~-5-8~~-|
G#-------------------------------------------------4~~-4-5~~-5-8~~-|
C#-------------------------------------------------4~~-4-5~~-5-8~~-|

Guitar 3
D#-----------------------------------------------------------------|
A#-----------------------------------------------------------------|
F#-----------------------------------------------------------------|
C#-------------------------------------------------4~~-4-5~~-5-8~~-|
G#-------------------------------------------------4~~-4-5~~-5-8~~-|
C#-------------------------------------------------4~~-4-5~~-5-8~~-|

Chorus

Guitar 1 & 3
D#-----------------------------------------------------------------|
A#-----------------------------------------------------------------|
F#-4---4---------------------------4---4---------------------------|
C#-4---4---------------------------4---4---------------------------|
G#-2---2---5---5---5---5---2---2---2---2---5---5---5---5---2---2---|
C#-----------------------------------------------------------------|
Pm .   .                           .   .

Guitar 2
D#-----------------------------------------------------------------|
A#-----------------------------------------------------------------|
F#-4---4---------------------------4---4---------------------------|
C#-4---4---------------------------4---4---------------------------|
G#-2---2---5---5---5---5---2---2---2---2---5---5---5---5---2---2---|
C#-----------------------------------------------------------------|
Pm .   .                           .   .

Guitar 1 & 3
D#-----------------------------------------------------------------|
A#-----------------------------------------------------------------|
F#-2---2-----------------------------------------4~~~~~-2h4p2------|
C#-2---2-----------------------------------2---2--------------4~~~-|
G#-0---0---5---5---5---5---2---2---0---0---------------------------|
C#-----------------------------------------------------------------|
Pm .   .

Guitar 2
D#-----------------------------------------------------------------|
A#-----------------------------------------------------------------|
F#-2---2-----------------------------------------4~~~~~-2h4p2------|
C#-2---2---4---4---4---4-------------------2---2--------------4~~~-|
G#-0---0-------------------2---2---0---0---------------------------|
C#-----------------------------------------------------------------|
Pm .   .

Guitar 1 & 3
D#-----------------------------------------------------------------|
A#-----------------------------------------------------------------|
F#-4---4---------------------------4---4---------------------------|
C#-4---4---------------------------4---4---------------------------|
G#-2---2---5---5---5---5---2---2---2---2---5---5---5---5---2---2---|
C#-----------------------------------------------------------------|
Pm .   .                           .   .

Guitar 2
D#-----------------------------------------------------------------|
A#-----------------------------------------------------------------|
F#-4---4---------------------------4---4---------------------------|
C#-4---4---------------------------4---4---------------------------|
G#-2---2---5---5---5---5---2---2---2---2---5---5---5---5---2---2---|
C#-----------------------------------------------------------------|
Pm .   .                           .   .

Guitar 1 & 3
D#-----------------------------------------------------------------|
A#-----------------------------------------------------------------|
F#-2---2-----------------------------------------------------------|
C#-2---2-----------------------------------------------------------|
G#-0---0---5---5---5---5---2---2---0---0---4---4---2---2---4---4---|
C#-----------------------------------------------------------------|
Pm .   .

Guitar 2
D#-----------------------------------------------------------------|
A#-----------------------------------------------------------------|
F#-2---2-----------------------------------------------------------|
C#-2---2---4---4---4---4-------------------------------------------|
G#-0---0-------------------2---2---0---0---4---4---2---2---4---4---|
C#-----------------------------------------------------------------|
Pm .   .

Guitar 1 & 3
D#-----------------------------------------------------------------|
A#-----------------------------------------------------------------|
F#-4---4---------------------------4---4---------------------------|
C#-4---4---------------------------4---4---------------------------|
G#-2---2---2---2---2---2---5---5---2---2---2---2---2---2---5---5---|
C#-----------------------------------------------------------------|
Pm .   .                           .   .

Guitar 2
D#-----------------------------------------------------------------|
A#-----------------------------------------------------------------|
F#-4---4---------------------------4---4---------------------------|
C#-4---4---------------------------4---4---------------------------|
G#-2---2---2---2---2---2---5---5---2---2---2---2---2---2---5---5---|
C#-----------------------------------------------------------------|
Pm .   .                           .   .

Guitar 1 & 3
D#-----------------------------------------------------------------|
A#-----------------------------------------------------------------|
F#-2---2-------------------2---2-----------------4~~~~~-2h4p2------|
C#-2---2-------------------2---2-----------2---2--------------4~~~-|
G#-0---0---5---5---5---5---0---0---0---0---------------------------|
C#-----------------------------------------------------------------|
Pm .   .                   .   .

Guitar 2
D#-----------------------------------------------------------------|
A#-----------------------------------------------------------------|
F#-2---2-------------------2---2-----------------4~~~~~-2h4p2------|
C#-2---2---4---4---4---4---2---2-----------2---2--------------4~~~-|
G#-0---0-------------------0---0---0---0---------------------------|
C#-----------------------------------------------------------------|
Pm .   .                   .   .

Guitar 1 & 3
D#-----------------------------------------------------------------|
A#-----------------------------------------------------------------|
F#-4---4---------------------------4---4---------------------------|
C#-4---4---------------------------4---4---------------------------|
G#-2---2---2---2---2---2---5---5---2---2---2---2---2---2---5---5---|
C#-----------------------------------------------------------------|
Pm .   .                           .   .

Guitar 2
D#-----------------------------------------------------------------|
A#-----------------------------------------------------------------|
F#-4---4---------------------------4---4---------------------------|
C#-4---4---------------------------4---4---------------------------|
G#-2---2---2---2---2---2---5---5---2---2---2---2---2---2---5---5---|
C#-----------------------------------------------------------------|
Pm .   .                           .   .

Guitar 1 & 3
D#-----------------------------------------------------------------|
A#-----------------------------------------------------------------|
F#-2---2-------------------2---2-----------------------------------|
C#-2---2-------------------2---2-----------------------------------|
G#-0---0---5---5---5---5---0---0---0---0---4~~~~~~-2~~~~~~-4~~~~~~-|
C#-----------------------------------------------------------------|
Pm .   .                   .   .

Guitar 2
D#-----------------------------------------------------------------|
A#-----------------------------------------------------------------|
F#-2---2-------------------2---2-----------------------------------|
C#-2---2---4---4---4---4---2---2-----------------------------------|
G#-0---0-------------------0---0---0---0---4~~~~~~-2~~~~~~-4~~~~~~-|
C#-----------------------------------------------------------------|
Pm .   .                   .   .

Break Off 1

Guitar 1 & 3
D#-----------------------------------------------------------------|
A#-----------------------------------------------------------------|
F#-4~~~~~~---------------------------------------------2---2---2---|
C#-4~~~~~~---------------------------------------------2---2---2---|
G#-2~~~~~~---------------------------------------------0---0---0---|
C#-----------------------------------------------------------------|

Guitar 2
D#-----------------------------------------------------------------|
A#-----------------------------------------5---3~~~~~~-------------|
F#---------------------------------2-------4---2~~~~~~-2---2---2---|
C#---------------------------------2-------------------2---2---2---|
G#-2-------------------------------0-------------------0---0---0---|
C#-----4---2---0---4---4---0---0-------0---------------------------|
Pm     .   .   .   .   .   .   .       .

Bridge 1

Guitar 1 & 3
D#-----------------------------------------------------------------|
A#-----------------------------------------------------------------|
F#-----------------------------------------------------------------|
C#-----------------------------------------------------------------|
G#-2-------------------------------2---------------------------0h--|
C#-----4---2---0---4---4---0---0-------0---2p--0---0---5---0-------|
Pm     .   .   .   .   .   .   .       .           .       .

Guitar 2
D#-----------------------------------------------------------------|
A#-----------------------------------------------------------------|
F#-----------------------------------------------------------------|
C#-----------------------------------------------------------------|
G#-2-------------------------------2---------------------------0h--|
C#-----4---2---0---4---4---0---0-------0---2p--0---0---5---0-------|
Pm     .   .   .   .   .   .   .       .           .       .

Guitar 1 & 3
D#-----------------------------------------------------------------|
A#-----------------------------------------------------------------|
F#-----------------------------------------------------------------|
C#-----------------------------------------------------------------|
G#-2-------------------------------2-------2p--0---------------0h--|
C#-----4---2---0---4---4---0---0-------0-----------0---5---0-------|
Pm     .   .   .   .   .   .   .       .           .       .

Guitar 2
D#-----------------------------------------------------------------|
A#-----------------------------------------------------------------|
F#-----------------------------------------------------------------|
C#-----------------------------------------------------------------|
G#-2-------------------------------2-------2h--4-------5-------4---|
C#-----4---2---0---4---4---0---0-------0-----------0-------0-------|
Pm     .   .   .   .   .   .   .       .           .       .

Verse

Guitar 1 & 3
D#-----------------------------------------------------------------|
A#-----------------------------------------------------------------|
F#-----------------------------------------------------------------|
C#-4---4---4---4---4---4---4---4---4---4---4---4---4---4p--2h--4---|
G#-2---2---2---2---2---2---2---2---2---2---2---2---2---2~~~~~~~~~~-|
C#-----------------------------------------------------------------|
Pm     .   .   .       .   .   .       .   .       .

Guitar 1 & 3
D#-----------------------------------------------------------------|
A#-----------------------------------------------------------------|
F#-----------------------------------------------------------------|
C#-5---5---5---5---5---5---5---5---5---5---5---5---5---5p--4h--5---|
G#-2---2---2---2---2---2---2---2---2---2---2---2---2---2~~~~~~~~~~-|
C#-----------------------------------------------------------------|
Pm     .   .   .       .   .   .       .   .       .

Guitar 1 & 3
D#-----------------------------------------------------------------|
A#-----------------------------------------------------------------|
F#-----------------------------------------------------------------|
C#-5---5---5---5---5---5---5---5---5---5---5---5---5---5p--4h--5---|
G#-2---2---2---2---2---2---2---2---2---2---2---2---2---2~~~~~~~~~~-|
C#-2---2---2---2---2---2---2---2---2---2---2---2---2---2~~~~~~~~~~-|
Pm     .   .   .       .   .   .       .   .       .

Guitar 1
D#-----------------------------------------------------------------|
A#-----------------------------------------------------------------|
F#-----------------------------------------------------------------|
C#-0---0---0---0---0---0---0---0-----------------------------------|
G#-0---0---0---0---0---0---0---0-----------------------2*~~~~~~~~~-|
C#-0---0---0---0---0---0---0---0---0---2---2---2---2---------------|
Guitar 3
D#-----------------------------------------------------------------|
A#-----------------------------------------------------------------|
F#-----------------------------------------------------------------|
C#-0---0---0---0---0---0---0---0-----------------------------------|
G#-0---0---0---0---0---0---0---0-----------------------------------|
C#-0---0---0---0---0---0---0---0---0---2---2---2---2---5*~~~~~~~~~-|

Pm     .   .   .       .   .   .

Guitar 1 & 3
D#-----------------------------------------------------------------|
A#-----------------------------------------------------------------|
F#-----------------------------------------------------------------|
C#-4---4---4---4---4---4---4---4---4---4---4---4---4---4p--2h--4---|
G#-2---2---2---2---2---2---2---2---2---2---2---2---2---2~~~~~~~~~~-|
C#-----------------------------------------------------------------|
Pm     .   .   .       .   .   .       .   .       .

Guitar 2
D#-----------------------------------------------------------------|
A#-----------------------------------------------------------------|
F#-6---4---4---4---6---4---6---4---6---7---7---4---7---4---6---4---|
C#-4---4---4---4---4---4---4---4---4---4---4---4---4---4---4---4---|
G#-----------------------------------------------------------------|
C#-----------------------------------------------------------------|

Guitar 1 & 3
D#-----------------------------------------------------------------|
A#-----------------------------------------------------------------|
F#-----------------------------------------------------------------|
C#-5---5---5---5---5---5---5---5---5---5---5---5---5---5p--4h--5---|
G#-2---2---2---2---2---2---2---2---2---2---2---2---2---2~~~~~~~~~~-|
C#-----------------------------------------------------------------|
Pm     .   .   .       .   .   .       .   .       .

Guitar 2
D#-----------------------------------------------------------------|
A#-----------------------------------------------------------------|
F#-6---4---4---4---6---4---6---4---6---7---7---4---7---4---6---4---|
C#-5---5---5---5---5---5---5---5---5---5---5---5---5---5---5---5---|
G#-----------------------------------------------------------------|
C#-----------------------------------------------------------------|

Guitar 1 & 3
D#-----------------------------------------------------------------|
A#-----------------------------------------------------------------|
F#-----------------------------------------------------------------|
C#-5---5---5---5---5---5---5---5---5---5---5---5---5---5p--4h--5---|
G#-2---2---2---2---2---2---2---2---2---2---2---2---2---2~~~~~~~~~~-|
C#-2---2---2---2---2---2---2---2---2---2---2---2---2---2~~~~~~~~~~-|
Pm     .   .   .       .   .   .       .   .       .

Guitar 2
D#-----------------------------------------------------------------|
A#-----------------------------------------------------------------|
F#-4---2---2---2---4---2---4---2---4---5---5---2---5---2---4---2---|
C#-2---2---2---2---2---2---2---2---2---2---2---2---2---2---2---2---|
G#-----------------------------------------------------------------|
C#-----------------------------------------------------------------|

Guitar 1 & 3
D#-----------------------------------------------------------------|
A#-----------------------------------------------------------------|
F#-----------------------------------------------------------------|
C#-0---0---0---0---0---0---0---0-----------------------------------|
G#-0---0---0---0---0---0---0---0-----------------------------------|
C#-0---0---0---0---0---0---0---0---0---2---2---2---2---0^\~~~~~~~~-|
Pm     .   .   .       .   .   .

Guitar 2
D#-----------------------------------------------------------------|
A#---------------------------------7---8---8---8---8\--7~~~~~~~~~~-|
F#-2---0---0---0---2---0---0---0---6---7---7---7---7\--6~~~~~~~~~~-|
C#-0---0---0---0---0---0---0---0-----------------------------------|
G#-----------------------------------------------------------------|
C#-----------------------------------------------------------------|

Pre Chorus 1

Guitar 1 (Sweeping) (Clean)
D#-----------------------------------------------------------------|
A#-------3~~-------------3~~~~~~~~---------5---------------3-------|
F#-----4------4---------2----------------4---4-----------2---2-----|
C#---4----------4-----0----------------2-------2-------0-------0---|
G#-2--------------2-0----------------------------2---0-----------0-|
C#---------------------------------2~~-------------0---------------|

Guitar 2 (Clean)
D#------------------------------------------------------8~~~-6h7p6-|
A#-7~~~~~~~~~-7~~~-9h10~-8~~-7h-8p-7~~~~~~~~~~~~~~-10~~-8~~~-------|
F#-----------------------------------------------------------------|
C#-----------------------------------------------------------------|
G#-----------------------------------------------------------------|
C#-----------------------------------------------------------------|

Guitar 1
D#--------------------------------------------------|
A#-------3~~-------------5~~------------------------|
F#-----4-----4---------4-----4-----------4---4------|
C#---4---------4-----2---------2-------4-------4----|
G#-2-------------2-2-------------2---2-----------2--|
C#---------------------------------2----------------|

Guitar 2
D#-------------------------------------------------|
A#-------------------------------------------------|
F#-7~~~~~~~~~~~~~-/6~~~~~~~~~~~~~~-4~~~~~~~~~~~~~~-|
C#-------------------------------------------------|
G#-------------------------------------------------|
C#-------------------------------------------------|

Guitar 1 & 3
D#---------------------------------|
A#---------------------------------|
F#-7-6h7p6-------------6---7---9---|
C#---------9---7---9---------------|
G#---------------------------------|
C#---------------------------------|

Guitar 2
D#---------------------------------|
A#-7-5h7p5-------------5---7---8---|
F#---------6---4---7---------------|
C#---------------------------------|
G#---------------------------------|
C#---------------------------------|

Chorus

Guitar 1 & 3
D#-----------------------------------------------------------------|
A#-----------------------------------------------------------------|
F#-4---4---------------------------4---4---------------------------|
C#-4---4---------------------------4---4---------------------------|
G#-2---2---5---5---5---5---2---2---2---2---5---5---5---5---2---2---|
C#-----------------------------------------------------------------|
Pm .   .                           .   .

Guitar 2
D#-----------------------------------------------------------------|
A#-----------------------------------------------------------------|
F#-4---4---------------------------4---4---------------------------|
C#-4---4---------------------------4---4---------------------------|
G#-2---2---5---5---5---5---2---2---2---2---5---5---5---5---2---2---|
C#-----------------------------------------------------------------|
Pm .   .                           .   .

Guitar 1 & 3
D#-----------------------------------------------------------------|
A#-----------------------------------------------------------------|
F#-2---2-----------------------------------------4~~~~~-2h4p2------|
C#-2---2-----------------------------------2---2--------------4~~~-|
G#-0---0---5---5---5---5---2---2---0---0---------------------------|
C#-----------------------------------------------------------------|
Pm .   .

Guitar 2
D#-----------------------------------------------------------------|
A#-----------------------------------------------------------------|
F#-2---2-----------------------------------------4~~~~~-2h4p2------|
C#-2---2---4---4---4---4-------------------2---2--------------4~~~-|
G#-0---0-------------------2---2---0---0---------------------------|
C#-----------------------------------------------------------------|
Pm .   .

Guitar 1 & 3
D#-----------------------------------------------------------------|
A#-----------------------------------------------------------------|
F#-4---4---------------------------4---4---------------------------|
C#-4---4---------------------------4---4---------------------------|
G#-2---2---5---5---5---5---2---2---2---2---5---5---5---5---2---2---|
C#-----------------------------------------------------------------|
Pm .   .                           .   .

Guitar 2
D#-----------------------------------------------------------------|
A#-----------------------------------------------------------------|
F#-4---4---------------------------4---4---------------------------|
C#-4---4---------------------------4---4---------------------------|
G#-2---2---5---5---5---5---2---2---2---2---5---5---5---5---2---2---|
C#-----------------------------------------------------------------|
Pm .   .                           .   .

Guitar 1 & 3
D#-----------------------------------------------------------------|
A#-----------------------------------------------------------------|
F#-2---2-----------------------------------------------------------|
C#-2---2-----------------------------------------------------------|
G#-0---0---5---5---5---5---2---2---0---0---4---4---2---2---4---4---|
C#-----------------------------------------------------------------|
Pm .   .

Guitar 2
D#-----------------------------------------------------------------|
A#-----------------------------------------------------------------|
F#-2---2-----------------------------------------------------------|
C#-2---2---4---4---4---4-------------------------------------------|
G#-0---0-------------------2---2---0---0---4---4---2---2---4---4---|
C#-----------------------------------------------------------------|
Pm .   .

Guitar 1 & 3
D#-----------------------------------------------------------------|
A#-----------------------------------------------------------------|
F#-4---4---------------------------4---4---------------------------|
C#-4---4---------------------------4---4---------------------------|
G#-2---2---2---2---2---2---5---5---2---2---2---2---2---2---5---5---|
C#-----------------------------------------------------------------|
Pm .   .                           .   .

Guitar 2
D#-----------------------------------------------------------------|
A#-----------------------------------------------------------------|
F#-4---4---------------------------4---4---------------------------|
C#-4---4---------------------------4---4---------------------------|
G#-2---2---2---2---2---2---5---5---2---2---2---2---2---2---5---5---|
C#-----------------------------------------------------------------|
Pm .   .                           .   .

Guitar 1 & 3
D#-----------------------------------------------------------------|
A#-----------------------------------------------------------------|
F#-2---2-------------------2---2-----------------4~~~~~-2h4p2------|
C#-2---2-------------------2---2-----------2---2--------------4~~~-|
G#-0---0---5---5---5---5---0---0---0---0---------------------------|
C#-----------------------------------------------------------------|
Pm .   .                   .   .

Guitar 2
D#-----------------------------------------------------------------|
A#-----------------------------------------------------------------|
F#-2---2-------------------2---2-----------------4~~~~~-2h4p2------|
C#-2---2---4---4---4---4---2---2-----------2---2--------------4~~~-|
G#-0---0-------------------0---0---0---0---------------------------|
C#-----------------------------------------------------------------|
Pm .   .                   .   .

Guitar 1 & 3
D#-----------------------------------------------------------------|
A#-----------------------------------------------------------------|
F#-4---4---------------------------4---4---------------------------|
C#-4---4---------------------------4---4---------------------------|
G#-2---2---2---2---2---2---5---5---2---2---2---2---2---2---5---5---|
C#-----------------------------------------------------------------|
Pm .   .                           .   .

Guitar 2
D#-----------------------------------------------------------------|
A#-----------------------------------------------------------------|
F#-4---4---------------------------4---4---------------------------|
C#-4---4---------------------------4---4---------------------------|
G#-2---2---2---2---2---2---5---5---2---2---2---2---2---2---5---5---|
C#-----------------------------------------------------------------|
Pm .   .                           .   .

Guitar 1 & 3
D#-----------------------------------------------------------------|
A#-----------------------------------------------------------------|
F#-2---2-------------------2---2-----------------------------------|
C#-2---2-------------------2---2-----------------------------------|
G#-0---0---5---5---5---5---0---0---0---0---4~~~~~~-2~~~~~~-4~~~~~~-|
C#-----------------------------------------------------------------|
Pm .   .                   .   .

Guitar 2
D#-----------------------------------------------------------------|
A#-----------------------------------------------------------------|
F#-2---2-------------------2---2-----------------------------------|
C#-2---2---4---4---4---4---2---2-----------------------------------|
G#-0---0-------------------0---0---0---0---4~~~~~~-2~~~~~~-4~~~~~~-|
C#-----------------------------------------------------------------|
Pm .   .                   .   .

Interlude 1

Guitar 1 & 3
D#-----------------------------------------------------------------|
A#-----------------------------------------------------------------|
F#-7---7---7---7---7---7---7---7---7---7---7---7---7---7---7---7---|
C#-7---7---7---7---7---7---7---7---7---7---7---7---7---7---7---7---|
G#-5---5---5---5---5---5---5---5---5---5---5---5---5---5---5---5---|
C#-----------------------------------------------------------------|
Pm                 .   .                   .   .           .   .

Guitar 2
D#-----------------------------------------------------------------|
A#-----------------------------------------------------------------|
F#-7---7---7---7---7---7---7---7---7---7---7---7---7---7---7---7---|
C#-x---x---x---x---x---x---x---x---x---x---x---x---x---x---x---x---|
G#-5---5---5---5---5---5---5---5---5---5---5---5---5---5---5---5---|
C#-----------------------------------------------------------------|
Pm                 .   .                   .   .           .   .

Guitar 1 & 3
D#-----------------------------------------------------------------|
A#-----------------------------------------------------------------|
F#-11--11--11--11--11--11--11--11--11--11--11--11--11--11--11--11--|
C#-11--11--11--11--11--11--11--11--11--11--11--11--11--11--11--11--|
G#-9---9---9---9---9---9---9---9---9---9---9---9---9---9---9---9---|
C#-----------------------------------------------------------------|
Pm                 .   .                   .   .           .   .

Guitar 2
D#-----------------------------------------------------------------|
A#-----------------------------------------------------------------|
F#-11--11--11--11--11--11--9---9---9---9---9---9-------------------|
C#-x---x---x---x---x---x---x---x---x---x---x---x---12--12--12--12--|
G#-9---9---9---9---9---9---9---9---9---9---9---9---9---9---9---9---|
C#-----------------------------------------------------------------|
Pm                 .   .                   .   .           .   .

Guitar 1 & 3
D#-----------------------------------------------------------------|
A#-----------------------------------------------------------------|
F#-4---4---4---4---4---4---4---4---4---4---4---4---4---4---4---4---|
C#-4---4---4---4---4---4---4---4---4---4---4---4---4---4---4---4---|
G#-2---2---2---2---2---2---2---2---2---2---2---2---2---2---2---2---|
C#-----------------------------------------------------------------|
Pm                 .   .                   .   .           .   .

Guitar 2
D#-----------------------------------------------------------------|
A#-3---3---3---3---3---3---3---3---3---3---3---3---3---3---3---3---|
F#-0---0---0---0---0---0---0---0---0---0---0---0---0---0---0---0---|
C#-x---x---x---x---x---x---x---x---x---x---x---x---x---x---x---x---|
G#-2---2---2---2---2---2---2---2---2---2---2---2---2---2---2---2---|
C#-----------------------------------------------------------------|
Pm                 .   .                   .   .           .   .

Guitar 1 & 3
D#-----------------------------------------------------------------|
A#-------------------------2h3p2p0---------------------------------|
F#-2---2---2---2---2---2-------------------------------------------|
C#-2---2---2---2---2---2--------------4---2---2---2h4p2------------|
G#-0---0---0---0---0---0-----------------------------------4---5---|
C#-----------------------------------------------------------------|
Pm                 .   .                  .   .

Guitar 1
D#-----------------------------------------------------------------|
A#-2---2---2---2---2---2---2h3p2p0---------------------------------|
F#-2---2---2---2---2---2-------------------------------------------|
C#-x---x---x---x---x---x--------------4---2---2---2h4p2------------|
G#-0---0---0---0---0---0-----------------------------------4---5---|
C#-----------------------------------------------------------------|
Pm                 .   .                  .   .

Guitar 1 & 3
D#-----------------------------------------------------------------|
A#-----------------------------------------------------------------|
F#-7---7---7---7---7---7---7---7---7---7---7---7---7---7---7---7---|
C#-7---7---7---7---7---7---7---7---7---7---7---7---7---7---7---7---|
G#-5---5---5---5---5---5---5---5---5---5---5---5---5---5---5---5---|
C#-----------------------------------------------------------------|
Pm                 .   .                   .   .           .   .

Guitar 2
D#-----------------------------------------------------------------|
A#-----------------------------------------------------------------|
F#-7---7---7---7---7---7---7---7---7---7---7---7---6---6---6---6---|
C#-x---x---x---x---x---x---x---x---x---x---x---x---x---x---x---x---|
G#-5---5---5---5---5---5---5---5---5---5---5---5---5---5---5---5---|
C#-----------------------------------------------------------------|
Pm                 .   .                   .   .           .   .

Guitar 1 & 3
D#-----------------------------------------------------------------|
A#-----------------------------------------------------------------|
F#-11--11--11--11--11--11--11--11--11--11--11--11--11--11--11--11--|
C#-11--11--11--11--11--11--11--11--11--11--11--11--11--11--11--11--|
G#-9---9---9---9---9---9---9---9---9---9---9---9---9---9---9---9---|
C#-----------------------------------------------------------------|
Pm                 .   .                   .   .           .   .

Guitar 2
D#-----------------------------------------------------------------|
A#-----------------------------------------------------------------|
F#-11--11--11--11--11--11--9---9---9---9---9---9-------------------|
C#-x---x---x---x---x---x---x---x---x---x---x---x---12--12--12--12--|
G#-9---9---9---9---9---9---9---9---9---9---9---9---9---9---9---9---|
C#-----------------------------------------------------------------|
Pm                 .   .                   .   .           .   .

Guitar 1 & 3
D#-----------------------------------------------------------------|
A#-----------------------------------------------------------------|
F#-4---4---4---4---4---4---4---4---4---4---4---4---4---4---4---4---|
C#-4---4---4---4---4---4---4---4---4---4---4---4---4---4---4---4---|
G#-2---2---2---2---2---2---2---2---2---2---2---2---2---2---2---2---|
C#-----------------------------------------------------------------|
Pm                 .   .                   .   .           .   .

Guitar 2
D#-----------------------------------------------------------------|
A#-3---3---3---3---3---3---3---3---3---3---3---3---3---3---3---3---|
F#-0---0---0---0---0---0---0---0---0---0---0---0---0---0---0---0---|
C#-x---x---x---x---x---x---x---x---x---x---x---x---x---x---x---x---|
G#-2---2---2---2---2---2---2---2---2---2---2---2---2---2---2---2---|
C#-----------------------------------------------------------------|
Pm                 .   .                   .   .           .   .

Guitar 1 & 3
D#-----------------------------------------------------------------|
A#-------------------------2h3p2p0---------------------------------|
F#-2---2---2---2---2---2-------------------------------------------|
C#-2---2---2---2---2---2--------------4---2---2---2h4p2------------|
G#-0---0---0---0---0---0-----------------------------------4---5---|
C#-----------------------------------------------------------------|
Pm                 .   .                  .   .

Guitar 1
D#-----------------------------------------------------------------|
A#-2---2---2---2---2---2---2h3p2p0---------------------------------|
F#-2---2---2---2---2---2-------------------------------------------|
C#-x---x---x---x---x---x--------------4---2---2---2h4p2------------|
G#-0---0---0---0---0---0-----------------------------------4---5---|
C#-----------------------------------------------------------------|
Pm                 .   .                  .   .

Interlude 2

Guitar 1
D#-----------------------------------------------|
A#-----------------------------------------------|
F#-----------------------------------------------|
C#-----------------------------------------------|
G#-2~~~~~~~-2~~~~~~~-2~~~-2~~~~~~~-2~~~~~~~-2~~~-|
C#-----------------------------------------------|

Guitar 2
D#-----------------------------------------------|
A#-----------------------------------------------|
F#-4~~~~~~~~~~~~~~~~~~~~~~~~~~~~~~~~~~~~~~~~~~~~-
C#-----------------------------------------------|
G#-----------------------------------------------|
C#-----------------------------------------------|

Guitar 3
D#-----------------------------------------------|
A#-----------------------------------------------|
F#-----------------------------------------------|
C#-5~~~~~~~-5~~~~~~~~~~~~-7~~~~~~~-5~~~~~~~~~~~~-|
G#-5~~~~~~~~~~~~~~~~-5~~~~~~~~~~~~~~~~~~~~~-5~~~-|
C#-5~~~~~~~~~~~~~~~~~~~~~~~~~~~~~~~~~~~~~~~~~~~~-

Guitar 1
D#-----------------------------------------------|
A#-----------------------------------------------|
F#-----------------------------------------------|
C#-----------------------------------------------|
G#-0~~~~~~~-0~~~~~~~-0~~~------------------------|
C#------------------------5~~~~~~~-5~~~~~~~-5~~~-|

Guitar 2
D#-----------------------------------------------|
A#-----------------------------------------------|
F#-2~~~~~~~~~~~~~~~~~~~~~-0~~~~~~~~~~~~~~~~~~~~~-
C#-----------------------------------------------|
G#-----------------------------------------------|
C#-----------------------------------------------|

Guitar 3
D#-----------------------------------------------|
A#------------------------5~~~~~~~~~~~~~~~~~~~~~-|
F#----------4~~~~~~~~~~~~-4~~~~~~~-4~~~~~~~~~~~~-|
C#-2~~~~~~~-2~~~~~~~~~~~~~~~~~~~~~-2~~~~~~~~~~~~-|
G#-2~~~~~~~~~~~~~~~~-2~~~~~~~~~~~~~~~~~~~~~-2~~~-|
C#-2~~~~~~~~~~~~~~~~-2~~~~~~~~~~~~~~~~~~~~~-2~~~-|

Guitar 1
D#-----------------------------------------------|
A#-----------------------------------------------|
F#-7~~~~~~~~~~~~~~~~-9~~~-11~~~~~-11br~~~~~-7~~~-|
C#-x-----------------x----x-------x---------x----|
G#-5~~~~~~~~~~~~~~~~-7~~~-9~~~~~~-9-br~~~~~-5~~~-|
C#-----------------------------------------------|

Guitar 2
D#-----------------------------------------------|
A#-----------------------------------------------|
F#-----------------------------------------------|
C#-4~~~~~~~~~~~~~~~~~~~~~~~~~~~~~~~~~~~~~~~~~~~~-
G#-----------------------------------------------|
C#-----------------------------------------------|

Guitar 3
D#-----------------------------------------------|
A#-----------------------------------------------|
F#-----------------------------------------------|
C#-0~~~~~~~-0~~~~~~~-0~~~-0~~~~~~~-0~~~~~~~-0~~~-|
G#-0~~~~~~~-0~~~~~~~-0~~~-0~~~~~~~-0~~~~~~~-0~~~-|
C#-0~~~~~~~-0~~~~~~~-0~~~-0~~~~~~~-0~~~~~~~-0~~~-|

Guitar 1
D#-----------------------------------------------|
A#-----------------------------------------------|
F#-9~~~~~~~~~~~~~~~~-7~~~-6~~~~~~~~~~-6~~~~~~~~~-|
C#-x-----------------x----x-----------x----------|
G#-7~~~~~~~~~~~~~~~~-5~~~-4~~~~~~~~~~-4~~~~~~~~~-|
C#-----------------------------------------------|

Guitar 2
D#-----------------------------------------------|
A#-----------------------------------------------|
F#-----------------------------------------------|
C#-2~~~~~~~~~~~~~~~~-0~~~------------------------|
G#------------------------4~~~~~~~~~~-0~~~~~~~~~-|
C#-----------------------------------------------|

Guitar 3
D#-----------------------------------------------|
A#-----------------------------------------------|
F#-----------------------------------------------|
C#-7~~~~~~~-7~~~~~~~-7~~~-7~~~~~~~-7~~~~~~~-7~~~-|
G#-7~~~~~~~-7~~~~~~~-7~~~-7~~~~~~~-7~~~~~~~-7~~~-|
C#-7~~~~~~~-7~~~~~~~-7~~~-7~~~~~~~-7~~~~~~~-7~~~-|

Guitar 1
D#-----------------------------------------------|
A#-----------------------------------------------|
F#-----------------------------------------------|
C#-----------------------------------------------|
G#-2~~~~~~~-2~~~~~~~-2~~~-2~~~~~~~-2~~~~~~~-2~~~-|
C#-----------------------------------------------|

Guitar 2
D#-----------------------------------------------|
A#-----------------------------------------------|
F#-4~~~~~~~~~~~~~~~~~~~~~~~~~~~~~~~~~~~~~~~~~~~~-
C#-----------------------------------------------|
G#-----------------------------------------------|
C#-----------------------------------------------|

Guitar 3
D#-----------------------------------------------|
A#-----------------------------------------------|
F#-----------------------------------------------|
C#-5~~~~~~~-5~~~~~~~~~~~~-7~~~~~~~-5~~~~~~~~~~~~-|
G#-5~~~~~~~~~~~~~~~~-5~~~~~~~~~~~~~~~~~~~~~-5~~~-|
C#-5~~~~~~~~~~~~~~~~~~~~~~~~~~~~~~~~~~~~~~~~~~~~-

Guitar 1
D#-----------------------------------------------|
A#-----------------------------------------------|
F#-----------------------------------------------|
C#-----------------------------------------------|
G#-0~~~~~~~-0~~~~~~~-0~~~------------------------|
C#------------------------5~~~~~~~-5~~~~~~~-5~~~-|

Guitar 2
D#-----------------------------------------------|
A#-----------------------------------------------|
F#-2~~~~~~~~~~~~~~~~~~~~~-0~~~~~~~~~~~~~~~~~~~~~-
C#-----------------------------------------------|
G#-----------------------------------------------|
C#-----------------------------------------------|

Guitar 3
D#-----------------------------------------------|
A#------------------------5~~~~~~~~~~~~~~~~~~~~~-|
F#----------4~~~~~~~~~~~~-4~~~~~~~-4~~~~~~~~~~~~-|
C#-2~~~~~~~-2~~~~~~~~~~~~~~~~~~~~~-2~~~~~~~~~~~~-|
G#-2~~~~~~~~~~~~~~~~-2~~~~~~~~~~~~~~~~~~~~~-2~~~-|
C#-2~~~~~~~~~~~~~~~~-2~~~~~~~~~~~~~~~~~~~~~-2~~~-|

Guitar 1
D#-----------------------------------------------|
A#-----------------------------------------------|
F#-7~~~~~~~~~~~~~~~~-9~~~-11~~~~~-11br~~~~~-7~~~-|
C#-x-----------------x----x-------x---------x----|
G#-5~~~~~~~~~~~~~~~~-7~~~-9~~~~~~-9-br~~~~~-5~~~-|
C#-----------------------------------------------|

Guitar 2
D#-----------------------------------------------|
A#-----------------------------------------------|
F#-7~~~~~~~~~~~~~~~~------7~~~~/9~~~~-11~~~-7~~~-|
C#-------------------7---------------------------|
G#-----------------------------------------------|
C#-----------------------------------------------|
Pm                   .

Guitar 3
D#-----------------------------------------------|
A#-----------------------------------------------|
F#-----------------------------------------------|
C#-0~~~~~~~-0~~~~~~~-0~~~-0~~~~~~~-0~~~~~~~-0~~~-|
G#-0~~~~~~~-0~~~~~~~-0~~~-0~~~~~~~-0~~~~~~~-0~~~-|
C#-0~~~~~~~-0~~~~~~~-0~~~-0~~~~~~~-0~~~~~~~-0~~~-|

Guitar 1
D#-----------------------------------------------|
A#-----------------------------------------------|
F#-9~~~~~~~~~~~~~~~~-7~~~-6~~~~~~~~~~-6~~~~~~~~~-|
C#-x-----------------x----x-----------x----------|
G#-7~~~~~~~~~~~~~~~~-5~~~-4~~~~~~~~~~-4~~~~~~~~~-|
C#-----------------------------------------------|

Guitar 2
D#-----------------------------------------------|
A#-----------------------------------------------|
F#-9~~~~~~~~~~~~~~~~-7~~~-6~~~~~~~~~~-2~~~~~~~~~-|
C#-----------------------------------------------|
G#-----------------------------------------------|
C#-----------------------------------------------|

Guitar 3
D#-----------------------------------------------|
A#-----------------------------------------------|
F#-----------------------------------------------|
C#-7~~~~~~~-7~~~~~~~-7~~~-7~~~~~~~-7~~~~~~~-7~~~-|
G#-7~~~~~~~-7~~~~~~~-7~~~-7~~~~~~~-7~~~~~~~-7~~~-|
C#-7~~~~~~~-7~~~~~~~-7~~~-7~~~~~~~-7~~~~~~~-7~~~-|

Bridge

Guitar 1
D#-----------------------------------------------------------------|
A#-----------------------------------------------------------------|
F#-----------------------------------------------------------------|
C#---------7~~~~~~-5~~~~~~~~~~~~~~-7~~~~~~-5~~~~~~~~~~~~~~-7~~~~~~-|
G#-------------------------5~~~~~~~~~~~~~~~~~~~~~~-5~~~~~~~~~~~~~~-|
C#-5~~~~~~~~~~~~~~~~~~~~~~~~~~~~~~~~~~~~~~~~~~~~~~~~~~~~~~~~~~~~~~-

Guitar 2
D#-----------------------------------------------------------------|
A#-----------------------------------------------------------------|
F#-4~~~~~~~~~~~~~~~~~~~~~~~~~~~~~~~~~~~~~~~~~~~~~~~~~~~~~~~~~~~~~~-
C#-----------------------------------------------------------------|
G#-----------------------------------------------------------------|
C#-----------------------------------------------------------------|

Guitar 3
D#-----------------------------------------------------------------|
A#-----------------------------------------------------------------|
F#-----------------------------------------------------------------|
C#-5~~~~~~~~~~~~~~~~~~~~~~~~~~~~~~~~~~~~~~~~~~~~~~~~~~~~~~~~~~~~~~-
G#-5~~~~~~~~~~~~~~~~~~~~~~~~~~~~~~~~~~~~~~~~~~~~~~~~~~~~~~~~~~~~~~-
C#-5~~~~~~~~~~~~~~~~~~~~~~~~~~~~~~~~~~~~~~~~~~~~~~~~~~~~~~~~~~~~~~-

Guitar 1
D#-----------------------------------------------------------------|
A#-----------------------------------------------------------------|
F#-----------------------------------------------------------------|
C#---------7~~~~~~-5~~~~~~~~~~~~~~-7~~~~~~-5~~~~~~~~~~~~~~-7~~~~~~-|
G#-------------------------5~~~~~~~~~~~~~~~~~~~~~~-5~~~~~~~~~~~~~~-|
C#-5~~~~~~~~~~~~~~~~~~~~~~~~~~~~~~~~~~~~~~~~~~~~~~~~~~~~~~~~~~~~~~-

Guitar 1
D#-----------------------------------------------------------------|
A#-----------------------------------------------------------------|
F#-----------------------------------------------------------------|
C#---------7~~~~~~-5~~~~~~~~~~~~~~-7~~~~~~-5~~~~~~~~~~~~~~-7~~~~~~-|
G#-------------------------5~~~~~~~~~~~~~~~~~~~~~~-5~~~~~~~~~~~~~~-|
C#-5~~~~~~~~~~~~~~~~~~~~~~~~~~~~~~~~~~~~~~~~~~~~~~~~~~~~~~~~~~~~~~-

Guitar 1
D#-----------------------------------------------------------------|
A#-----------------------------------------------------------------|
F#-----------------------------------------------------------------|
C#-----------------7~~~~~~~~~~~~~~-9~~~~~~~~~~~~~~-7~~~~~~~~~~~~~~-|
G#---------7~~~~~~~~~~~~~~-7~~~~~~~~~~~~~~-7~~~~~~~~~~~~~~-7~~~~~~-|
C#-7~~~~~~~~~~~~~~~~~~~~~~~~~~~~~~~~~~~~~~~~~~~~~~~~~~~~~~~~~~~~~~-

Guitar 1
D#-----------------------------------------------------------------|
A#-----------------------------------------------------------------|
F#-4~~~~~~~~~~~~~~~~~~~~~~~~~~~~~~~~~~~~~~~~~~~~~~~~~~~~~~~~~~~~~~-
C#-----------------------------------------------------------------|
G#-----------------------------------------------------------------|
C#-----------------------------------------------------------------|

Guitar 2
D#-----------------------------------------------------------------|
A#-----------------------------------------------------------------|
F#-7~~~~~~~~~~~~~~~~~~~~~~~~~~~~~~~~~~~~~~~~~~~~~~~~~~~~~~~~~~~~~~-
C#-----------------------------------------------------------------|
G#-----------------------------------------------------------------|
C#-----------------------------------------------------------------|

Guitar 3
D#-----------------------------------------------------------------|
A#-----------------------------------------------------------------|
F#-----------------------------------------------------------------|
C#-9---7---7---9-------------------9---7---7---9-----------9---7---|
G#-9---7---7---9-------------------9---7---7---9-----------9---7---|
C#-9---7---7---9-------------------9---7---7---9-----------9---7---|
Pm     .   .                           .   .                   .

Guitar 1
D#---------------------------------|
A#---------------------------------|
F#-7-6h7p6-------------6---7---9---|
C#---------9---7---9---------------|
G#---------------------------------|
C#---------------------------------|

Guitar 2
D#---------------------------------|
A#-7-5h7p5-------------5---7---8---|
F#---------6---4---7---------------|
C#---------------------------------|
G#---------------------------------|
C#---------------------------------|

Guitar 3
D#---------------------------------|
A#---------------------------------|
F#---------------------------------|
C#-9-------------------------------|
G#-9-------------------------------|
C#-9-------------------------------|

Chorus

Guitar 1 & 3
D#-----------------------------------------------------------------|
A#-----------------------------------------------------------------|
F#-4---4---------------------------4---4---------------------------|
C#-4---4---------------------------4---4---------------------------|
G#-2---2---5---5---5---5---2---2---2---2---5---5---5---5---2---2---|
C#-----------------------------------------------------------------|
Pm .   .                           .   .

Guitar 2
D#-----------------------------------------------------------------|
A#-----------------------------------------------------------------|
F#-4---4---------------------------4---4---------------------------|
C#-4---4---------------------------4---4---------------------------|
G#-2---2---5---5---5---5---2---2---2---2---5---5---5---5---2---2---|
C#-----------------------------------------------------------------|
Pm .   .                           .   .

Guitar 1 & 3
D#-----------------------------------------------------------------|
A#-----------------------------------------------------------------|
F#-2---2-----------------------------------------4~~~~~-2h4p2------|
C#-2---2-----------------------------------2---2--------------4~~~-|
G#-0---0---5---5---5---5---2---2---0---0---------------------------|
C#-----------------------------------------------------------------|
Pm .   .

Guitar 2
D#-----------------------------------------------------------------|
A#-----------------------------------------------------------------|
F#-2---2-----------------------------------------4~~~~~-2h4p2------|
C#-2---2---4---4---4---4-------------------2---2--------------4~~~-|
G#-0---0-------------------2---2---0---0---------------------------|
C#-----------------------------------------------------------------|
Pm .   .

Guitar 1 & 3
D#-----------------------------------------------------------------|
A#-----------------------------------------------------------------|
F#-4---4---------------------------4---4---------------------------|
C#-4---4---------------------------4---4---------------------------|
G#-2---2---5---5---5---5---2---2---2---2---5---5---5---5---2---2---|
C#-----------------------------------------------------------------|
Pm .   .                           .   .

Guitar 2
D#-----------------------------------------------------------------|
A#-----------------------------------------------------------------|
F#-4---4---------------------------4---4---------------------------|
C#-4---4---------------------------4---4---------------------------|
G#-2---2---5---5---5---5---2---2---2---2---5---5---5---5---2---2---|
C#-----------------------------------------------------------------|
Pm .   .                           .   .

Guitar 1 & 3
D#-----------------------------------------------------------------|
A#-----------------------------------------------------------------|
F#-2---2-----------------------------------------------------------|
C#-2---2-----------------------------------------------------------|
G#-0---0---5---5---5---5---2---2---0---0---4---4---2---2---4---4---|
C#-----------------------------------------------------------------|
Pm .   .

Guitar 2
D#-----------------------------------------------------------------|
A#-----------------------------------------------------------------|
F#-2---2-----------------------------------------------------------|
C#-2---2---4---4---4---4-------------------------------------------|
G#-0---0-------------------2---2---0---0---4---4---2---2---4---4---|
C#-----------------------------------------------------------------|
Pm .   .

Guitar 1 & 3
D#-----------------------------------------------------------------|
A#-----------------------------------------------------------------|
F#-4---4---------------------------4---4---------------------------|
C#-4---4---------------------------4---4---------------------------|
G#-2---2---2---2---2---2---5---5---2---2---2---2---2---2---5---5---|
C#-----------------------------------------------------------------|
Pm .   .                           .   .

Guitar 2
D#-----------------------------------------------------------------|
A#-----------------------------------------------------------------|
F#-4---4---------------------------4---4---------------------------|
C#-4---4---------------------------4---4---------------------------|
G#-2---2---2---2---2---2---5---5---2---2---2---2---2---2---5---5---|
C#-----------------------------------------------------------------|
Pm .   .                           .   .

Guitar 1 & 3
D#-----------------------------------------------------------------|
A#-----------------------------------------------------------------|
F#-2---2-------------------2---2-----------------4~~~~~-2h4p2------|
C#-2---2-------------------2---2-----------2---2--------------4~~~-|
G#-0---0---5---5---5---5---0---0---0---0---------------------------|
C#-----------------------------------------------------------------|
Pm .   .                   .   .

Guitar 2
D#-----------------------------------------------------------------|
A#-----------------------------------------------------------------|
F#-2---2-------------------2---2-----------------4~~~~~-2h4p2------|
C#-2---2---4---4---4---4---2---2-----------2---2--------------4~~~-|
G#-0---0-------------------0---0---0---0---------------------------|
C#-----------------------------------------------------------------|
Pm .   .                   .   .

Guitar 1 & 3
D#-----------------------------------------------------------------|
A#-----------------------------------------------------------------|
F#-4---4---------------------------4---4---------------------------|
C#-4---4---------------------------4---4---------------------------|
G#-2---2---2---2---2---2---5---5---2---2---2---2---2---2---5---5---|
C#-----------------------------------------------------------------|
Pm .   .                           .   .

Guitar 2
D#-----------------------------------------------------------------|
A#-----------------------------------------------------------------|
F#-4---4---------------------------4---4---------------------------|
C#-4---4---------------------------4---4---------------------------|
G#-2---2---2---2---2---2---5---5---2---2---2---2---2---2---5---5---|
C#-----------------------------------------------------------------|
Pm .   .                           .   .

Guitar 1 & 3
D#-----------------------------------------------------------------|
A#-----------------------------------------------------------------|
F#-2---2-------------------2---2-----------------------------------|
C#-2---2-------------------2---2-----------------------------------|
G#-0---0---5---5---5---5---0---0---0---0---4~~~~~~-2~~~~~~-4~~~~~~-|
C#-----------------------------------------------------------------|
Pm .   .                   .   .

Guitar 2
D#-----------------------------------------------------------------|
A#-----------------------------------------------------------------|
F#-2---2-------------------2---2-----------------------------------|
C#-2---2---4---4---4---4---2---2-----------------------------------|
G#-0---0-------------------0---0---0---0---4~~~~~~-2~~~~~~-4~~~~~~-|
C#-----------------------------------------------------------------|
Pm .   .                   .   .

Outro

Guitar 1 & 3
D#-----------------------------------------------------------------|
A#-----------------------------------------------------------------|
F#-----------------------------------------------------------------|
C#-----------------------------------------------------------------|
G#-2-------------------------------2---------------------------0h--|
C#-----4---2---0---4---4---0---0-------0---2p--0---0---5---0-------|
Pm     .   .   .   .   .   .   .       .           .       .

Guitar 2
D#-----------------------------------------------------------------|
A#-----------------------------------------------------------------|
F#-----------------------------------------------------------------|
C#-----------------------------------------------------------------|
G#-2-------------------------------2---------------------------0h--|
C#-----4---2---0---4---4---0---0-------0---2p--0---0---5---0-------|
Pm     .   .   .   .   .   .   .       .           .       .

Guitar 1 & 3
D#-----------------------------------------------------------------|
A#-----------------------------------------------------------------|
F#-----------------------------------------------------------------|
C#-----------------------------------------------------------------|
G#-2-------------------------------2-------2p--0---------------0h--|
C#-----4---2---0---4---4---0---0-------0-----------0---5---0-------|
Pm     .   .   .   .   .   .   .       .           .       .

Guitar 2
D#-----------------------------------------------------------------|
A#-----------------------------------------------------------------|
F#-----------------------------------------------------------------|
C#-----------------------------------------------------------------|
G#-2-------------------------------2-------2h--4-------5-------4---|
C#-----4---2---0---4---4---0---0-------0-----------0-------0-------|
Pm     .   .   .   .   .   .   .       .           .       .

Guitar 1 & 3
D#-----------------------------------------------------------------|
A#-----------------------------------------------------------------|
F#-----------------------------------------------------------------|
C#-----------------------------------------------------------------|
G#-2-------------------------------2---------------------------0h--|
C#-----4---2---0---4---4---0---0-------0---2p--0---0---5---0-------|
Pm     .   .   .   .   .   .   .       .           .       .

Guitar 2
D#-----------------------------------------------------------------|
A#-----------------------------------------------------------------|
F#-----------------------------------------------------------------|
C#-----------------------------------------------------------------|
G#-2-------------------------------2---------------------------0h--|
C#-----4---2---0---4---4---0---0-------0---2p--0---0---5---0-------|
Pm     .   .   .   .   .   .   .       .           .       .

Guitar 1 & 3
D#-----------------------------------------------------------------|
A#-----------------------------------------------------------------|
F#-----------------------------------------------------------------|
C#-----------------------------------------------------------------|
G#-2---------------------------0h--2~~~~~~~~~~~~\------------------|
C#-----4---2---0---4---5---4---------------------------------------|
Pm     .   .   .   .       .

Guitar 2
D#-----------------------------------------------------------------|
A#-----------------------------------------------------------------|
F#-----------------------------------------------------------------|
C#-----------------------------------------------------------------|
G#-2-------------------2-------4h--5~~~~~~~~~~~~\------------------|
C#-----4---2---0---4-------4---------------------------------------|
Pm     .   .   .   .       .

Tab Legend
h  -  hammer-on
p  -  pull-off
/  -  slide up
\  -  slide down
ps/-  pickslide up
ps\-  pickslide down
~  -  let ring
pm.-  palm mute
b  -  bend
r  -  return from bend
*  -  harmonic
x  -  dead note
^  -  Whammy bar
^\ -  Whammy bar (hold down)

Wow. What a hard tab... I hope it was worth it to you guys! Tell me how I did, even if
is negative, (but don’t be threatening me or stuff like that if you do). Also, I never
the Instrumental version so if things seem like you would have to be retarded not to get 
the Instrumental version, then I apologize. Thanks, oh and one last thing... ROCK OUT!!!!
comments
We did not receive enough feedback on this tab! Please rate:
print report bad tab
1 2 3 4 5
2 comments total.
0 reply
Snowman388 wrote on October 11 2010, 09:32 am

Great tab man!

0 reply
Microcutted wrote on December 25 2010, 02:36 pm

Shouldn't it be A#-tuning?

I want to post or [tab]
guest
You may want to rate the tab now too:
select rating
Please do not post tabs as comments. Select "correction" instead!