Oops, an error
Loading. Please wait.

Deliver Us Tab

ver1
ver1

Whole song

More versions @911Tabs.com
25,710 views 75 this week
no commentswrite comment
1 2 3 4 5
excellent!
x 3
Autoscroll
+/-
esc
set tempo
stop
Contributor
Difficulty
Tuning
advanced
A# F A# D# G C
Hey! There's an official Ultimate Guitar app which is ideal
for learning songs when you're away from computer. Get the app
WARNING: You are trying to view
                                    content from Ultimate-Guitar.com
                                    in an unauthorized application,
                                    which is prohibited.

                                    Please use an official Ultimate
                                    Guitar Tabs application for iPhone,
                                    iPad or Android to access legitimate
                                    chords, guitar, bass, and drum tabs
                                    from Ultimate-Guitar.com database.

                                    Type "ultimate guitar tabs" in Apple
                                    App Store's or Android Market's
                                    search to find the application.
1. Guitar                                                                                      2X
C ||-------------------------------------------|-----------------------------------------------||
G ||-------------------------------------------|-----------------------------------------------||
D#||*------------------------------------------|----------------------15-14-12----12----------*||
A#||*--0-0-15-0-15-12-0-12-0-0-15-0-15-12-0-11-|--0-0-14-0-14-11-0-11----------15----15-14-12-*||
F ||-------------------------------------------|-----------------------------------------------||
A#||-------------------------------------------|-----------------------------------------------||

1. Guitar                                                         2X
C ||------------------------------|-------------------------------||
G ||------------------------------|-------------------------------||
D#||------------------------------|------------------------------*||
A#||------------------------------|--------------------3------2--*||
F ||------------------------------|--4-4-4--4-4-4--1-1-1--0-0-0---||
A#||--0-0-0--0-0-0--0-0-0--0-0-0--|-------------------------------||

2. Guitar                                                                                      2X
C ||-------------------------------------------|-----------------------------------------------||
G ||-------------------------------------------|-----------------------------------------------||
D#||*------------------------------------------|----------------------19-17-15----15----------*||
A#||*--0-0-19-0-19-15-0-15-0-0-19-0-19-15-0-14-|--0-0-17-0-17-14-0-14----------19----19-17-15-*||
F ||-------------------------------------------|-----------------------------------------------||
A#||-------------------------------------------|-----------------------------------------------||


2. Guitar                                                                                      2X
C ||-------------------------------------------|-----------------------------------------------||
G ||-------------------------------------------|-----------------------------------------------||
D#||*------------------------------------------|----------------------15-14-12----12----------*||
A#||*--0-0-15-0-15-12-0-12-0-0-15-0-15-12-0-11-|--0-0-14-0-14-11-0-11----------15----15-14-12-*||
F ||-------------------------------------------|-----------------------------------------------||
A#||-------------------------------------------|-----------------------------------------------||


1. Guitar and 2. Guitar                                                      2x
C ||-------------------------------------|-----------------------------------||
G ||-------------------------------------|-----------------------------------||
D#||*------------------------------------|----------------------------------*||
A#||*------------------------------------|----------------------------------*||
F ||-----------------------------------8-|--------------------------------3--||
A#||---0-0-0---0-0-0---0-0-0---7-8-10----|--0-0-0---0-0-0---0-0-0---3-5-6----||


1. Guitar
C ||-------------------------------------------|----------------------------------------------||
G ||-------------------------------------------|----------------------------------------------||
D#||*------------------------------------------|----------------------15-14-12----12----------||
A#||*--0-0-15-0-15-12-0-12-0-0-15-0-15-12-0-11-|--0-0-14-0-14-11-0-11----------15----15-14-12-||
F ||-------------------------------------------|----------------------------------------------||
A#||-------------------------------------------|----------------------------------------------||


1. Guitar                                                         2X
C ||------------------------------|-------------------------------||
G ||------------------------------|-------------------------------||
D#||------------------------------|------------------------------*||
A#||------------------------------|--------------------3------2--*||
F ||------------------------------|--4-4-4--4-4-4--1-1-1--0-0-0---||
A#||--0-0-0--0-0-0--0-0-0--0-0-0--|-------------------------------||


2. Guitar
C ||-------------------------------------------|-----------------------------------------------||
G ||-------------------------------------------|-----------------------------------------------||
D#||*------------------------------------------|----------------------19-17-15----15-----------||
A#||*--0-0-19-0-19-15-0-15-0-0-19-0-19-15-0-14-|--0-0-17-0-17-14-0-14----------19----19-17-15--||
F ||-------------------------------------------|-----------------------------------------------||
A#||-------------------------------------------|-----------------------------------------------||


2. Guitar                                                                                     2X
C ||------------------------------------------|-----------------------------------------------||
G ||------------------------------------------|-----------------------------------------------||
D#||------------------------------------------|----------------------15-14-12----12----------*||
A#||--0-0-15-0-15-12-0-12-0-0-15-0-15-12-0-11-|--0-0-14-0-14-11-0-11----------15----15-14-12-*||
F ||------------------------------------------|-----------------------------------------------||
A#||------------------------------------------|-----------------------------------------------||


1. Guitar
C ||-----------------------------------|--------------------------------|
G ||-----------------------------------|--------------------------------|
D#||*----------------------------------|--------------------------------|
A#||*----------------------------------|--------------------------------|
F ||--0-0-0-0-3-3-3-3-0-0-0-0-7-7-7-7--|--8----------7-7-8----------7-7-|
A#||-----------------------------------|-----3-3-3-3--------3-3-3-3-----|

                                                                       2X
C |----------------------------------|---------------------------------||
G |----------------------------------|---------------------------------||
D#|----------------------------------|--------------------------------*||
A#|----------------------------------|--------------------------------*||
F |--0-0-0-0-3-3-3-3-0-0-0-0-7-7-7-7-|--7----------5-5-7----------5-5--||
A#|----------------------------------|-----3-3-3-3--------3-3-3-3------||


2. Guitar
C ||-----------------------------------|--------------------------------|
G ||-----------------------------------|--------------------------------|
D#||*----------------------------------|--------------------------------|
A#||*----------------------------------|--------------------------------|
F ||--0-0-0-0-3-3-3-3-0-0-0-0-7-7-7-7--|--8----------7-7-8----------7-7-|
A#||-----------------------------------|-----3-3-3-3--------3-3-3-3-----|

                                                                       2x
C |----------------------------------|---------------------------------||
G |----------------------------------|---------------------------------||
D#|----------------------------------|--------------------------------*||
A#|--------------------------5-5-5-5-|--7----------5-5-7----------5-5-*||
F |--0-0-0-0-7-7-7-7-0-0-0-0---------|---------------------------------||
A#|----------------------------------|-----3-3-3-3--------3-3-3-3------||

1. and 2. Guitar
C |------------------------------------|
G |------------------------------------|
D#|---------------------7------9---10--|
A#|---------------9--------------------|
F |--8-7-7-10-7-7---7-7----7-7---7-----|
A#|------------------------------------|


1. Guitar
C ||----------------------|-----------------------|------------------------------|
G ||----------------------|-----------------------|------------------------------|
D#||*--7----9----7--------|--/10~--------9--------|--/10~----8~-------10----9----|
A#||*---------------------|-----------------------|------------------------------|
F ||----------------------|-----------------------|------------------------------|
A#||----------------------|-----------------------|------------------------------|


                              2X
C |---------------------------||
G |---------------------------||
D#|--------------------------*||
A#|--9~----10----12~---------*||
F |---------------------------||
A#|---------------------------||


2. Guitar
C ||---------------------------|--------------------------|--------------------------|
G ||---------------------------|--------------------------|--------------------------|
D#||*--------------------------|--------------------------|--------------------------|
A#||*--------------------------|--------------------------|--------------------------|
F ||---7----7-7-7--5----5-5-5--|--3----3-3-3--7----7-7-7--|--3----3-3-3--5----5-5-5--|
A#||---7----7-7-7--5----5-5-5--|--3----3-3-3--7----7-7-7--|--3----3-3-3--5----5-5-5--|


                          2X
C |-----------------------||
G |-----------------------||
D#|----------------------*||
A#|----------------------*||
F |--2----2----2----2-----||
A#|--2----2----2----2-----||



1. Guitar and 2. Guitar                                                      2X
C ||-------------------------------------|-----------------------------------||
G ||-------------------------------------|-----------------------------------||
D#||*------------------------------------|----------------------------------*||
A#||*------------------------------------|----------------------------------*||
F ||-----------------------------------8-|--------------------------------3--||
A#||---0-0-0---0-0-0---0-0-0---7-8-10----|--0-0-0---0-0-0---0-0-0---3-5-6----||


1. Guitar
C ||-------------------------------------------|----------------------------------------------||
G ||-------------------------------------------|----------------------------------------------||
D#||*------------------------------------------|----------------------15-14-12----12----------||
A#||*--0-0-15-0-15-12-0-12-0-0-15-0-15-12-0-11-|--0-0-14-0-14-11-0-11----------15----15-14-12-||
F ||-------------------------------------------|----------------------------------------------||
A#||-------------------------------------------|----------------------------------------------||


1. Guitar                                                         2X
C ||------------------------------|-------------------------------||
G ||------------------------------|-------------------------------||
D#||------------------------------|------------------------------*||
A#||------------------------------|--------------------3------2--*||
F ||------------------------------|--4-4-4--4-4-4--1-1-1--0-0-0---||
A#||--0-0-0--0-0-0--0-0-0--0-0-0--|-------------------------------||


2. Guitar
C ||-------------------------------------------|-----------------------------------------------||
G ||-------------------------------------------|-----------------------------------------------||
D#||*------------------------------------------|----------------------19-17-15----15-----------||
A#||*--0-0-19-0-19-15-0-15-0-0-19-0-19-15-0-14-|--0-0-17-0-17-14-0-14----------19----19-17-15--||
F ||-------------------------------------------|-----------------------------------------------||
A#||-------------------------------------------|-----------------------------------------------||

2. Guitar                                                                                     2X
C ||------------------------------------------|-----------------------------------------------||
G ||------------------------------------------|-----------------------------------------------||
D#||------------------------------------------|----------------------15-14-12----12----------*||
A#||--0-0-15-0-15-12-0-12-0-0-15-0-15-12-0-11-|--0-0-14-0-14-11-0-11----------15----15-14-12-*||
F ||------------------------------------------|-----------------------------------------------||
A#||------------------------------------------|-----------------------------------------------||

1. Guitar
C ||-----------------------------------|--------------------------------|
G ||-----------------------------------|--------------------------------|
D#||*----------------------------------|--------------------------------|
A#||*----------------------------------|--------------------------------|
F ||--0-0-0-0-3-3-3-3-0-0-0-0-7-7-7-7--|--8----------7-7-8----------7-7-|
A#||-----------------------------------|-----3-3-3-3--------3-3-3-3-----|


C |----------------------------------|-------------------------------------|
G |----------------------------------|-------------------------------------|
D#|----------------------------------|---------------------7------9---10---|
A#|----------------------------------|---------------9---------------------|
F |--0-0-0-0-3-3-3-3-0-0-0-0-7-7-7-7-|--8-7-7-10-7-7---7-7----7-7---7------|
A#|----------------------------------|-------------------------------------|


2. Guitar 
C |-----------------------------------|--------------------------------|
G |-----------------------------------|--------------------------------|
D#|-----------------------------------|--------------------------------|
A#|-----------------------------------|--------------------------------|
F |--0-0-0-0-3-3-3-3-0-0-0-0-7-7-7-7--|--8----------7-7-8----------7-7-|
A#|-----------------------------------|-----3-3-3-3--------3-3-3-3-----|


C |----------------------------------|-------------------------------------|
G |----------------------------------|-------------------------------------|
D#|----------------------------------|---------------------7------9---10---|
A#|--------------------------5-5-5-5-|---------------9---------------------|
F |--0-0-0-0-7-7-7-7-0-0-0-0---------|--8-7-7-10-7-7---7-7----7-7---7------|
A#|----------------------------------|-------------------------------------|


1. Guitar
C ||----------------------|-----------------------|------------------------------|
G ||----------------------|-----------------------|------------------------------|
D#||*--7----9----7--------|--/10~--------9--------|--/10~----8~-------10----9----|
A#||*---------------------|-----------------------|------------------------------|
F ||----------------------|-----------------------|------------------------------|
A#||----------------------|-----------------------|------------------------------|


                              2X
C |---------------------------||
G |---------------------------||
D#|--------------------------*||
A#|--9~----10----12~---------*||
F |---------------------------||
A#|---------------------------||


2. Guitar
C ||---------------------------|--------------------------|--------------------------|
G ||---------------------------|--------------------------|--------------------------|
D#||*--------------------------|--------------------------|--------------------------|
A#||*--------------------------|--------------------------|--------------------------|
F ||---7----7-7-7--5----5-5-5--|--3----3-3-3--7----7-7-7--|--3----3-3-3--5----5-5-5--|
A#||---7----7-7-7--5----5-5-5--|--3----3-3-3--7----7-7-7--|--3----3-3-3--5----5-5-5--|


                          2X
C |-----------------------||
G |-----------------------||
D#|----------------------*||
A#|----------------------*||
F |--2----2----2----2-----||
A#|--2----2----2----2-----||



Solo
1. Guitar                                 |--3--|          |--3--|
C |-------------------------------|------------------------------------------|
G |-------------------------------|--16--15-16-15-----15--13-15-13-----13----|
D#|-------------------12-14-15-17-|---------------17---------------16--------|
A#|-----------12------------------|------------------------------------------|
F |--10~--------------------------|------------------------------------------|
A#|-------------------------------|------------------------------------------|


C |--15------15------15------15----------15-|
G |-----18b-----18b-----18b-----18b---------|
D#|-----------------------------------------|
A#|-----------------------------------------|
F |-----------------------------------------|
A#|-----------------------------------------|

     |--3--|  |--3--|  |--3--|  |--3--|  |--3--|  |--3--|  |--3--|
C |--15-17-18-----------------------------------------------------------|
G |-----------15-16-18----------------------------15-16-18-15-17-18-20--|
D#|--------------------14-15-17----------14-15-17-----------------------|
A#|-----------------------------15-17-18--------------------------------|
F |---------------------------------------------------------------------|
A#|---------------------------------------------------------------------|



                               |-3-|
C |----------------------|------------------------------|----------------------|
G |-------8----6---------|--9--8-9-8--------------------|-------8----6----4----|
D#|--8--------------7----|-----------8-10-8-7-----------|--8-------------------|
A#|----------------------|--------------------10--------|----------------------|
F |----------------------|------------------------------|----------------------|
A#|----------------------|------------------------------|----------------------|


                      |--3--|  |--3--|
C |------------------------------------|------------------------------|
G |------------------------------------|--20--------18----------------|
D#|--7----8--10---------------15-17-18-|------------------17-19-15-17-|
A#|------------------17-19-20----------|------------------------------|
F |------------------------------------|------------------------------|
A#|------------------------------------|------------------------------|


          |--3--|
C |------------------------------------|------------------------------|--------------------------|
G |--16--15-16-15----------------------|--16~----20~----18~----16~----|--15----16b---16b---------|
D#|---------------15--17--13~----------|------------------------------|--------------------------|
A#|------------------------------------|------------------------------|--------------------------|
F |------------------------------------|------------------------------|--------------------------|
A#|------------------------------------|------------------------------|--------------------------|

2. Guitar 
C |------------------------------|------------------------------|
G |------------------------------|------------------------------|
D#|------------------------------|------------------------------|
A#|------------------------------|-----------------------5------|
F |--5-5-5--5-5-5--5-5-5--5-5-5--|--7-7-7--7-7-7--7-7-7--5------|
A#|--5-5-5--5-5-5--5-5-5--5-5-5--|--7-7-7--7-7-7--7-7-7--5------|

C |------------------------------|------------------------------|
G |------------------------------|------------------------------|
D#|------------------------------|------------------------------|
A#|------------------------------|-----------------------5------|
F |--5-5-5--5-5-5--5-5-5--5-5-5--|--7-7-7--7-7-7--7-7-7--5------|
A#|--5-5-5--5-5-5--5-5-5--5-5-5--|--7-7-7--7-7-7--7-7-7--5------|

                                |-3-|
C |-----------------------|-----------------------------|-----------------------|
G |-------8----6----------|--9--8-9-8-------------------|-----------------------|
D#|--8---------------7----|-----------8-10-8-7-5--------|---8----12----10----8--|
A#|-----------------------|-----------------------------|-----------------------|
F |-----------------------|-----------------------------|-----------------------|
A#|-----------------------|-----------------------------|-----------------------|


                       |--3--|  |--3--|
C |-------------------------------------|------------------------------|
G |----------------------------11-13-14-|--20--------18----------------|
D#|-------------------12-14-15----------|------------------17-19-15-17-|
A#|--9----10--12------------------------|------------------------------|
F |-------------------------------------|------------------------------|
A#|-------------------------------------|------------------------------|


       |--3--|
C |-------------------------------------|------------------------------|---------------------------|
G |--16--15-16-15-----------------------|--16~----20~----18~----16~----|--15----16b---16b----------|
D#|---------------15--17--13~-----------|------------------------------|---------------------------|
A#|-------------------------------------|------------------------------|---------------------------|
F |-------------------------------------|------------------------------|---------------------------|
A#|-------------------------------------|------------------------------|---------------------------|


1. Guitar
C ||----------------------|-----------------------|------------------------------|
G ||----------------------|-----------------------|------------------------------|
D#||*--7----9----7--------|--/10~--------9--------|--/10~----8~-------10----9----|
A#||*---------------------|-----------------------|------------------------------|
F ||----------------------|-----------------------|------------------------------|
A#||----------------------|-----------------------|------------------------------|


                              2X
C |---------------------------||
G |---------------------------||
D#|--------------------------*||
A#|--9~----10----12~---------*||
F |---------------------------||
A#|---------------------------||


2. Guitar
C ||---------------------------|--------------------------|--------------------------|
G ||---------------------------|--------------------------|--------------------------|
D#||*--------------------------|--------------------------|--------------------------|
A#||*--------------------------|--------------------------|--------------------------|
F ||---7----7-7-7--5----5-5-5--|--3----3-3-3--7----7-7-7--|--3----3-3-3--5----5-5-5--|
A#||---7----7-7-7--5----5-5-5--|--3----3-3-3--7----7-7-7--|--3----3-3-3--5----5-5-5--|


                          2X
C |-----------------------||
G |-----------------------||
D#|----------------------*||
A#|----------------------*||
F |--2----2----2----2-----||
A#|--2----2----2----2-----||

1. Guitar                                                         4X
C ||------------------------------|-------------------------------||------|
G ||------------------------------|-------------------------------||------|
D#||------------------------------|------------------------------*||--7---|
A#||------------------------------|--------------------3------2--*||--7---|
F ||------------------------------|--4-4-4--4-4-4--1-1-1--0-0-0---||--5---|
A#||--0-0-0--0-0-0--0-0-0--0-0-0--|-------------------------------||------|


2. Guitar                                                                                     4X
C ||------------------------------------------|-----------------------------------------------||
G ||------------------------------------------|-----------------------------------------------||
D#||------------------------------------------|----------------------15-14-12----12----------*||
A#||--0-0-15-0-15-12-0-12-0-0-15-0-15-12-0-11-|--0-0-14-0-14-11-0-11----------15----15-14-12-*||
F ||------------------------------------------|-----------------------------------------------||
A#||------------------------------------------|-----------------------------------------------||


C |------|
G |------|
D#|--7---|
A#|--7---|
F |--5---|
A#|------|

comments
We did not receive enough feedback on this tab! Please rate:
print report bad tab
1 2 3 4 5
I want to post or [tab]
guest
You may want to rate the tab now too:
select rating
Please do not post tabs as comments. Select "correction" instead!