Oops, an error
Loading. Please wait.

Disconnected Tab

ver1
ver1

Whole song

More versions @911Tabs.com
19,365 views 24 this week
7 commentsread comments
1 2 3 4 5
accurate
x 5
Autoscroll
+/-
esc
set tempo
stop
Contributor
WARNING: You are trying to view
                                    content from Ultimate-Guitar.com
                                    in an unauthorized application,
                                    which is prohibited.

                                    Please use an official Ultimate
                                    Guitar Tabs application for iPhone,
                                    iPad or Android to access legitimate
                                    chords, guitar, bass, and drum tabs
                                    from Ultimate-Guitar.com database.

                                    Type "ultimate guitar tabs" in Apple
                                    App Store's or Android Market's
                                    search to find the application.
The top pane is Bjorn, the bottom is Jesper.
Key:
. Palm Mute
h Hammer On
p Pull Off
/ Slide
~ Let Ring

Intro:
|----------------------------------------------------|
|----------------------------------------------------|
|----------------------------------------------------|
|----------------------------------------------------|
|---5-----8-----5-----7-----5-----8-----5----1-0-----|
|-0---008---000---008---000---008---000---00-----5-3-|
| .   ...   ...   ...   ...   ...   ...   ..         |
|----------------------------------------------------|
|----------------------------------------------------|
|----------------------------------------------------|
|--------------------------------------------3-2-----|
|------------------------------------------------5-3-|
|----------------------------------------------------|

|---------------------------------------------------|
|---------------------------------------------------|
|---------------------------------------------------|
|-----------------------------------------------5h7-|
|---5-----8-----5-----7-----5-----8-----5-----5-----|
|-0---008---000---008---000---008---000---005-------|
| .   ...   ...   ...   ...   ...   ...   ... .     |
|---------------------------------------------------|
|---------------------------------------------------|
|---------------------------------------------------|
|-----------------------------------------------5h7-|
|---5-----8-----5-----7-----5-----8-----5-----5-----|
|-0---008---000---008---000---008---000---005-------|
  .   ...   ...   ...   ...   ...   ...   ... .

|----------------------------------------------------|
|----------------------------------------------------|
|----------------------------------------------------|
|----------------------------------------------------|
|---5-----8-----5-----7-----5-----8-----5----1-0-----|
|-0---008---000---008---000---008---000---00-----5-3-|
| .   ...   ...   ...   ...   ...   ...   ..         |
|----------------------------------------------------|
|----------------------------------------------------|
|----------------------------------------------------|
|--------------------------------------------3-2-----|
|---5-----8-----5-----7-----5-----8-----5--------5-3-|
|-0---008---000---008---000---008---000---00---------|
  .   ...   ...   ...   ...   ...   ...   ..

|------------------------------------------------------------------------|
|------------------------------------------------------------------------|
|------------------------------------------------------------------------|
|-----------------------------------------------5h7-----5h7--7/8---8/10--|
|---5-----8-----5-----7-----5-----8-----5-----5-------5------------------|
|-0---008---000---008---000---008---000---005-------5--------------------|
| .   ...   ...   ...   ...   ...   ...   ... .     . .                  |
|------------------------------------------------------------------------|
|------------------------------------------------------------------------|
|------------------------------------------------------------------------|
|-----------------------------------------------8h10----8h10-10/12-12/13-|
|---8-----12----8-----10----8-----12----8-----8-------8------------------|
|-0---008---000---008---000---008---000---008-------8--------------------|
  .   ...   ...   ...   ...   ...   ...   ... .     . .

Verse:
|---------------------------------------------------------|
|---------------------------------------------------------|
|---------------------------------------------------------|
|------------3------------------------------3---2-----2-3-|
|-5-----1------5----------1-0-5-----3-----1---1---133-----|
|---000---00-----0-000-00-------000---333-----------------|
    ...   ..     . ... ..       ...   ... .   .   ...

Chorus:
(it's too hard to connect the different panes here so i'll just put one after the other)
Bjorn
[------]
[------]
[------]
[-X//--]
[-X//--]
[-X//--]

|-----------------------------------------------------------
|-----------------------------------------------------------
|-----9---9---------5---5---------9-------7-------5---5-----
|---7---7---7-----3---3---3-----7-------5-------3---3---3---
|-5-----------5/1-----------1/5-----5/3-----3/1-----------1/
|-----------------------------------------------------------
  ~~~~~ ~~~ ~   ~~~~~ ~~~ ~   ~~~~~   ~~~~~   ~~~~~ ~~~ ~

------------------------------------------|
------------------------------------------|
----9---9---------5---5---------9-------7-|
--7---7---7-----3---3---3-----7-------5---|
5-----------5/1-----------1/5-----5/3-----|
------------------------------------------|
~~~~~ ~~~ ~   ~~~~~ ~~~ ~   ~~~~~   ~~~~~

Jesper
|-----------------------------------------|
|-/13 13----------------------------------|
|--------10--9-9h10-9h10p9-7-7--/5-7-5----|
|--------------------------------------/3-|
|-----------------------------------------|
|-----------------------------------------|

|-----------------------------------------------|
|-/13-13----------------------------------------|
|--------10--9-9h10-/12-10-9-10-9h10p9----------|
|--------------------------------------12-10/12-|
|-----------------------------------------------|
|-----------------------------------------------|

Post Chorus: 
|----------------------------------------------------------------------|
|---------------------------------------oddly spaced to show coherence-|
|----------------------------------------------------------------------|
|----------------------------------------------------------------------|
|-0-0-0-0-0------------0-0-0-0-0-0-0-0-0----------1--0------------0-1--|
|-0-0-0-0-0------------0-0-0-0-0-0-0-0-0----------------0--0-3-5-------|
| . . . . .            . . . . . . . . .                .  .           |
|----------------------------------------------------------------------|
|----------------------------------------------------------------------|
|-10-10----7-7-----7---7h9p7------10-10----7-7----7h9p7-----------7-10-|
|-------00-----000---0-------10-7-------00-----00-------10-7-8-10------|
|----------------------------------------------------------------------|
|----------------------------------------------------------------------|
        ..     ...   .                  ..     ..

|-----------------------------------------------------------------|
|-----------------------------------------------------------------|
|-----------------------------------------------------------------|
|-3-3-3-3-3-3-3-3-3-3-3-3-3-3-3-3-5-5-5-5-5-5-5-5-2-2-2-2-2-2-2-2-|
|-1-1-1-1-1-1-1-1-1-1-1-1-1-1-1-1-3-3-3-3-3-3-3-3-0-0-0-0-0-0-0-0-|
|-----------------------------------------------------------------|
|                                                                 |
|-----------------------------------------------------------------|
|-----------------------------------------------------------------|
|-7----7----7----7----7---7h9-9------9------9----7/5-5/7-7/9-9/10-|
|---88---88---88---88---8-------1010---1010---10------------------|
|-----------------------------------------------------------------|
|-----------------------------------------------------------------|
    ..   ..   ..   ..   .       ....   ....   ..

Repeat Verse, Chorus, and Post Chorus.

Bridge:
|------------------------------------------------------------|
|------------------------------------------------------------|
|------------------------------------------------------------|
|------------------------------------------------------------|
|-0-0-0-0-0---------0-0-0-0-0-0-0-0-0-------1-0----------0-1-|
|-0-0-0-0-0---------0-0-0-0-0-0-0-0-0-----------0-0-3-5------|
| . . . . .         . . . . . . . . .           . .          |
|------------------------------------------------------------|
|------------------------------------------------------------|
|------------------------------------------------------------|
|----------------------------7---------------------------7-8-|
|----5----5----8----7---10--------5----5----8---7---8-10-----|
|-00---00---00---00---0----0---00---00---00---0---0----------|
  ..   ..   ..   ..   .    .   ..   ..   ..   .   .

|-----------------------------------------------------------------|
|-----------------------------------------------------------------|
|-----------------------------------------------------------------|
|-3-3-3-3-3-3-3-3-3-3-3-3-3-3-3-3-5-5-5-5-5-5-5-5-2-2-2-2-2-2-2-2-|
|-1-1-1-1-1-1-1-1-1-1-1-1-1-1-1-1-3-3-3-3-3-3-3-3-0-0-0-0-0-0-0-0-|
|-----------------------------------------------------------------|

Intro/Fill:
|---------------------------------------------------|
|---------------------------------------------------|
|---------------------------------------------------|
|-----------------------------------------------5h7-|
|---5-----8-----5-----7-----5-----8-----5-----5-----|
|-0---008---000---008---000---008---000---005-------|
| .   ...   ...   ...   ...   ...   ...   ... .     |
|---------------------------------------------------|
|---------------------------------------------------|
|---------------------------------------------------|
|-----------------------------------------------8h10|
|---8-----12----8-----10----8-----12----8-----8-----|
|-0---008---000---008---000---008---000---008-------|
  .   ...   ...   ...   ...   ...   ...   ... .

|----------------------------------------------------|
|----------------------------------------------------|
|----------------------------------------------------|
|----------------------------------------------------|
|---5-----8-----5-----7-----5-----8-----5----1-0-----|
|-0---008---000---008---000---008---000---00-----5-3-|
| .   ...   ...   ...   ...   ...   ...   ..         |
|----------------------------------------------------|
|----------------------------------------------------|
|----------------------------------------------------|
|--------------------------------------------3-2-----|
|---8-----12----8-----10----8-----12----8--------5-3-|
|-0---008---000---008---000---008---000---00---------|
  .   ...   ...   ...   ...   ...   ...   ..

Final Chorus:
|--------------------------------------------------------|
|--------------------------------------------------------|
|------------------------------------------------9---7---|
|------------------------------------------------9---7---|
|------------------------------------------------7---5---|
|--------------------------------------------------------|
|                                                        |
|--------------------------------------------------------|
|-/15-15-------------------------------------------------|
|--------12--11-11h12-11h12p11-9-9--/7-9-7-------9---7---|
|------------------------------------------/5----9---7---|
|------------------------------------------------7---5---|
|--------------------------------------------------------|

Bjorn
|-----------------------------------------------------------|
|-----------------------------------------------------------|
|-----9---9---------5---5---------9-------7-------5---5-----|
|---7---7---7-----3---3---3-----7-------5-------3---3---3---|
|-5-----------5/1-----------1/5-----5/3-----3/1-----------1/|
|-----------------------------------------------------------|
  ~~~~~ ~~~ ~   ~~~~~ ~~~ ~   ~~~~~   ~~~~~   ~~~~~ ~~~ ~

------------------------------------------|
------------------------------------------|
----9---9---------5---5---------9-------7-|
--7---7---7-----3---3---3-----7-------5---|
5-----------5/1-----------1/5-----5/3-----|
------------------------------------------|
~~~~~ ~~~ ~   ~~~~~ ~~~ ~   ~~~~~   ~~~~~

Jesper
|-----------------------------------------|
|-/13 13----------------------------------|
|--------10--9-9h10-9h10p9-7-7--/5-7-5----|
|--------------------------------------/3-|
|-----------------------------------------|
|-----------------------------------------|

|-----------------------------------------------|
|-/13-13----------------------------------------|
|--------10--9-9h10-/12-10-9-10-9h10p9----------|
|--------------------------------------12-10/12-|
|-----------------------------------------------|
|-----------------------------------------------|

Verse/Outro:
|---------------------------------------------------------|
|---------------------------------------------------------|
|---------------------------------------------------------|
|------------3------------------------------3---2-----2-3-|
|-5-----1------5----------1-0-5-----3-----1---1---133-----|
|---000---00-----0-000-00-------000---333-----------------|
    ...   ..     . ... ..       ...   ... .   .   ...

|--------------------------------|
|--------------------------------|
|--------------------------------|
|------------3-------------------|
|-5-----1------5----------1-0-0--|
|---000---00-----0-000-00-----0--|
    ...   ..     . ... ..
comments
print report bad tab
7 comments total. Showing first comments.
0 reply
jabez777 wrote on November 22 2008, 03:40 am

i knew i should've proofread this closer. the last two notes in the verse got switched up. it should actually be:
|---------------------------------------------------------|
|---------------------------------------------------------|
|---------------------------------------------------------|
|------------3------------------------------3---2-----2-3-|
|-5-----1------5----------1-0-5-----3-----1---1---133-----|
|---000---00-----0-000-00-------000---333-----------------|
... .. . ... .. ... ... . . ...

-1 reply
BurningTheSun wrote on December 1 2008, 06:43 pm

perfection.

0 reply
AgentHappyDay wrote on February 25 2009, 04:55 pm

what's the tuning?

I want to post or [tab]
guest
You may want to rate the tab now too:
select rating
Please do not post tabs as comments. Select "correction" instead!