Oops, an error
Loading. Please wait.

Disconnected Tab

ver2
ver2

Whole song

Interactive

More versions @911Tabs.com
1,308 views 18 this week
no commentswrite comment
1 2 3 4 5
please rate
Autoscroll
+/-
esc
set tempo
stop
Contributor
Difficulty
Tuning
intermediate
B F# B E G# C#
Hey! There's an official Ultimate Guitar app which is ideal
for learning songs when you're away from computer. Get the app
WARNING: You are trying to view
                                    content from Ultimate-Guitar.com
                                    in an unauthorized application,
                                    which is prohibited.

                                    Please use an official Ultimate
                                    Guitar Tabs application for iPhone,
                                    iPad or Android to access legitimate
                                    chords, guitar, bass, and drum tabs
                                    from Ultimate-Guitar.com database.

                                    Type "ultimate guitar tabs" in Apple
                                    App Store's or Android Market's
                                    search to find the application.
it's played in drop A#, so half a step lower than drop b, but hell, you can still 
play it as long as it's i drop tuning.

this is the Björn Gelotte's guitar, so it's panned left for this song.

sorry if it's a little hard to understand, but these type of tabs are hard.
USE GUITAR PRO.


     PM    PM PM       PM PM    PM    PM PM       PM PM  
     E  E  E  E  E  E  E  E     E  E  E  E  E  E  E  E   
C   ||--------------------------|--------------------------|
G   ||--------------------------|--------------------------|
D#  ||--------------------------|--------------------------|
A#  ||--------------------------|--------------------------|
F   ||-----5-----------8--------|-----5-----------7--------|
A#  ||--0-----0--0--8-----0--0--|--0-----0--0--8-----0--0--|


  PM    PM PM       PM PM    PM    PM PM              
  E  E  E  E  E  E  E  E     E  E  E  E  E  E  E  E   
--------------------------|--------------------------|
--------------------------|--------------------------|
--------------------------|--------------------------|
--------------------------|--------------------------|
-----5-----------8--------|-----5--------------------|
--0-----0--0--8-----0--0--|--0-----0--0--8--7--5--3--|


  PM    PM PM PM    PM PM    PM    PM PM PM    PM PM  
  E  E  E  E  E  E  E  E     E  E  E  E  E  E  E  E   
--------------------------|--------------------------|
--------------------------|--------------------------|
--------------------------|--------------------------|
--------------------------|--------------------------|
-----5-----------8--------|-----5-----------7--------|
--0-----0--0--8-----0--0--|--0-----0--0--8-----0--0--|


  PM    PM PM PM    PM PM    PM    PM PM PM PM        
  E  E  E  E  E  E  E  E     E  E  E  E  E  E  E  E   
--------------------------|--------------------------|
--------------------------|--------------------------|
--------------------------|--------------------------|
--------------------------|--------------------5--7--|
-----5-----------8--------|-----5-----------5--------|
--0-----0--0--8-----0--0--|--0-----0--0--5-----------|


  PM    PM PM PM    PM PM    PM    PM PM PM    PM PM  
  E  E  E  E  E  E  E  E     E  E  E  E  E  E  E  E   
--------------------------|--------------------------|
--------------------------|--------------------------|
--------------------------|--------------------------|
--------------------------|--------------------------|
-----5-----------8--------|-----5-----------7--------|
--0-----0--0--8-----0--0--|--0-----0--0--8-----0--0--|


  PM    PM PM PM    PM PM    PM    PM PM              
  E  E  E  E  E  E  E  E     E  E  E  E  E  E  E  E   
--------------------------|--------------------------|
--------------------------|--------------------------|
--------------------------|--------------------------|
--------------------------|--------------------------|
-----5-----------8--------|-----5--------5--3--------|
--0-----0--0--8-----0--0--|--0-----0--0--------8--7--|


  PM    PM PM PM    PM PM    PM    PM PM PM    PM PM  
  E  E  E  E  E  E  E  E     E  E  E  E  E  E  E  E   
--------------------------|--------------------------|
--------------------------|--------------------------|
--------------------------|--------------------------|
--------------------------|--------------------------|
-----5-----------8--------|-----5-----------7--------|
--0-----0--0--8-----0--0--|--0-----0--0--8-----0--0--|


  PM    PM PM PM    PM PM    PM    PM PM PM PM        
  E  E  E  E  E  E  E  E     E  E  E  E  E  E  E  E   
--------------------------|--------------------------|
--------------------------|--------------------------|
--------------------------|--------------------------|
--------------------------|--------------------5--7--|
-----5-----------8--------|-----5-----------5--------|
--0-----0--0--8-----0--0--|--0-----0--0--5-----------|


  PM PM                            PM PM PM    PM PM     
  E  E  E  E  E  E  E   E       E  E  E  E  E  E  E  E   
---------------------------||---------------------------|
---------------------------||---------------------------|
---------------------------||*--------------------------|
--------5--7--7--8--8--10--||*--------------------------|
-----5---------------------||---5--------------------8--|
--5------------------------||------0--0--0--8--0--0-----|


     PM PM PM PM PM PM             PM PM PM    PM PM PM  
  E  E  S  S  E  E  E  E  E     E  E  E  E  E  E  E  E   
-----------------------------|--------------------------|
-----------------------------|--------------------------|
-----------------------------|--------------------------|
-----------------------------|--------------------------|
--5--------------------------|--5-----------3-----------|
-----0--0--0--0--0--0--7--8--|-----0--0--0-----3--3--3--|


     PM    PM  PM  PM               PM    PM  PM  PM        
  E  E  E  E   E   E  E  E       E  E  E  E   E   E  E  E   
-----------------------------||----------------------------|
-----------------------------||----------------------------|
----------------------------*||----------------------------|
----------------------------*||----------------------------|
--8-----7-------------7--8---||--8-----7-------------7--8--|
-----8-----8--10--10---------||-----8-----8--10--10--------|


       PM PM PM    PM PM          PM PM PM PM PM PM        
    E  E  E  E  E  E  E  E     E  E  S  S  E  E  E  E  E   
|---------------------------|-----------------------------|
|---------------------------|-----------------------------|
|*--------------------------|-----------------------------|
|*--------------------------|-----------------------------|
|---5--------------------8--|--5--------------------------|
|------0--0--0--8--0--0-----|-----0--0--0--0--0--0--7--8--|


     PM PM PM    PM PM PM       PM    PM  PM  PM          
  E  E  E  E  E  E  E  E     E  E  E  E   E   E  E  E     
--------------------------|-----------------------------||
--------------------------|-----------------------------||
--------------------------|----------------------------*||
--------------------------|----------------------------*||
--5-----------3-----------|--8-----7-------------7--8---||
-----0--0--0-----3--3--3--|-----8-----8--10--10---------||


     PM    PM  PM  PM                                                     
  E  E  E  E   E   E  E  E     Q    H.              Q    Q     H          
----------------------------|--------------------|-----------------------|
----------------------------|--------------------|-----------------------|
----------------------------|--------------------|-----------------------|
----------------------------|--------------------|-----------------------|
--8-----7-------------7--8--|--8-----------------|-----------------------|
-----8-----8--10--10--------|--8-----------------|------------12\--------|


  Q.     Q.     Q       W                   Q.     Q.     Q     
---------------------|-------------------|---------------------|
----------------6----|--L----------------|----------------1----|
---------------------|-------------------|---------------------|
---------7------L----|--L----------------|---------3------L----|
--5------L------L----|--L----------------|--1------L------L----|
---------------------|-------------------|---------------------|


  Q    Q    Q    Q       Q.     Q.     Q       Q.     Q.     Q     
----------------------|---------------------|---------------------|
--L----L----1----L----|----------------6----|----------------3----|
----------------------|---------------------|---------------------|
--L----3----L----3----|---------7------L----|---------5------L----|
--L----L----L----L----|--5------L------L----|--3------L------L----|
----------------------|---------------------|---------------------|


  Q.     Q.     Q       Q    Q    Q    Q       Q.     Q.     Q     
---------------------|----------------------|---------------------|
----------------1----|--L----L----1----L----|----------------6----|
---------------------|----------------------|---------------------|
---------3------L----|--L----3----L----3----|---------7------L----|
--1------L------L----|--L----L----L----L----|--5------L------L----|
---------------------|----------------------|---------------------|


  W                   Q.     Q.     Q       Q    Q    Q    Q     
-------------------|---------------------|----------------------|
--L----------------|----------------1----|--L----L----1----L----|
-------------------|---------------------|----------------------|
--L----------------|---------3------L----|--L----3----L----3----|
--L----------------|--1------L------L----|--L----L----L----L----|
-------------------|---------------------|----------------------|


                                              PM PM PM PM       PM PM  
  Q.     Q.     Q       Q.     Q.     Q       E  E  E  E  E  E  E  E   
---------------------|---------------------|--------------------------|
----------------6----|----------------3----|--------------------------|
---------------------|---------------------|--------------7--7--------|
---------7------L----|---------5------L----|--0--0--0--0--------0--0--|
--5------L------L----|--3------L------L----|--------------------------|
---------------------|---------------------|--------------------------|


  PM    PM PM                          PM PM       PM PM  
  E  E  E  E  S S E   E  E      E   E  E  E  E  E  E  E   
----------------------------|----------------------------|
----------------------------|----------------------------|
-----7--------7-9-7---------|--10--10--------7--7--------|
--0-----0--0---------10--7--|----------0--0--------0--0--|
----------------------------|----------------------------|
----------------------------|----------------------------|


                                        PM PM       PM PM  
  S S E   E  E  E   E  E  E      E   E  E  E  E  E  E  E   
-----------------------------|----------------------------|
-----------------------------|----------------------------|
--7-9-7----------------7--9--|--10--10--------7--7--------|
---------10--7--8--10--------|----------0--0--------0--0--|
-----------------------------|----------------------------|
-----------------------------|----------------------------|


  PM    PM PM                          PM PM       PM PM  
  E  E  E  E  S S E   E  E      E   E  E  E  E  E  E  E   
----------------------------|----------------------------|
----------------------------|----------------------------|
-----7--------7-9-7---------|--10--10--------7--7--------|
--0-----0--0---------10--7--|----------0--0--------0--0--|
----------------------------|----------------------------|
----------------------------|----------------------------|


  S S E   E  E  E   E  E  E      E   E   E   E   E   E   E   E   
-----------------------------|----------------------------------|
-----------------------------|----------------------------------|
--7-9-7----------------7--9--|--15--15--15--15--15--15--15--15--|
---------10--7--8--10--------|----------------------------------|
-----------------------------|----------------------------------|
-----------------------------|----------------------------------|


   E   E   E   E   E   E   E   E      E   E   E   E   E   E   E   E   
----------------------------------|----------------------------------|
----------------------------------|----------------------------------|
--15--15--15--15--15--15--17--19--|--17--17--17--17--17--17--17--17--|
----------------------------------|----------------------------------|
----------------------------------|----------------------------------|
----------------------------------|----------------------------------|


                                          PM PM PM    PM PM     
   E   E   E   E   E   E   E   E      E   E  E  E  E  E  E  E   
----------------------------------|----------------------------|
----------------------------------|----------------------------|
--17--19--19--21--21--22--22--24--|--22~--L--L--L--------------|
----------------------------------|----------------------------|
----------------------------------|---5---------------------8--|
----------------------------------|-------0--0--0--8--0--0-----|


     PM PM PM PM PM PM             PM PM PM    PM PM PM  
  E  E  S  S  E  E  E  E  E     E  E  E  E  E  E  E  E   
-----------------------------|--------------------------|
-----------------------------|--------------------------|
-----------------------------|--------------------------|
-----------------------------|--------------------------|
--5--------------------------|--5-----------3-----------|
-----0--0--0--0--0--0--7--8--|-----0--0--0-----3--3--3--|


     PM    PM  PM  PM             PM PM PM    PM PM     
  E  E  E  E   E   E  E  E     E  E  E  E  E  E  E  E   
----------------------------|--------------------------|
----------------------------|--------------------------|
----------------------------|--------------------------|
----------------------------|--------------------------|
--8-----7-------------7--8--|--5--------------------8--|
-----8-----8--10--10--------|-----0--0--0--8--0--0-----|


     PM PM PM PM PM PM             PM PM PM    PM PM PM  
  E  E  S  S  E  E  E  E  E     E  E  E  E  E  E  E  E   
-----------------------------|--------------------------|
-----------------------------|--------------------------|
-----------------------------|--------------------------|
-----------------------------|--------------------------|
--5--------------------------|--5-----------3-----------|
-----0--0--0--0--0--0--7--8--|-----0--0--0-----3--3--3--|


     PM    PM  PM  PM             PM PM PM    PM PM     
  E  E  E  E   E   E  E  E     E  E  E  E  E  E  E  E   
----------------------------|--------------------------|
----------------------------|--------------------------|
----------------------------|--------------------------|
----------------------------|--------------------------|
--8-----7-------------7--8--|--5--------------------8--|
-----8-----8--10--10--------|-----0--0--0--8--0--0-----|


     PM PM PM PM PM PM             PM PM PM    PM PM PM  
  E  E  S  S  E  E  E  E  E     E  E  E  E  E  E  E  E   
-----------------------------|--------------------------|
-----------------------------|--------------------------|
-----------------------------|--------------------------|
-----------------------------|--------------------------|
--5--------------------------|--5-----------3-----------|
-----0--0--0--0--0--0--7--8--|-----0--0--0-----3--3--3--|


     PM    PM  PM  PM             PM PM PM    PM PM     
  E  E  E  E   E   E  E  E     E  E  E  E  E  E  E  E   
----------------------------|--------------------------|
----------------------------|--------------------------|
----------------------------|--------------------------|
----------------------------|--------------------------|
--8-----7-------------7--8--|--5--------------------8--|
-----8-----8--10--10--------|-----0--0--0--8--0--0-----|


     PM PM PM PM PM PM             PM PM PM    PM PM PM  
  E  E  S  S  E  E  E  E  E     E  E  E  E  E  E  E  E   
-----------------------------|--------------------------|
-----------------------------|--------------------------|
-----------------------------|--------------------------|
-----------------------------|--------------------------|
--5--------------------------|--5-----------3-----------|
-----0--0--0--0--0--0--7--8--|-----0--0--0-----3--3--3--|


     PM    PM  PM  PM                                                     
  E  E  E  E   E   E  E  E     Q.     Q.     Q       Q    Q    Q    Q     
----------------------------|---------------------|----------------------|
----------------------------|----------------1----|--L----L----1----L----|
----------------------------|---------------------|----------------------|
----------------------------|---------3------L----|--L----3----L----3----|
--8-----7-------------7--8--|--1------L------L----|--L----L----L----L----|
-----8-----8--10--10--------|---------------------|----------------------|


  Q.     Q.     Q       W                   Q.     Q.     Q     
---------------------|-------------------|---------------------|
----------------6----|--L----------------|----------------1----|
---------------------|-------------------|---------------------|
---------7------L----|--L----------------|---------3------L----|
--5------L------L----|--L----------------|--1------L------L----|
---------------------|-------------------|---------------------|


  Q    Q    Q    Q       Q.     Q.     Q       Q.     Q.     Q     
----------------------|---------------------|---------------------|
--L----L----1----L----|----------------6----|----------------3----|
----------------------|---------------------|---------------------|
--L----3----L----3----|---------7------L----|---------5------L----|
--L----L----L----L----|--5------L------L----|--3------L------L----|
----------------------|---------------------|---------------------|


  Q.     Q.     Q       Q    Q    Q    Q       Q.     Q.     Q     
---------------------|----------------------|---------------------|
----------------1----|--L----L----1----L----|----------------6----|
---------------------|----------------------|---------------------|
---------3------L----|--L----3----L----3----|---------7------L----|
--1------L------L----|--L----L----L----L----|--5------L------L----|
---------------------|----------------------|---------------------|


  W                   Q.     Q.     Q       Q    Q    Q    Q     
-------------------|---------------------|----------------------|
--L----------------|----------------1----|--L----L----1----L----|
-------------------|---------------------|----------------------|
--L----------------|---------3------L----|--L----3----L----3----|
--L----------------|--1------L------L----|--L----L----L----L----|
-------------------|---------------------|----------------------|


                                              PM PM PM PM       PM PM  
  Q.     Q.     Q       Q.     Q.     Q       E  E  E  E  E  E  E  E   
---------------------|---------------------|--------------------------|
----------------6----|----------------3----|--------------------------|
---------------------|---------------------|--------------7--7--------|
---------7------L----|---------5------L----|--0--0--0--0--------0--0--|
--5------L------L----|--3------L------L----|--------------------------|
---------------------|---------------------|--------------------------|


  PM    PM PM                          PM PM       PM PM  
  E  E  E  E  S S E   E  E      E   E  E  E  E  E  E  E   
----------------------------|----------------------------|
----------------------------|----------------------------|
-----7--------7-9-7---------|--10--10--------7--7--------|
--0-----0--0---------10--7--|----------0--0--------0--0--|
----------------------------|----------------------------|
----------------------------|----------------------------|


                                        PM PM       PM PM  
  S S E   E  E  E   E  E  E      E   E  E  E  E  E  E  E   
-----------------------------|----------------------------|
-----------------------------|----------------------------|
--7-9-7----------------7--9--|--10--10--------7--7--------|
---------10--7--8--10--------|----------0--0--------0--0--|
-----------------------------|----------------------------|
-----------------------------|----------------------------|


  PM    PM PM                          PM PM       PM PM  
  E  E  E  E  S S E   E  E      E   E  E  E  E  E  E  E   
----------------------------|----------------------------|
----------------------------|----------------------------|
-----7--------7-9-7---------|--10--10--------7--7--------|
--0-----0--0---------10--7--|----------0--0--------0--0--|
----------------------------|----------------------------|
----------------------------|----------------------------|


  S S E   E  E  E   E  E  E      E   E   E   E   E   E   E   E   
-----------------------------|----------------------------------|
-----------------------------|----------------------------------|
--7-9-7----------------7--9--|--15--15--15--15--15--15--15--15--|
---------10--7--8--10--------|----------------------------------|
-----------------------------|----------------------------------|
-----------------------------|----------------------------------|


   E   E   E   E   E   E   E   E      E   E   E   E   E   E   E   E   
----------------------------------|----------------------------------|
----------------------------------|----------------------------------|
--15--15--15--15--15--15--17--19--|--17--17--17--17--17--17--17--17--|
----------------------------------|----------------------------------|
----------------------------------|----------------------------------|
----------------------------------|----------------------------------|


                                      PM  PM    PM PM    PM PM  
   E   E   E   E   E   E   E   E      E   E  E  E  E  E  E  E   
----------------------------------|----------------------------|
----------------------------------|----------------------------|
--17--19--19--21--21--22--22--24--|--22~--L--L--L--------------|
----------------------------------|----------------------------|
----------------------------------|----------5--------5--------|
----------------------------------|---0---0-----0--0-----0--0--|


     PM PM    PM    PM       PM PM    PM PM    PM PM  
  E  E  E  E  E  E  E  E     E  E  E  E  E  E  E  E   
--------------------------|--------------------------|
--------------------------|--------------------------|
--------------------------|--------------------------|
-----------------5-----7--|--------------------------|
--8--------7--------------|--------5--------5--------|
-----0--0-----0-----0-----|--0--0-----0--0-----0--0--|


     PM    PM                PM PM    PM PM    PM PM  
  E  E  E  E  E  E  E  E     E  E  E  E  E  E  E  E   
--------------------------|--------------------------|
--------------------------|--------------------------|
--------------------------|--------------------------|
--------------------------|--------------------------|
--8-----7-----------3--5--|--------5--------5--------|
-----0-----0--7--8--------|--0--0-----0--0-----0--0--|


     PM PM    PM    PM       PM PM    PM PM    PM PM  
  E  E  E  E  E  E  E  E     E  E  E  E  E  E  E  E   
--------------------------|--------------------------|
--------------------------|--------------------------|
--------------------------|--------------------------|
--------------------------|--------------------------|
--8--------7-----7-----8--|--------5--------5--------|
-----0--0-----0-----0-----|--0--0-----0--0-----0--0--|


     PM    PM                                         
  E  E  E  E  E  E  E  E     E  E  E  E  E  E  E  E   
--------------------------|--------------------------|
--------------------------|--------------------------|
--------------------------|--------------------------|
--------------------------|--3--3--3--3--3--3--3--3--|
--8-----7-----------3--5--|--1--1--1--1--1--1--1--1--|
-----0-----0--7--8--------|--------------------------|


  E  E  E  E  E  E  E  E     E  E  E  E  E  E  E  E   
--------------------------|--------------------------|
--------------------------|--------------------------|
--------------------------|--------------------------|
--3--3--3--3--3--3--3--3--|--5--5--5--5--5--5--5--5--|
--1--1--1--1--1--1--1--1--|--3--3--3--3--3--3--3--3--|
--------------------------|--------------------------|


                             PM PM    PM PM    PM PM  
  E  E  E  E  E  E  E  E     E  E  E  E  E  E  E  E   
--------------------------|--------------------------|
--------------------------|--------------------------|
--------------------------|--------------------------|
--2--2--2--2--2--2--2--2--|--------------------------|
--0--0--0--0--0--0--0--0--|--------5--------5--------|
--------------------------|--0--0-----0--0-----0--0--|


     PM PM    PM    PM       PM PM    PM PM    PM PM  
  E  E  E  E  E  E  E  E     E  E  E  E  E  E  E  E   
--------------------------|--------------------------|
--------------------------|--------------------------|
--------------------------|--------------------------|
-----------------5-----7--|--------------------------|
--8--------7--------------|--------5--------5--------|
-----0--0-----0-----0-----|--0--0-----0--0-----0--0--|


     PM    PM                PM PM    PM PM    PM PM  
  E  E  E  E  E  E  E  E     E  E  E  E  E  E  E  E   
--------------------------|--------------------------|
--------------------------|--------------------------|
--------------------------|--------------------------|
--------------------------|--------------------------|
--8-----7-----------3--5--|--------5--------5--------|
-----0-----0--7--8--------|--0--0-----0--0-----0--0--|


     PM PM    PM    PM       PM PM    PM PM    PM PM  
  E  E  E  E  E  E  E  E     E  E  E  E  E  E  E  E   
--------------------------|--------------------------|
--------------------------|--------------------------|
--------------------------|--------------------------|
--------------------------|--------------------------|
--8--------7-----7-----8--|--------5--------5--------|
-----0--0-----0-----0-----|--0--0-----0--0-----0--0--|


     PM    PM                                         
  E  E  E  E  E  E  E  E     E  E  E  E  E  E  E  E   
--------------------------|--------------------------|
--------------------------|--------------------------|
--------------------------|--------------------------|
--------------------------|--3--3--3--3--3--3--3--3--|
--8-----7-----------3--5--|--1--1--1--1--1--1--1--1--|
-----0-----0--7--8--------|--------------------------|


  E  E  E  E  E  E  E  E     E  E  E  E  E  E  E  E   
--------------------------|--------------------------|
--------------------------|--------------------------|
--------------------------|--------------------------|
--3--3--3--3--3--3--3--3--|--5--5--5--5--5--5--5--5--|
--1--1--1--1--1--1--1--1--|--3--3--3--3--3--3--3--3--|
--------------------------|--------------------------|


                             PM    PM PM PM    PM PM  
  E  E  E  E  E  E  E  E     E  E  E  E  E  E  E  E   
--------------------------|--------------------------|
--------------------------|--------------------------|
--------------------------|--------------------------|
--2--2--2--2--2--2--2--2--|--------------------------|
--0--0--0--0--0--0--0--0--|-----5-----------8--------|
--------------------------|--0-----0--0--8-----0--0--|


  PM    PM PM PM    PM PM    PM    PM PM PM    PM PM  
  E  E  E  E  E  E  E  E     E  E  E  E  E  E  E  E   
--------------------------|--------------------------|
--------------------------|--------------------------|
--------------------------|--------------------------|
--------------------------|--------------------------|
-----5-----------7--------|-----5-----------8--------|
--0-----0--0--8-----0--0--|--0-----0--0--8-----0--0--|


  PM    PM PM PM PM          PM    PM PM PM    PM PM  
  E  E  E  E  E  E  E  E     E  E  E  E  E  E  E  E   
--------------------------|--------------------------|
--------------------------|--------------------------|
--------------------------|--------------------------|
--------------------5--7--|--------------------------|
-----5-----------5--------|-----5-----------8--------|
--0-----0--0--5-----------|--0-----0--0--8-----0--0--|


  PM    PM PM PM    PM PM    PM    PM PM PM    PM PM  
  E  E  E  E  E  E  E  E     E  E  E  E  E  E  E  E   
--------------------------|--------------------------|
--------------------------|--------------------------|
--------------------------|--------------------------|
--------------------------|--------------------------|
-----5-----------7--------|-----5-----------8--------|
--0-----0--0--8-----0--0--|--0-----0--0--8-----0--0--|


  PM    PM PM                                                                 
  E  E  E  E  E  E  E  E     Q      Q      Q    Q        Q    Q    Q    Q     
--------------------------|-------/10~-----L----------|----------------------|
--------------------------|---------------------8~----|--L----7----7----8----|
--------------------------|---------------------------|----------------------|
--------------------------|---------------------------|----------------------|
-----5--------5--3--------|---------------------------|----------------------|
--0-----0--0--------8--7--|---------------------------|----------------------|


  S S E  H.               Q    Q    Q    Q        W                 
-----------------------|-----------------------|-------------------|
--7-8-7----------------|-----------------------|-------------------|
---------9~------------|--7----9----7----------|-------------------|
-----------------------|-----------------5~----|--L----------------|
-----------------------|-----------------------|-------------------|
-----------------------|-----------------------|-------------------|


  W                    W                   W                 
-------------------|--------------------|-------------------|
-------------------|--------------------|-------------------|
-------------------|--------------------|-------------------|
--L----------------|--/9----------------|--4----------------|
-------------------|--------------------|-------------------|
-------------------|--------------------|-------------------|


  Q.     Q.     Q       Q    Q    Q    Q       Q.     Q.     Q     
---------------------|----------------------|---------------------|
----------------1----|--L----L----1----L----|----------------6----|
---------------------|----------------------|---------------------|
---------3------L----|--L----3----L----3----|---------7------L----|
--1------L------L----|--L----L----L----L----|--5------L------L----|
---------------------|----------------------|---------------------|


  W                   Q.     Q.     Q       Q    Q    Q    Q     
-------------------|---------------------|----------------------|
--L----------------|----------------1----|--L----L----1----L----|
-------------------|---------------------|----------------------|
--L----------------|---------3------L----|--L----3----L----3----|
--L----------------|--1------L------L----|--L----L----L----L----|
-------------------|---------------------|----------------------|


  Q.     Q.     Q       Q.     Q.     Q       Q.     Q.     Q     
---------------------|---------------------|---------------------|
----------------6----|----------------3----|----------------1----|
---------------------|---------------------|---------------------|
---------7------L----|---------5------L----|---------3------L----|
--5------L------L----|--3------L------L----|--1------L------L----|
---------------------|---------------------|---------------------|


  Q    Q    Q    Q       Q.     Q.     Q       W                 
----------------------|---------------------|-------------------|
--L----L----1----L----|----------------6----|--L----------------|
----------------------|---------------------|-------------------|
--L----3----L----3----|---------7------L----|--L----------------|
--L----L----L----L----|--5------L------L----|--L----------------|
----------------------|---------------------|-------------------|


  Q.     Q.     Q       Q    Q    Q    Q       Q.     Q.     Q     
---------------------|----------------------|---------------------|
----------------1----|--L----L----1----L----|----------------6----|
---------------------|----------------------|---------------------|
---------3------L----|--L----3----L----3----|---------7------L----|
--1------L------L----|--L----L----L----L----|--5------L------L----|
---------------------|----------------------|---------------------|


  Q.     Q.     Q       Q.     Q.     Q       Q    Q    Q    Q     
---------------------|---------------------|----------------------|
----------------3----|----------------1----|--L----L----1----L----|
---------------------|---------------------|----------------------|
---------5------L----|---------3------L----|--L----3----L----3----|
--3------L------L----|--1------L------L----|--L----L----L----L----|
---------------------|---------------------|----------------------|


  Q.     Q.     Q       W                   Q.     Q.     Q     
---------------------|-------------------|---------------------|
----------------6----|--L----------------|----------------1----|
---------------------|-------------------|---------------------|
---------7------L----|--L----------------|---------3------L----|
--5------L------L----|--L----------------|--1------L------L----|
---------------------|-------------------|---------------------|


  Q    Q    Q    Q       Q.     Q.     Q       Q.     Q.     Q     
----------------------|---------------------|---------------------|
--L----L----1----L----|----------------6----|----------------3----|
----------------------|---------------------|---------------------|
--L----3----L----3----|---------7------L----|---------5------L----|
--L----L----L----L----|--5------L------L----|--3------L------L----|
----------------------|---------------------|---------------------|


  Q.     Q.     Q       Q    Q    Q    Q       Q.     Q.     Q     
---------------------|----------------------|---------------------|
----------------1----|--L----L----1----L----|----------------6----|
---------------------|----------------------|---------------------|
---------3------L----|--L----3----L----3----|---------7------L----|
--1------L------L----|--L----L----L----L----|--5------L------L----|
---------------------|----------------------|---------------------|


  W                   Q.     Q.     Q       Q    Q    Q    Q     
-------------------|---------------------|----------------------|
--L----------------|----------------1----|--L----L----1----L----|
-------------------|---------------------|----------------------|
--L----------------|---------3------L----|--L----3----L----3----|
--L----------------|--1------L------L----|--L----L----L----L----|
-------------------|---------------------|----------------------|


                                                 PM PM PM    PM PM     
  Q.     Q.     Q       Q.     Q.     Q       E  E  E  E  E  E  E  E   
---------------------|---------------------|--------------------------|
----------------6----|----------------3----|--------------------------|
---------------------|---------------------|--------------------------|
---------7------L----|---------5------L----|--------------------------|
--5------L------L----|--3------L------L----|--5--------------------8--|
---------------------|---------------------|-----0--0--0--8--0--0-----|


     PM PM PM PM PM PM             PM PM PM    PM PM PM  
  E  E  S  S  E  E  E  E  E     E  E  E  E  E  E  E  E   
-----------------------------|--------------------------|
-----------------------------|--------------------------|
-----------------------------|--------------------------|
-----------------------------|--------------------------|
--5--------------------------|--5-----------3-----------|
-----0--0--0--0--0--0--7--8--|-----0--0--0-----3--3--3--|


     PM    PM  PM  PM             PM PM PM    PM PM     
  E  E  E  E   E   E  E  E     E  E  E  E  E  E  E  E   
----------------------------|--------------------------|
----------------------------|--------------------------|
----------------------------|--------------------------|
----------------------------|--------------------------|
--8-----7-------------7--8--|--5--------------------8--|
-----8-----8--10--10--------|-----0--0--0--8--0--0-----|


     PM PM PM PM PM PM             PM PM PM    PM PM PM  
  E  E  S  S  E  E  E  E  E     E  E  E  E  E  E  E  E   
-----------------------------|--------------------------|
-----------------------------|--------------------------|
-----------------------------|--------------------------|
-----------------------------|--------------------------|
--5--------------------------|--5-----------3-----------|
-----0--0--0--0--0--0--7--8--|-----0--0--0-----3--3--3--|


     PM    PM  PM  PM             PM PM PM    PM PM     
  E  E  E  E   E   E  E  E     E  E  E  E  E  E  E  E   
----------------------------|--------------------------|
----------------------------|--------------------------|
----------------------------|--------------------------|
----------------------------|--------------------------|
--8-----7-------------7--8--|--5--------------------8--|
-----8-----8--10--10--------|-----0--0--0--8--0--0-----|


     PM PM PM PM PM PM             PM PM PM    PM PM PM  
  E  E  S  S  E  E  E  E  E     E  E  E  E  E  E  E  E   
-----------------------------|--------------------------|
-----------------------------|--------------------------|
-----------------------------|--------------------------|
-----------------------------|--------------------------|
--5--------------------------|--5-----------3-----------|
-----0--0--0--0--0--0--7--8--|-----0--0--0-----3--3--3--|


     PM    PM  PM  PM             PM PM PM    PM PM     
  E  E  E  E   E   E  E  E     E  E  E  E  E  E  E  E   
----------------------------|--------------------------|
----------------------------|--------------------------|
----------------------------|--------------------------|
----------------------------|--------------------------|
--8-----7-------------7--8--|--5--------------------8--|
-----8-----8--10--10--------|-----0--0--0--8--0--0-----|


     PM PM PM PM PM PM                                          
  E  E  S  S  E  E  E  E  E     H        H                      
-----------------------------|--------------------|-----|-----||
-----------------------------|--------------------|-----|-----||
-----------------------------|--------------------|-----|-----||
-----------------------------|--0-----------------|-----|-----||
--5--------------------------|--0-----------------|-----|-----||
-----0--0--0--0--0--0--7--8--|--0-----------------|-----|-----||




Duration Legend
---------------
W - whole
H - half
Q - quarter
E - 8th
S - 16th
T - 32nd
X - 64th
. - note dotted
|-n-|  - n-tuplets


Tablature Legend
----------------
L - tied note
x - dead note
g - grace note
(n) - ghost note
> - accentuded note
NH - natural harmonic
AH - artificial harmonic
TH - tapped harmonic
SH - semi harmonic
PH - pitch harmonic
h - hammer on
p - pull off
b - bend
br - bendRelease
pb - preBend
pbr - preBendRelease
brb - bendReleaseBend
\n/ - tremolo bar dip
\n - tremolo bar dive
-/n - tremolo bar Release up
/n\ - tremolo bar inverted dip
/n - tremolo bar return
-\n - tremolo bar Release down
S - shift slide
s - legato slide
/ -  slide into from below or out of upwards
\ -  slide into from above or out of downwards
~ - vibrato
W - wide vibrato
tr - trill
TP - tremolo picking
T - tapping
S - slap
P - pop
< - fade in
^ - brush up
v - brush down
comments
We did not receive enough feedback on this tab! Please rate:
print report bad tab
1 2 3 4 5
I want to post or [tab]
guest
You may want to rate the tab now too:
select rating
Please do not post tabs as comments. Select "correction" instead!