Oops, an error
Loading. Please wait.

Drenched In Fear Tab

12,169 views 27 this week
3 commentsread comments
1 2 3 4 5
accurate
x 1
Autoscroll
+/-
esc
set tempo
stop
Contributor
Difficulty
Tuning
novice
A# F A# D# G C
WARNING: You are trying to view
                                    content from Ultimate-Guitar.com
                                    in an unauthorized application,
                                    which is prohibited.

                                    Please use an official Ultimate
                                    Guitar Tabs application for iPhone,
                                    iPad or Android to access legitimate
                                    chords, guitar, bass, and drum tabs
                                    from Ultimate-Guitar.com database.

                                    Type "ultimate guitar tabs" in Apple
                                    App Store's or Android Market's
                                    search to find the application.
                                        

                             Drenched In Fear - In Flames



Tuning for guitars:
low to high:

A# F A# D# G C

Tempo= 105 bpm



Guitar 1

      W                   E  S S S T. T  T. S S S  S S S S S S  
C ||-------------------|---------------------------------------|
G ||-------------------|---------------------------------------|
D#||-------------------|---------------------------------------|
A#||-------------------|------------------------3p-2-----------|
F ||-------------------|--0--------0h-1p-0-------------------0-|
A#||-------------------|--0--0-3-5----------3-0------0-0-3-5---|


  E  S S S T. T  T. S S S S S S S S S    E  S S S T. T  T. S S S  S S S S S S  
--------------------------------------|---------------------------------------|
--------------------------------------|---------------------------------------|
------------------------7-7-7-5-5-3-3-|---------------------------------------|
--------------------------------------|------------------------3p-2-----------|
--0--------0h-1p-0--------------------|--0--------0h-1p-0-------------------0-|
--0--0-3-5----------3-0---------------|--0--0-3-5----------3-0------0-0-3-5---|


  E  S S S T. T  T. S S S S S S S S S    E  S S S T. T  T. S S S  S S S S S S  
--------------------------------------|---------------------------------------|
--------------------------------------|---------------------------------------|
--------------------------------------|---------------------------------------|
------------------------8-8-8-7-7-5-5-|------------------------3p-2-----------|
--0--------0h-1p-0--------------------|--0--------0h-1p-0-------------------0-|
--0--0-3-5----------3-0---------------|--0--0-3-5----------3-0------0-0-3-5---|


  E  S S S T. T  T. S S S S S S S S S    E  S S S T. T  T. S S S  S S S S S S  
--------------------------------------|---------------------------------------|
--------------------------------------|---------------------------------------|
------------------------7-7-7-5-5-3-3-|---------------------------------------|
--------------------------------------|------------------------3p-2-----------|
--0--------0h-1p-0--------------------|--0--------0h-1p-0-------------------0-|
--0--0-3-5----------3-0---------------|--0--0-3-5----------3-0------0-0-3-5---|


  E  S S S T. T  T. S S S S S S S S S    S S S S S S S S  
--------------------------------------|------------------|
--------------------------------------|------------------|
--------------------------------------|------------------|
------------------------8-8-8-7-7-5-5-|--8-8-8-8-8-8-8-8-|
--0--------0h-1p-0--------------------|------------------|
--0--0-3-5----------3-0---------------|------------------|


  S S  S S S S  S S S S  S S S  S S S  
--------------------------------------|
--------------------------------------|
------10---9-7----7-------------------|
--0-7----0-----10---0-0-10-0-8-10-8-7-|
--------------------------------------|
--------------------------------------|


  S S  S S S  S S  S  S  S  S  S  S  S  S  S  
---------------------------------------------|
------10----------------11-------------------|
-------------12---10----------14----12-------|
------------------------------------------15-|
--8-8----8-8----8----10----10----10----10----|
---------------------------------------------|


  S S  S S S S  S S S S  S S S  S S S  
--------------------------------------|
--------------------------------------|
------10---9-7----7-------------------|
--0-7----0-----10---0-0-10-0-8-10-8-7-|
--------------------------------------|
--------------------------------------|


  S S  S S S  S S  S  S  S  S  S  S  S  S  S  
---------------------------------------------|
------10----------------11-------------------|
-------------12---10----------14----12-------|
------------------------------------------15-|
--8-8----8-8----8----10----10----10----10----|
---------------------------------------------|


  S S  S S S S  S S S S  S S S  S S S  
--------------------------------------|
--------------------------------------|
------10---9-7----7-------------------|
--0-7----0-----10---0-0-10-0-8-10-8-7-|
--------------------------------------|
--------------------------------------|


  S S  S S S  S S  S  S  S  S  S  S  S  S  S  
---------------------------------------------|
------10----------------11-------------------|
-------------12---10----------14----12-------|
------------------------------------------15-|
--8-8----8-8----8----10----10----10----10----|
---------------------------------------------|


  S S  S S S S  S S S S  S S S  S S S  
--------------------------------------|
--------------------------------------|
------10---9-7----7-------------------|
--0-7----0-----10---0-0-10-0-8-10-8-7-|
--------------------------------------|
--------------------------------------|


  S S  S S S  S S  S  S  S  S  S  S  E.   
-----------------------------------------|
------10----------------11---------------|
-------------12---10----------14----12---|
-----------------------------------------|
--8-8----8-8----8----10----10----10------|
-----------------------------------------|


  E  S S S T. T  T. S S S  S S S S S S    E  S S S T. T  T. S S S S S S S S S  
---------------------------------------|--------------------------------------|
---------------------------------------|--------------------------------------|
---------------------------------------|------------------------7-7-7-5-5-3-3-|
------------------------3p-2-----------|--------------------------------------|
--0--------0h-1p-0-------------------0-|--0--------0h-1p-0--------------------|
--0--0-3-5----------3-0------0-0-3-5---|--0--0-3-5----------3-0---------------|


  E  S S S T. T  T. S S S  S S S S S S    E  S S S T. T  T. S S S S S S S S S  
---------------------------------------|--------------------------------------|
---------------------------------------|--------------------------------------|
---------------------------------------|--------------------------------------|
------------------------3p-2-----------|------------------------8-8-8-7-7-5-5-|
--0--------0h-1p-0-------------------0-|--0--------0h-1p-0--------------------|
--0--0-3-5----------3-0------0-0-3-5---|--0--0-3-5----------3-0---------------|


  S S S S S S S S    S S  S S S S  S S S S  S S S  S S S  
------------------|--------------------------------------|
------------------|--------------------------------------|
------------------|------10---9-7----7-------------------|
--8-8-8-8-8-8-8-8-|--0-7----0-----10---0-0-10-0-8-10-8-7-|
------------------|--------------------------------------|
------------------|--------------------------------------|


  S S  S S S  S S  S  S  S  S  S  S  S  S  S  
---------------------------------------------|
------10----------------11-------------------|
-------------12---10----------14----12-------|
------------------------------------------15-|
--8-8----8-8----8----10----10----10----10----|
---------------------------------------------|


  S S  S S S S  S S S S  S S S  S S S  
--------------------------------------|
--------------------------------------|
------10---9-7----7-------------------|
--0-7----0-----10---0-0-10-0-8-10-8-7-|
--------------------------------------|
--------------------------------------|


  S S  S S S  S S  S  S  S  S  S  S  S  S  S  
---------------------------------------------|
------10----------------11-------------------|
-------------12---10----------14----12-------|
------------------------------------------15-|
--8-8----8-8----8----10----10----10----10----|
---------------------------------------------|


  S S  S S S S  S S S S  S S S  S S S  
--------------------------------------|
--------------------------------------|
------10---9-7----7-------------------|
--0-7----0-----10---0-0-10-0-8-10-8-7-|
--------------------------------------|
--------------------------------------|


  S S  S S S  S S  S  S  S  S  S  S  S  S  S  
---------------------------------------------|
------10----------------11-------------------|
-------------12---10----------14----12-------|
------------------------------------------15-|
--8-8----8-8----8----10----10----10----10----|
---------------------------------------------|


  S S  S S S S  S S S S  S S S  S S S  
--------------------------------------|
--------------------------------------|
------10---9-7----7-------------------|
--0-7----0-----10---0-0-10-0-8-10-8-7-|
--------------------------------------|
--------------------------------------|


  S S  S S S  S S  S  S  S  S  S  S  E.     S S S S S S S S S S S S S S S S  
-----------------------------------------|----------------------------------|
------10----------------11---------------|----------------------------------|
-------------12---10----------14----12---|----------------------------------|
-----------------------------------------|--7-----5-----7-----5-----5---5-7-|
--8-8----8-8----8----10----10----10------|----------------------------------|
-----------------------------------------|----8-8---8-8---8-8---8-8---8-----|


                              |-3-|                                     
  S S S S S S S S S S S S S S S S S    S S S S S S S S S S S S S S S S  
------------------------------------|----------------------------------|
------------------------------------|----------------------------------|
------------------------------------|----------------------------------|
--7-----5-----7-----5-----5-7-5-----|--7-----5-----7-----5-----5---5-7-|
--------------------------------8-7-|----------------------------------|
----8-8---8-8---8-8---8-8-----------|----8-8---8-8---8-8---8-8---8-----|


                              |-3-|                                           
  S S S S S S S S S S S S S S S S S    E  E  E  E      Q.      H         S S  
------------------------------------|--------------|-------------------------|
------------------------------------|--------------|-------------------------|
------------------------------------|--------------|--10---------------------|
--7-----5-----7-----5-----5-7-5-----|--3-----------|----------10~--------8-7-|
--------------------------------8-7-|--1--3--5--7--|-------------------------|
----8-8---8-8---8-8---8-8-----------|-----3--5--7--|-------------------------|


  Q.     H         E      Q.      H         E     E   E   H          E   S S  
----------------------|------------------------|-----------------------------|
----------------------|------------------------|-----------------------------|
----------------------|--10--------------------|--9--10--12~---------L--10-9-|
--8-------------------|----------10~--------L--|-----------------------------|
---------8~--------L--|------------------------|-----------------------------|
----------------------|------------------------|-----------------------------|


   Q.      H         S S    Q.     H         E      Q.      H         E   
-------------------------|----------------------|------------------------|
-------------------------|----------------------|------------------------|
--10---------------------|----------------------|--10--------------------|
----------10~--------8-7-|--8-------------------|----------10~--------L--|
-------------------------|---------8~--------L--|------------------------|
-------------------------|----------------------|------------------------|


   E   E  Q      E  E  Q         H         H         
-----------------------------|----------------------|
-----------------------------|----------------------|
--12--10--9~----10--9--7~----|--12--------14--------|
-----------------------------|----------------------|
-----------------------------|--10--------12--------|
-----------------------------|----------------------|


         |--3--|  |--3--|                                                 
   Q     S  S  S  S  S  S  H             Q      E     E   Q       Q       
-------------------------------------|-------------------18br----18br----|
-------------------------------------|--18b----18br--15------------------|
--19----17-15-14----------19~--------|-----------------------------------|
-----------------17-15-14------------|-----------------------------------|
-------------------------------------|-----------------------------------|
-------------------------------------|-----------------------------------|


   |--3--|  |--3--|  |--3--|  |--3--|  |--3--|  |--3--|  |--3--|       
   S  S  S  S  S  S  S  S  S  S  S  S  S  S  S  S  S  S  S  S  S  E    
-----------------------------15-17-18---------------------------------|
-----------14-15-17-15-17-18----------17-18-20-18-17-15-17-15-13-18b--|
--14-15-17------------------------------------------------------------|
----------------------------------------------------------------------|
----------------------------------------------------------------------|
----------------------------------------------------------------------|


  S  S   S  S S S  S S S S  S S S  S S S  
-----------------------------------------|
--L~-L~--L~------------------------------|
--------10----9-7----7-------------------|
--0--7------0-----10---0-0-10-0-8-10-8-7-|
-----------------------------------------|
-----------------------------------------|


  S S  S S S  S S  S  S  S  S  S  S  S  S  S  
---------------------------------------------|
------10----------------11-------------------|
-------------12---10----------14----12-------|
------------------------------------------15-|
--8-8----8-8----8----10----10----10----10----|
---------------------------------------------|


  S S  S S S S  S S S S  S S S  S S S  
--------------------------------------|
--------------------------------------|
------10---9-7----7-------------------|
--0-7----0-----10---0-0-10-0-8-10-8-7-|
--------------------------------------|
--------------------------------------|


  S S  S S S  S S  S  S  S  S  S  S  E.     S S S S S S S S S S S S S S S S  
-----------------------------------------|----------------------------------|
------10----------------11---------------|----------------------------------|
-------------12---10----------14----12---|----------------------------------|
-----------------------------------------|--7-----5-----7-----5-----5---5-7-|
--8-8----8-8----8----10----10----10------|----------------------------------|
-----------------------------------------|----8-8---8-8---8-8---8-8---8-----|


                          vergessen                         
                                      |-3-|                 
  S S S S S S S S S S S S S         S S S S    E  E  E  E   
--------------------------------------------|--------------|
--------------------------------------------|--------------|
--------------------------------------------|--------------|
--7-----5-----7-----5-----5---------7-5-----|--3-----------|
----------------------------------------8-7-|--1--3--5--7--|
----8-8---8-8---8-8---8-8-------------------|-----3--5--7--|


   Q.      H         S S    Q.     H         E      Q.      H         E   
-------------------------|----------------------|------------------------|
-------------------------|----------------------|------------------------|
--10---------------------|----------------------|--10--------------------|
----------10~--------8-7-|--8-------------------|----------10~--------L--|
-------------------------|---------8~--------L--|------------------------|
-------------------------|----------------------|------------------------|


  E   E   H          E   S S     Q.      H         S S    Q.     H         E   
-----------------------------|-------------------------|----------------------|
-----------------------------|-------------------------|----------------------|
--9--10--12~---------L--10-9-|--10---------------------|----------------------|
-----------------------------|----------10~--------8-7-|--8-------------------|
-----------------------------|-------------------------|---------8~--------L--|
-----------------------------|-------------------------|----------------------|


   Q.      H         E      E   E  Q      E  E  Q      
------------------------|-----------------------------|
------------------------|-----------------------------|
--10--------------------|--12--10--9~----10--9--7~----|
----------10~--------L--|-----------------------------|
------------------------|-----------------------------|
------------------------|-----------------------------|


  S S S S S S S S S S S S S S S S    S S S S S S S S S S S S S S S S  
----------------------------------|----------------------------------|
----------------------------------|----------------------------------|
----------------------------------|----------------------------------|
----------------------------------|----------------------------------|
--5---------------5-------5---7---|--8---------------7-------7---7-8-|
----0-0-0-0-0-0-0---0-0-0---0---0-|----3-3-3-3-3-3-3---5-5-5---5-----|


  S S S S S S S S S S S S S S S S    S S S S S S S S  S S S S  S S  S  S  
----------------------------------|--------------------------------------|
----------------------------------|--------------------------------------|
----------------------------------|--------------------------------------|
----------------------------------|--------------------------------------|
--5---------------5-------5---7---|--8---------------10-------10---10-12-|
----0-0-0-0-0-0-0---0-0-0---0---0-|----3-3-3-3-3-3-3----8-8-8----8-------|


  S S  S S S S  S S S S  S S S  S S S  
--------------------------------------|
--------------------------------------|
------10---9-7----7-------------------|
--0-7----0-----10---0-0-10-0-8-10-8-7-|
--------------------------------------|
--------------------------------------|


  S S  S S S  S S  S  S  S  S  S  S  S  S  S  
---------------------------------------------|
------10----------------11-------------------|
-------------12---10----------14----12-------|
------------------------------------------15-|
--8-8----8-8----8----10----10----10----10----|
---------------------------------------------|


  S S  S S S S  S S S S  S S S  S S S  
--------------------------------------|
--------------------------------------|
------10---9-7----7-------------------|
--0-7----0-----10---0-0-10-0-8-10-8-7-|
--------------------------------------|
--------------------------------------|


  S S  S S S  S S  S  S  S  S  S  S  S  S  S  
---------------------------------------------|
------10----------------11-------------------|
-------------12---10----------14----12-------|
------------------------------------------15-|
--8-8----8-8----8----10----10----10----10----|
---------------------------------------------|


  S S  S S S S  S S S S  S S S  S S S    S S  S S S S  S S  
--------------------------------------|--------------------|
--------------------------------------|--------------------|
------10---9-7----7-------------------|------10---9-7----7-|
--0-7----0-----10---0-0-10-0-8-10-8-7-|--0-7----0-----10---|
--------------------------------------|--------------------|
--------------------------------------|--------------------|


   Q.      H         S S    Q.     H         E      Q.      H         E   
-------------------------|----------------------|------------------------|
-------------------------|----------------------|------------------------|
--10---------------------|----------------------|--10--------------------|
----------10~--------8-7-|--8-------------------|----------10~--------L--|
-------------------------|---------8~--------L--|------------------------|
-------------------------|----------------------|------------------------|


  E   E   H          E   S S     Q.      H         S S    Q.     H         E   
-----------------------------|-------------------------|----------------------|
-----------------------------|-------------------------|----------------------|
--9--10--12~---------L--10-9-|--10---------------------|----------------------|
-----------------------------|----------10~--------8-7-|--8-------------------|
-----------------------------|-------------------------|---------8~--------L--|
-----------------------------|-------------------------|----------------------|


   Q.      H         E      E   E  Q      E  E  Q      
------------------------|-----------------------------|
------------------------|-----------------------------|
--10--------------------|--12--10--9~----10--9--7~----|
----------10~--------L--|-----------------------------|
------------------------|-----------------------------|
------------------------|-----------------------------|


   Q.      H         S S    Q.     H         E      Q.      H         E   
-------------------------|----------------------|------------------------|
-------------------------|----------------------|------------------------|
--10---------------------|----------------------|--10--------------------|
----------10~--------8-7-|--8-------------------|----------10~--------L--|
-------------------------|---------8~--------L--|------------------------|
-------------------------|----------------------|------------------------|


  E   E   H          E   S S     Q.      H         S S    Q.     H         E   
-----------------------------|-------------------------|----------------------|
-----------------------------|-------------------------|----------------------|
--9--10--12~---------L--10-9-|--10---------------------|----------------------|
-----------------------------|----------10~--------8-7-|--8-------------------|
-----------------------------|-------------------------|---------8~--------L--|
-----------------------------|-------------------------|----------------------|


   Q.      H         E      E   E  Q      E  E  Q      
------------------------|-----------------------------|
------------------------|-----------------------------|
--10--------------------|--12--10--9~----10--9--7~----|
----------10~--------L--|-----------------------------|
------------------------|-----------------------------|
------------------------|-----------------------------|


  E  S S S T. T  T. S S S  S S S S S S    E  S S S T. T  T. S S S S S S S S S  
---------------------------------------|--------------------------------------|
---------------------------------------|--------------------------------------|
---------------------------------------|------------------------7-7-7-5-5-3-3-|
------------------------3p-2-----------|--------------------------------------|
--0--------0h-1p-0-------------------0-|--0--------0h-1p-0--------------------|
--0--0-3-5----------3-0------0-0-3-5---|--0--0-3-5----------3-0---------------|


  E  S S S T. T  T. S S S  S S S S S S    E  S S S T. T  T. S S S S S S S S S  
---------------------------------------|--------------------------------------|
---------------------------------------|--------------------------------------|
---------------------------------------|--------------------------------------|
------------------------3p-2-----------|------------------------8-8-8-7-7-5-5-|
--0--------0h-1p-0-------------------0-|--0--------0h-1p-0--------------------|
--0--0-3-5----------3-0------0-0-3-5---|--0--0-3-5----------3-0---------------|


  S S S S S S S S    H        H                                                 
------------------|--------------------|-------|-------|-------|-------|-------|
------------------|--------------------|-------|-------|-------|-------|-------|
------------------|--------------------|-------|-------|-------|-------|-------|
--8-8-8-8-8-8-8-8-|--------------------|-------|-------|-------|-------|-------|
------------------|--0-----------------|-------|-------|-------|-------|-------|
------------------|--0-----------------|-------|-------|-------|-------|-------|


-------|-------|-------|-------|-------|-------|-------|-------|-------|-------|
-------|-------|-------|-------|-------|-------|-------|-------|-------|-------|
-------|-------|-------|-------|-------|-------|-------|-------|-------|-------|
-------|-------|-------|-------|-------|-------|-------|-------|-------|-------|
-------|-------|-------|-------|-------|-------|-------|-------|-------|-------|
-------|-------|-------|-------|-------|-------|-------|-------|-------|-------|


-------|-------|-------|-------|-------|-------|-------|-------||
-------|-------|-------|-------|-------|-------|-------|-------||
-------|-------|-------|-------|-------|-------|-------|-------||
-------|-------|-------|-------|-------|-------|-------|-------||
-------|-------|-------|-------|-------|-------|-------|-------||
-------|-------|-------|-------|-------|-------|-------|-------||





________________________________________________________________________________
********************************************************************************
********************************************************************************
________________________________________________________________________________





Guitar 2

      W                   E  S S S T. T  T. S S S  S S S S S S  
C ||-------------------|---------------------------------------|
G ||-------------------|---------------------------------------|
D#||-------------------|---------------------------------------|
A#||-------------------|---------------------------------------|
F ||-------------------|--0--------0h-1p-0------5p-3---------0-|
A#||-------------------|--0--0-3-5----------3-0------0-0-3-5---|


  E  S S S T. T  T. S S S S S S S S S    E  S S S T. T  T. S S S  S S S S S S  
--------------------------------------|---------------------------------------|
--------------------------------------|---------------------------------------|
--------------------------------------|---------------------------------------|
------------------------8-8-8-7-7-5-5-|---------------------------------------|
--0--------0h-1p-0--------------------|--0--------0h-1p-0------5p-3---------0-|
--0--0-3-5----------3-0---------------|--0--0-3-5----------3-0------0-0-3-5---|


  E  S S S T. T  T. S S S S S S S S S    E  S S S T. T  T. S S S  S S S S S S  
--------------------------------------|---------------------------------------|
--------------------------------------|---------------------------------------|
--------------------------------------|---------------------------------------|
------------------------5-5-5-3-3-2-2-|---------------------------------------|
--0--------0h-1p-0--------------------|--0--------0h-1p-0------5p-3---------0-|
--0--0-3-5----------3-0---------------|--0--0-3-5----------3-0------0-0-3-5---|


  E  S S S T. T  T. S S S S S S S S S    E  S S S T. T  T. S S S  S S S S S S  
--------------------------------------|---------------------------------------|
--------------------------------------|---------------------------------------|
--------------------------------------|---------------------------------------|
------------------------8-8-8-7-7-5-5-|---------------------------------------|
--0--------0h-1p-0--------------------|--0--------0h-1p-0------5p-3---------0-|
--0--0-3-5----------3-0---------------|--0--0-3-5----------3-0------0-0-3-5---|


  E  S S S T. T  T. S S S S S S S S S    S S S S S S S S  
--------------------------------------|------------------|
--------------------------------------|------------------|
--------------------------------------|------------------|
------------------------5-5-5-3-3-2-2-|--5-5-5-5-5-5-5-5-|
--0--------0h-1p-0--------------------|------------------|
--0--0-3-5----------3-0---------------|------------------|


  S S  S S S S  S S S S  S S S  S S S  
--------------------------------------|
--------------------------------------|
------10---9-7----7-------------------|
--0-7----0-----10---0-0-10-0-8-10-8-7-|
--------------------------------------|
--------------------------------------|


  S S  S S S S S  S  S  S  S  S  S  S  S  S  
--------------------------------------------|
--------------------------------------------|
------10-----9---------12----10-------------|
-----------------12----------------14----12-|
--8-8----8-8---8----10----10----10----10----|
--------------------------------------------|


  S S  S S S S  S S S S  S S S  S S S  
--------------------------------------|
--------------------------------------|
------10---9-7----7-------------------|
--0-7----0-----10---0-0-10-0-8-10-8-7-|
--------------------------------------|
--------------------------------------|


  S S  S S S S S  S  S  S  S  S  S  S  S  S  
--------------------------------------------|
--------------------------------------------|
------10-----9---------12----10-------------|
-----------------12----------------14----12-|
--8-8----8-8---8----10----10----10----10----|
--------------------------------------------|


  S S  S S S S  S S S S  S S S  S S S  
--------------------------------------|
--------------------------------------|
------10---9-7----7-------------------|
--0-7----0-----10---0-0-10-0-8-10-8-7-|
--------------------------------------|
--------------------------------------|


  S S  S S S S S  S  S  S  S  S  S  S  S  S  
--------------------------------------------|
--------------------------------------------|
------10-----9---------12----10-------------|
-----------------12----------------14----12-|
--8-8----8-8---8----10----10----10----10----|
--------------------------------------------|


  S S  S S S S  S S S S  S S S  S S S    S S  S S S S S  S  S  S  S  S  S  E.   
--------------------------------------|----------------------------------------|
--------------------------------------|----------------------------------------|
------10---9-7----7-------------------|------10-----9---------12----10---------|
--0-7----0-----10---0-0-10-0-8-10-8-7-|-----------------12----------------14---|
--------------------------------------|--8-8----8-8---8----10----10----10------|
--------------------------------------|----------------------------------------|


  E  S S S T. T  T. S S S  S S S S S S    E  S S S T. T  T. S S S S S S S S S  
---------------------------------------|--------------------------------------|
---------------------------------------|--------------------------------------|
---------------------------------------|--------------------------------------|
---------------------------------------|------------------------8-8-8-7-7-5-5-|
--0--------0h-1p-0------5p-3---------0-|--0--------0h-1p-0--------------------|
--0--0-3-5----------3-0------0-0-3-5---|--0--0-3-5----------3-0---------------|


  E  S S S T. T  T. S S S  S S S S S S    E  S S S T. T  T. S S S S S S S S S  
---------------------------------------|--------------------------------------|
---------------------------------------|--------------------------------------|
---------------------------------------|--------------------------------------|
---------------------------------------|------------------------5-5-5-3-3-2-2-|
--0--------0h-1p-0------5p-3---------0-|--0--------0h-1p-0--------------------|
--0--0-3-5----------3-0------0-0-3-5---|--0--0-3-5----------3-0---------------|


  S S S S S S S S    S S  S S S S  S S S S  S S S  S S S  
------------------|--------------------------------------|
------------------|--------------------------------------|
------------------|------10---9-7----7-------------------|
--5-5-5-5-5-5-5-5-|--0-7----0-----10---0-0-10-0-8-10-8-7-|
------------------|--------------------------------------|
------------------|--------------------------------------|


  S S  S S S S S  S  S  S  S  S  S  S  S  S  
--------------------------------------------|
--------------------------------------------|
------10-----9---------12----10-------------|
-----------------12----------------14----12-|
--8-8----8-8---8----10----10----10----10----|
--------------------------------------------|


  S S  S S S S  S S S S  S S S  S S S  
--------------------------------------|
--------------------------------------|
------10---9-7----7-------------------|
--0-7----0-----10---0-0-10-0-8-10-8-7-|
--------------------------------------|
--------------------------------------|


  S S  S S S S S  S  S  S  S  S  S  S  S  S  
--------------------------------------------|
--------------------------------------------|
------10-----9---------12----10-------------|
-----------------12----------------14----12-|
--8-8----8-8---8----10----10----10----10----|
--------------------------------------------|


  S S  S S S S  S S S S  S S S  S S S  
--------------------------------------|
--------------------------------------|
------10---9-7----7-------------------|
--0-7----0-----10---0-0-10-0-8-10-8-7-|
--------------------------------------|
--------------------------------------|


  S S  S S S S S  S  S  S  S  S  S  S  S  S  
--------------------------------------------|
--------------------------------------------|
------10-----9---------12----10-------------|
-----------------12----------------14----12-|
--8-8----8-8---8----10----10----10----10----|
--------------------------------------------|


  S S  S S S S  S S S S  S S S  S S S    S S  S S S S S  S  S  S  S  S  S  E.   
--------------------------------------|----------------------------------------|
--------------------------------------|----------------------------------------|
------10---9-7----7-------------------|------10-----9---------12----10---------|
--0-7----0-----10---0-0-10-0-8-10-8-7-|-----------------12----------------14---|
--------------------------------------|--8-8----8-8---8----10----10----10------|
--------------------------------------|----------------------------------------|


                                                                 |-3-|  
  S S S S S S S S S S S S S S S S    S S S S S S S S S S S S S S S S S  
----------------------------------|------------------------------------|
----------------------------------|------------------------------------|
----------------------------------|------------------------------------|
--3-----2-----3-----2-----2---2-3-|--3-----2-----3-----2-----2-3-2-----|
----1-1---1-1---1-1---1-1---1-----|----1-1---1-1---1-1---1-1-------5-3-|
----------------------------------|------------------------------------|


                                                                 |-3-|  
  S S S S S S S S S S S S S S S S    S S S S S S S S S S S S S S S S S  
----------------------------------|------------------------------------|
----------------------------------|------------------------------------|
----------------------------------|------------------------------------|
--3-----2-----3-----2-----2---2-3-|--3-----2-----3-----2-----2-3-2-----|
----1-1---1-1---1-1---1-1---1-----|----1-1---1-1---1-1---1-1-------5-3-|
----------------------------------|------------------------------------|


  E  E  E  E     E  E  E  E  E  E  E  E     E  E  E  E  E  E  E  E   
--------------|--------------------------|--------------------------|
--------------|--------------------------|--------------------------|
--------------|--------------------------|--------------------------|
--3-----------|--3--3--3--3--3--3--3--3--|--------------------------|
--1--3--5--7--|--1--1--1--1--1--1--1--1--|--5--5--5--5--5--5--5--5--|
-----3--5--7--|--------------------------|--5--5--5--5--5--5--5--5--|


  E  E  E  E  E  E  E  E     E  E  H        Q       E  E  E  E  E  E  E  E   
--------------------------|----------------------|--------------------------|
--------------------------|----------------------|--------------------------|
--------------------------|----------------------|--------------------------|
--------------------------|--5--5--5--------L----|--3--3--3--3--3--3--3--3--|
--3--3--3--3--3--3--3--3--|--3--3--3--------L----|--1--1--1--1--1--1--1--1--|
--3--3--3--3--3--3--3--3--|----------------------|--------------------------|


                                                                    Vergessen  
  E  E  E  E  E  E  E  E     E  E  E  E  E  E  E  E     E  E  E  E  H          
--------------------------|--------------------------|------------------------|
--------------------------|--------------------------|------------------------|
--------------------------|--------------------------|------------------------|
--------------------------|--------------------------|--5--5--5--5--3---------|
--5--5--5--5--5--5--5--5--|--3--3--3--3--3--3--3--3--|--3--3--3--3--1---------|
--5--5--5--5--5--5--5--5--|--3--3--3--3--3--3--3--3--|------------------------|


  PM PM PM      PM PM PM             PM PM PM      PM PM PM           
  S  S  S  S E  S  S  S  S Q.        S  S  S  S E  S  S  S  S Q.      
----------------------------------|----------------------------------|
----------------------------------|----------------------------------|
----------------------------------|----------------------------------|
----------------------------------|----------------------------------|
-----------0-------------0--------|-----------0-------------0--------|
--0--0--3-------0--0--3-----------|--0--0--3-------0--0--3-----------|


  S S S S S S S S S S S S S S S S    S S S S S S S S S S S S S S S S  
----------------------------------|----------------------------------|
----------------------------------|----------------------------------|
----------------------------------|----------------------------------|
--7-----5-----7-----5-----5---5-7-|--7-----5-----7-----5-----5---5-7-|
----------------------------------|----------------------------------|
----5-5---5-5---5-5---5-5---5-----|----5-5---5-5---5-5---5-5---5-----|


  S S  S S S S  S S S S  S S S  S S S  
--------------------------------------|
--------------------------------------|
------10---9-7----7-------------------|
--0-7----0-----10---0-0-10-0-8-10-8-7-|
--------------------------------------|
--------------------------------------|


  S S  S S S S S  S  S  S  S  S  S  S  S  S  
--------------------------------------------|
--------------------------------------------|
------10-----9---------12----10-------------|
-----------------12----------------14----12-|
--8-8----8-8---8----10----10----10----10----|
--------------------------------------------|


  S S  S S S S  S S S S  S S S  S S S    S S  S S S S S  S  S  S  S  S  S  E.   
--------------------------------------|----------------------------------------|
--------------------------------------|----------------------------------------|
------10---9-7----7-------------------|------10-----9---------12----10---------|
--0-7----0-----10---0-0-10-0-8-10-8-7-|-----------------12----------------14---|
--------------------------------------|--8-8----8-8---8----10----10----10------|
--------------------------------------|----------------------------------------|


                                                                 |-3-|  
  S S S S S S S S S S S S S S S S    S S S S S S S S S S S S S S S S S  
----------------------------------|------------------------------------|
----------------------------------|------------------------------------|
----------------------------------|------------------------------------|
--3-----2-----3-----2-----2---2-3-|--3-----2-----3-----2-----2-3-2-----|
----1-1---1-1---1-1---1-1---1-----|----1-1---1-1---1-1---1-1-------5-3-|
----------------------------------|------------------------------------|


  E  E  E  E     E  E  E  E  E  E  E  E     E  E  E  E  E  E  E  E   
--------------|--------------------------|--------------------------|
--------------|--------------------------|--------------------------|
--------------|--------------------------|--------------------------|
--3-----------|--3--3--3--3--3--3--3--3--|--------------------------|
--1--3--5--7--|--1--1--1--1--1--1--1--1--|--5--5--5--5--5--5--5--5--|
-----3--5--7--|--------------------------|--5--5--5--5--5--5--5--5--|


  E  E  E  E  E  E  E  E     E  E  H        Q       E  E  E  E  E  E  E  E   
--------------------------|----------------------|--------------------------|
--------------------------|----------------------|--------------------------|
--------------------------|----------------------|--------------------------|
--------------------------|--5--5--5--------L----|--3--3--3--3--3--3--3--3--|
--3--3--3--3--3--3--3--3--|--3--3--3--------L----|--1--1--1--1--1--1--1--1--|
--3--3--3--3--3--3--3--3--|----------------------|--------------------------|


                                                                    Vergessen  
  E  E  E  E  E  E  E  E     E  E  E  E  E  E  E  E     E  E  E  E  H          
--------------------------|--------------------------|------------------------|
--------------------------|--------------------------|------------------------|
--------------------------|--------------------------|------------------------|
--------------------------|--------------------------|--5--5--5--5--3---------|
--5--5--5--5--5--5--5--5--|--3--3--3--3--3--3--3--3--|--3--3--3--3--1---------|
--5--5--5--5--5--5--5--5--|--3--3--3--3--3--3--3--3--|------------------------|


  S S S S S S S S S S S S S S S S    S S S S S S S S S S S S S S S S  
----------------------------------|----------------------------------|
----------------------------------|----------------------------------|
----------------------------------|----------------------------------|
----------------------------------|----------------------------------|
--5---------------5-------5---7---|--8---------------7-------7---7-8-|
----0-0-0-0-0-0-0---0-0-0---0---0-|----3-3-3-3-3-3-3---5-5-5---5-----|


  S S S S S S S S S S S S S S S S    S S S S S S S S  S S S S  S S  S  S  
----------------------------------|--------------------------------------|
----------------------------------|--------------------------------------|
----------------------------------|--------------------------------------|
----------------------------------|--------------------------------------|
--5---------------5-------5---7---|--8---------------10-------10---10-12-|
----0-0-0-0-0-0-0---0-0-0---0---0-|----3-3-3-3-3-3-3----8-8-8----8-------|


  S S S S S S S S S S S S S S S S    S S S S S S S S S S S S S S S S  
----------------------------------|----------------------------------|
----------------------------------|----------------------------------|
----------------------------------|----------------------------------|
----------------------------------|----------------------------------|
--5---------------5-------5---7---|--8---------------7-------7---7-8-|
----0-0-0-0-0-0-0---0-0-0---0---0-|----3-3-3-3-3-3-3---5-5-5---5-----|


  S S S S S S S S S S S S S S S S    S S S S S S S S  S S S S  S S  S  S  
----------------------------------|--------------------------------------|
----------------------------------|--------------------------------------|
----------------------------------|--------------------------------------|
----------------------------------|--------------------------------------|
--5---------------5-------5---7---|--8---------------10-------10---10-12-|
----0-0-0-0-0-0-0---0-0-0---0---0-|----3-3-3-3-3-3-3----8-8-8----8-------|


  S S  S S S S  S S S S  S S S  S S S    Q     E   E   
--------------------------------------|---------------|
--------------------------------------|---------------|
------10---9-7----7-------------------|---------------|
--0-7----0-----10---0-0-10-0-8-10-8-7-|---------------|
--------------------------------------|-------12s--0--|
--------------------------------------|-------12s--0--|


  E  E  E  E  E  E  E  E     E  E  E  E  E  E  E  E   
--------------------------|--------------------------|
--------------------------|--------------------------|
--------------------------|--------------------------|
--3--3--3--3--3--3--3--3--|--------------------------|
--1--1--1--1--1--1--1--1--|--5--5--5--5--5--5--5--5--|
--------------------------|--5--5--5--5--5--5--5--5--|


  E  E  E  E  E  E  E  E     E  E  H        Q       E  E  E  E  E  E  E  E   
--------------------------|----------------------|--------------------------|
--------------------------|----------------------|--------------------------|
--------------------------|----------------------|--------------------------|
--------------------------|--5--5--5--------L----|--3--3--3--3--3--3--3--3--|
--3--3--3--3--3--3--3--3--|--3--3--3--------L----|--1--1--1--1--1--1--1--1--|
--3--3--3--3--3--3--3--3--|----------------------|--------------------------|


                                                                    Vergessen  
  E  E  E  E  E  E  E  E     E  E  E  E  E  E  E  E     E  E  E  E  H          
--------------------------|--------------------------|------------------------|
--------------------------|--------------------------|------------------------|
--------------------------|--------------------------|------------------------|
--------------------------|--------------------------|--5--5--5--5--3---------|
--5--5--5--5--5--5--5--5--|--3--3--3--3--3--3--3--3--|--3--3--3--3--1---------|
--5--5--5--5--5--5--5--5--|--3--3--3--3--3--3--3--3--|------------------------|


  W                   W                   W                   W                 
-------------------|-------------------|-------------------|-------------------|
-------------------|-------------------|-------------------|-------------------|
-------------------|-------------------|-------------------|-------------------|
--3----------------|-------------------|-------------------|--5----------------|
--1----------------|--5----------------|--3----------------|--3----------------|
-------------------|--5----------------|--3----------------|-------------------|


  S S S S S S S S S S S S S S S S    S S S S S S S S S S S S S S S S  
----------------------------------|----------------------------------|
----------------------------------|----------------------------------|
----------------------------------|----------------------------------|
--3-3-3-3-3-3-3-3-3-3-3-3-3-3-3-3-|----------------------------------|
--1-1-1-1-1-1-1-1-1-1-1-1-1-1-1-1-|--5-5-5-5-5-5-5-5-5-5-5-5-5-5-5-5-|
----------------------------------|--5-5-5-5-5-5-5-5-5-5-5-5-5-5-5-5-|


  S S S S S S S S S S S S S S S S    S S S S S S S S S S S S Q     
----------------------------------|-------------------------------|
----------------------------------|-------------------------------|
----------------------------------|-------------------------------|
----------------------------------|--5-5-5-5-5-5-5-5-3-3-3-3-3----|
--3-3-3-3-3-3-3-3-3-3-3-3-3-3-3-3-|--3-3-3-3-3-3-3-3-1-1-1-1-1----|
--3-3-3-3-3-3-3-3-3-3-3-3-3-3-3-3-|-------------------------------|


       PM PM                              
  E  S S  S  T. T  T. S S S  S S S S S S  
-----------------------------------------|
-----------------------------------------|
-----------------------------------------|
-----------------------------------------|
--0----------0h-1p-0------5p-3---------0-|
--0--0-3--5-----------3-0------0-0-3-5---|


       PM PM                             
  E  S S  S  T. T  T. S S S S S S S S S  
----------------------------------------|
----------------------------------------|
----------------------------------------|
--------------------------8-8-8-7-7-5-5-|
--0----------0h-1p-0--------------------|
--0--0-3--5-----------3-0---------------|


       PM PM                              
  E  S S  S  T. T  T. S S S  S S S S S S  
-----------------------------------------|
-----------------------------------------|
-----------------------------------------|
-----------------------------------------|
--0----------0h-1p-0------5p-3---------0-|
--0--0-3--5-----------3-0------0-0-3-5---|


       PM PM                                                
  E  S S  S  T. T  T. S S S S S S S S S    S S S S S S S S  
----------------------------------------|------------------|
----------------------------------------|------------------|
----------------------------------------|------------------|
--------------------------5-5-5-3-3-2-2-|--5-5-5-5-5-5-5-5-|
--0----------0h-1p-0--------------------|------------------|
--0--0-3--5-----------3-0---------------|------------------|


  H        H                                                                 
--------------------|-------|-------|-------|-------|-------|-------|-------|
--------------------|-------|-------|-------|-------|-------|-------|-------|
--------------------|-------|-------|-------|-------|-------|-------|-------|
--------------------|-------|-------|-------|-------|-------|-------|-------|
--0-----------------|-------|-------|-------|-------|-------|-------|-------|
--0-----------------|-------|-------|-------|-------|-------|-------|-------|


-------|-------|-------|-------|-------|-------|-------|-------|-------|-------|
-------|-------|-------|-------|-------|-------|-------|-------|-------|-------|
-------|-------|-------|-------|-------|-------|-------|-------|-------|-------|
-------|-------|-------|-------|-------|-------|-------|-------|-------|-------|
-------|-------|-------|-------|-------|-------|-------|-------|-------|-------|
-------|-------|-------|-------|-------|-------|-------|-------|-------|-------|


-------|-------|-------|-------|-------|-------||
-------|-------|-------|-------|-------|-------||
-------|-------|-------|-------|-------|-------||
-------|-------|-------|-------|-------|-------||
-------|-------|-------|-------|-------|-------||
-------|-------|-------|-------|-------|-------||






___________________________________________________________________________________
***********************************************************************************
___________________________________________________________________________________


Solo guitar


C ||-------|-------|-------|-------|-------|-------|-------|-------|-------|
G ||-------|-------|-------|-------|-------|-------|-------|-------|-------|
D#||-------|-------|-------|-------|-------|-------|-------|-------|-------|
A#||-------|-------|-------|-------|-------|-------|-------|-------|-------|
F ||-------|-------|-------|-------|-------|-------|-------|-------|-------|
A#||-------|-------|-------|-------|-------|-------|-------|-------|-------|


-------|-------|-------|-------|-------|-------|-------|-------|-------|-------|
-------|-------|-------|-------|-------|-------|-------|-------|-------|-------|
-------|-------|-------|-------|-------|-------|-------|-------|-------|-------|
-------|-------|-------|-------|-------|-------|-------|-------|-------|-------|
-------|-------|-------|-------|-------|-------|-------|-------|-------|-------|
-------|-------|-------|-------|-------|-------|-------|-------|-------|-------|


-------|-------|-------|-------|-------|-------|-------|-------|-------|-------|
-------|-------|-------|-------|-------|-------|-------|-------|-------|-------|
-------|-------|-------|-------|-------|-------|-------|-------|-------|-------|
-------|-------|-------|-------|-------|-------|-------|-------|-------|-------|
-------|-------|-------|-------|-------|-------|-------|-------|-------|-------|
-------|-------|-------|-------|-------|-------|-------|-------|-------|-------|


                                   S S S S S S  S S S S S S S S S  S  
-------|-------|-------|-------|-------------------------------------|
-------|-------|-------|-------|-------------------------------------|
-------|-------|-------|-------|--10-----9-----10-----9-----9---9-10-|
-------|-------|-------|-------|-------------------------------------|
-------|-------|-------|-------|-------------------------------------|
-------|-------|-------|-------|-----8-8---8-8----8-8---8-8---8------|


                            vergessen                     
                                         |--3--|          
   S S S S S S  S S S S S S S          S S  S  S          
-------------------------------------------------|-------|
-------------------------------------------------|-------|
--10-----9-----10-----9-----9---------10-9-------|-------|
-------------------------------------------12-10-|-------|
-------------------------------------------------|-------|
-----8-8---8-8----8-8---8-8----------------------|-------|


   Q.      H          S  S     Q.      H         E      Q.      H         E   
---------------------------|------------------------|------------------------|
--18-----------------------|------------------------|--18--------------------|
----------17~--------15-14-|--15--------------------|----------17~--------L--|
---------------------------|----------15~--------L--|------------------------|
---------------------------|------------------------|------------------------|
---------------------------|------------------------|------------------------|


   E   E   H         E   S  S     Q.      H          S  S  
------------------------------|---------------------------|
------------------------18-17-|--18-----------------------|
------------------------------|----------17~--------15-14-|
--10--12--14~--------L--------|---------------------------|
------------------------------|---------------------------|
------------------------------|---------------------------|


   Q.      H         E      Q.      H         E   
------------------------|------------------------|
------------------------|--18--------------------|
--15--------------------|----------17~--------L--|
----------15~--------L--|------------------------|
------------------------|------------------------|
------------------------|------------------------|


                                  PM PM PM      PM PM PM           
   E   E   Q      E   E  Q        S  S  S  S E  S  S  S  S Q.      
-------------------------------|----------------------------------|
-------------------------------|----------------------------------|
-------------------------------|----------------------------------|
--10--12--14~----12--10--8~----|----------------------------------|
-------------------------------|-----------0-------------0--------|
-------------------------------|--0--0--3-------0--0--3-----------|


  PM PM PM      PM PM PM                                              
  S  S  S  S E  S  S  S  S Q.        S S S S S S S S S S S S S S S S  
----------------------------------|----------------------------------|
----------------------------------|----------------------------------|
----------------------------------|----------------------------------|
----------------------------------|--7-----5-----7-----5-----5---5-7-|
-----------0-------------0--------|----------------------------------|
--0--0--3-------0--0--3-----------|----5-5---5-5---5-5---5-5---5-----|


  S S S S S S S S S S S S S S S S                      
----------------------------------|----|----|----|----|
----------------------------------|----|----|----|----|
----------------------------------|----|----|----|----|
--7-----5-----7-----5-----5---5-7-|----|----|----|----|
----------------------------------|----|----|----|----|
----5-5---5-5---5-5---5-5---5-----|----|----|----|----|


   S S S S S S  S S S S S S S S S  S  
-------------------------------------|
-------------------------------------|
--10-----9-----10-----9-----9---9-10-|
-----8-8---8-8----8-8---8-8---8------|
-------------------------------------|
-------------------------------------|


                            vergessen                         
                                         |--3--|              
   S S S S S S  S S S S S S S          S S  S  S    H         
-------------------------------------------------|-----------|
-------------------------------------------------|-----------|
--10-----9-----10-----9-----9---------10-9-------|-----------|
-----8-8---8-8----8-8---8-8----------------12-10-|-----------|
-------------------------------------------------|-----------|
-------------------------------------------------|-----------|


   Q.      H          S  S     Q.      H         E      Q.      H         E   
---------------------------|------------------------|------------------------|
--18-----------------------|------------------------|--18--------------------|
----------17~--------15-14-|--15--------------------|----------17~--------L--|
---------------------------|----------15~--------L--|------------------------|
---------------------------|------------------------|------------------------|
---------------------------|------------------------|------------------------|


   E   E   H         E   S  S     Q.      H          S  S  
------------------------------|---------------------------|
------------------------18-17-|--18-----------------------|
------------------------------|----------17~--------15-14-|
--10--12--14~--------L--------|---------------------------|
------------------------------|---------------------------|
------------------------------|---------------------------|


   Q.      H         E      Q.      H         E   
------------------------|------------------------|
------------------------|--18--------------------|
--15--------------------|----------17~--------L--|
----------15~--------L--|------------------------|
------------------------|------------------------|
------------------------|------------------------|


   E   E   Q      E   E  Q                                      
-------------------------------|-------|-------|-------|-------|
-------------------------------|-------|-------|-------|-------|
-------------------------------|-------|-------|-------|-------|
--10--12--14~----12--10--8~----|-------|-------|-------|-------|
-------------------------------|-------|-------|-------|-------|
-------------------------------|-------|-------|-------|-------|


  S S  S S S S  S S S S  S S S  S S S  
--------------------------------------|
--------------------------------------|
------10---9-7----7-------------------|
--0-7----0-----10---0-0-10-0-8-10-8-7-|
--------------------------------------|
--------------------------------------|


  S S  S S S S S  S  S  S  S  S  S  S  S  S  
--------------------------------------------|
--------------------------------------------|
------10-----9---------12----10-------------|
-----------------12----------------14----12-|
--8-8----8-8---8----10----10----10----10----|
--------------------------------------------|


  S S  S S S S  S S S S  S S S  S S S  
--------------------------------------|
--------------------------------------|
------10---9-7----7-------------------|
--0-7----0-----10---0-0-10-0-8-10-8-7-|
--------------------------------------|
--------------------------------------|


  S S  S S S S S  S  S  S  S  S  S  S  S  S                  
--------------------------------------------|-------|-------|
--------------------------------------------|-------|-------|
------10-----9---------12----10-------------|-------|-------|
-----------------12----------------14----12-|-------|-------|
--8-8----8-8---8----10----10----10----10----|-------|-------|
--------------------------------------------|-------|-------|


   Q.      H          S  S     Q.      H         E      Q.      H         E   
---------------------------|------------------------|------------------------|
--18-----------------------|------------------------|--18--------------------|
----------17~--------15-14-|--15--------------------|----------17~--------L--|
---------------------------|----------15~--------L--|------------------------|
---------------------------|------------------------|------------------------|
---------------------------|------------------------|------------------------|


   E   E   H         E   S  S     Q.      H          S  S  
------------------------------|---------------------------|
------------------------18-17-|--18-----------------------|
------------------------------|----------17~--------15-14-|
--10--12--14~--------L--------|---------------------------|
------------------------------|---------------------------|
------------------------------|---------------------------|


   Q.      H         E      Q.      H         E   
------------------------|------------------------|
------------------------|--18--------------------|
--15--------------------|----------17~--------L--|
----------15~--------L--|------------------------|
------------------------|------------------------|
------------------------|------------------------|


   E   E   Q      E   E  Q         Q.      H          S  S  
-------------------------------|---------------------------|
-------------------------------|--18-----------------------|
-------------------------------|----------17~--------15-14-|
--10--12--14~----12--10--8~----|---------------------------|
-------------------------------|---------------------------|
-------------------------------|---------------------------|


   Q.      H         E      Q.      H         E   
------------------------|------------------------|
------------------------|--18--------------------|
--15--------------------|----------17~--------L--|
----------15~--------L--|------------------------|
------------------------|------------------------|
------------------------|------------------------|


   E   E   H         E   S  S     Q.      H          S  S  
------------------------------|---------------------------|
------------------------18-17-|--18-----------------------|
------------------------------|----------17~--------15-14-|
--10--12--14~--------L--------|---------------------------|
------------------------------|---------------------------|
------------------------------|---------------------------|


   Q.      H         E      Q.      H         E   
------------------------|------------------------|
------------------------|--18--------------------|
--15--------------------|----------17~--------L--|
----------15~--------L--|------------------------|
------------------------|------------------------|
------------------------|------------------------|


   E   E   Q      E   E  Q                                                      
-------------------------------|-------|-------|-------|-------|-------|-------|
-------------------------------|-------|-------|-------|-------|-------|-------|
-------------------------------|-------|-------|-------|-------|-------|-------|
--10--12--14~----12--10--8~----|-------|-------|-------|-------|-------|-------|
-------------------------------|-------|-------|-------|-------|-------|-------|
-------------------------------|-------|-------|-------|-------|-------|-------|


-------|-------|-------|-------|-------|-------|-------|-------|-------|-------|
-------|-------|-------|-------|-------|-------|-------|-------|-------|-------|
-------|-------|-------|-------|-------|-------|-------|-------|-------|-------|
-------|-------|-------|-------|-------|-------|-------|-------|-------|-------|
-------|-------|-------|-------|-------|-------|-------|-------|-------|-------|
-------|-------|-------|-------|-------|-------|-------|-------|-------|-------|


-------|-------|-------|-------|-------|-------|-------|-------|-------|-------|
-------|-------|-------|-------|-------|-------|-------|-------|-------|-------|
-------|-------|-------|-------|-------|-------|-------|-------|-------|-------|
-------|-------|-------|-------|-------|-------|-------|-------|-------|-------|
-------|-------|-------|-------|-------|-------|-------|-------|-------|-------|
-------|-------|-------|-------|-------|-------|-------|-------|-------|-------|


-------|-------|-------||
-------|-------|-------||
-------|-------|-------||
-------|-------|-------||
-------|-------|-------||
-------|-------|-------||













____________________________________________________________________________________
************************************************************************************
####################################################################################
____________________________________________________________________________________



Bass

A# F A# D# G

      W                   E  S S S T. T T. S S S S S S S S S  
G ||-------------------|-------------------------------------|
D#||-------------------|-------------------------------------|
A#||-------------------|-------------------------------------|
comments
We did not receive enough feedback on this tab! Please rate:
1 2 3 4 5
3 comments total.
0 reply
J-E-N-O-V-A wrote on November 12 2008, 03:51 am

Pretty good tab, but I've noticed a small thing.

VERSE


--------------------------------------|
--------------------------------------|
------10---9-7----7-------------------|
--0-7----0-----10---0-7-10-0-8-10-8-7-|
--------------------------------------|
--------------------------------------|


I think that's more correct.

0 reply
XD!!! wrote on October 18 2009, 05:32 am

Very good tab!!!!

0 reply
xlog wrote on June 2 2010, 05:09 am

Good tab, but novice?

I want to post or [tab]
guest
You may want to rate the tab now too:
select rating
Please do not post tabs as comments. Select "correction" instead!