Oops, an error
Loading. Please wait.

Eye Of The Beholder Tab

1,971 views 1 this week
1 commentread comment
1 2 3 4 5
accurate
x 3
add to favorites launch autoscroll
font size
0
reset
Autoscroll
+/-
esc
set tempo
stop
Contributor
Difficulty
advanced
WARNING: You are trying to view
                                    content from Ultimate-Guitar.com
                                    in an unauthorized application,
                                    which is prohibited.

                                    Please use an official Ultimate
                                    Guitar Tabs application for iPhone,
                                    iPad or Android to access legitimate
                                    chords, guitar, bass, and drum tabs
                                    from Ultimate-Guitar.com database.

                                    Type "ultimate guitar tabs" in Apple
                                    App Store's or Android Market's
                                    search to find the application.
                               EYE OF THE BEHOLDER 
                         by IN flames
                 



          F#                    G                    A                    E
      2 4 4 3 x x          3 5 5 4 x x          5 7 7 6 x x          0 2 2 1 x x

   Intro - Fade In
    Q=124
   4/4
    Gtr I                         Gtrs I, II
      PM--|   PM----------------------------|   PM------------|
                              14x
||-----------------------------||-||----------------------------|
||o---------------------------o||-||o---------------------------|
||-----------------------------||-||----------------------------|
||----------9------------------||-||----------------------------|
||o---------7-----------------o||-||o-2-2-2-2-2-5-5-5-5-5-5-5-5-|
||--0-0-0-0-0-0-0-0-0-0-0-0-0--||-||--3-3-3-3-3-2-2-2-2-2-2-2-2-|


                                                           2/4
  PM----|   PM------------------------|   PM----------------------|
                             3x
|----------------------------||---------------------------|------------||
|---------------------------o||---------------------------|------------||
|----------------------------||---------------------------|------------||
|----------------------------||---------------------------|------------||
|-2-2-2-2-2-2-2-2-2-2-2-2-2-o||-2-2-2-2-2-5-5-5-5-5-5-5-5-|-2-2-2-2-2--||
|-2-2-2-2-2-0-0-0-0-0-0-0-0--||-3-3-3-3-3-2-2-2-2-2-2-2-2-|-2-2-2-2-2--||


   4/4
      PM----------------------------------|       ~    PM------|       ~
                           4x
||-------------------------||-||---------------------|--------------------|
||o-----------------------o||-||o--------------------|--------------------|
||-------------------------||-||---------------------|--------------------|
||-------------------------||-||------------9-9-9-8--|-----------9-9-9-8--|
||o---7-----------7---7---o||-||o---7-------7-7-7-7--|---7-------7-7-7-7--|
||--0-0-0-0-0-0-0-0-0-0-0--||-||--0-0-0-0-0----------|-0-0-0-0-0----------|


                      1.
  PM------|       ~    PM------|
|--------------------|----------------------------||
|--------------------|---------------------------o||
|--------------------|----------------------------||
|-----------9-9-9-8--|-----------8h9p8------------||
|---7-------7-7-7-7--|---7---------------7h8p7---o||
|-0-0-0-0-0----------|-0-0-0-0-0-------0-------0--||


  2.
                             2/4               4/4
  PM------|
|---------------------------|-----------------|-----------||
|---------------------------|-----------------|-----------||
|---------------------------|-----------------|-----------||
|-----------8h9p8-----------|-----------------|-2----2----||
|-7-7-7-7-7---------7h8p7---|-----------------|-2----2----||
|-0-0-0-0-0-------0-------0-|-6h7p6-0-2h3p2-0-|-0----0----||


   Verse 1 & 3
    PM--------------------|
||----------------------------|
||o---------------------------|
||--------------------------4-|
||--------------------------5-|
||o-------------------------5-|
||--0-0-0-0-0-0-0-0-3-3-3-3-3-|


  PM--------------------|     PM--------------------|
|---------------------------|-----------------------------|
|---------------------------|-----------------------------|
|-------------------------3-|-------------------------4---|
|-------------------------4-|-------------------------5---|
|-------------------------4-|-------------------------5---|
|-2-2-2-2-2-2-2-2-2-2-2-2-2-|-0-0-0-0-0-0-0-0-3-3-3-3-3---|


  PM--------------------|
|---------------------------|
|---------------------------|
|-------------------------3-|
|-------------------------4-|
|-------------------------4-|
|-2-2-2-2-2-2-2-2-2-2-2-2-2-|


  PM--------------------|     PM--------------------|
|---------------------------|---------------------------|
|---------------------------|---------------------------|
|-------------------------4-|-------------------------3-|
|-------------------------5-|-------------------------4-|
|-------------------------5-|-------------------------4-|
|-0-0-0-0-0-0-0-0-3-3-3-3-3-|-2-2-2-2-2-2-2-2-2-2-2-2-2-|


  PM--------------------|     PM--------------------|
|---------------------------|---------------------------|
|---------------------------|---------------------------|
|-------------------------4-|-------------------------3-|
|-------------------------5-|-------------------------4-|
|-------------------------5-|-------------------------4-|
|-0-0-0-0-0-0-0-0-3-3-3-3-3-|-2-2-2-2-2-2-2-2-2-2-2-2-2-|


  PM--------------------|     PM----------------------|
|---------------------------|------------------------------||
|---------------------------|------------------------------||
|---------------------------|------------------------------||
|---------------------------|------------------------------||
|-------------------------7-|---------------------------7--||
|-0-0-0-0-0-0-0-0-0-0-0-0-0-|-0-0-0-0-0-0-0-0-0-0-0-0-0-0--||


 Verse 2, 4 & 5
  $
  PM--------------------|
|---------------------------|
|---------------------------|
|-------------------------4-|
|-------------------------5-|
|-------------------------5-|
|-0-0-0-0-0-0-0-0-3-3-3-3-3-|


  PM--------------------|     PM--------------------|
|---------------------------|---------------------------|
|---------------------------|---------------------------|
|-------------------------3-|-------------------------4-|
|-------------------------4-|-------------------------5-|
|-------------------------4-|-------------------------5-|
|-2-2-2-2-2-2-2-2-2-2-2-2-2-|-0-0-0-0-0-0-0-0-3-3-3-3-3-|


  PM--------------------|
|---------------------------|
|---------------------------|
|-------------------------3-|
|-------------------------4-|
|-------------------------4-|
|-2-2-2-2-2-2-2-2-2-2-2-2-2-|
|
| PM--------------|   PM
|---------------------------|
|---------------------------|
|-------------------3-----3-|
|-------------------4-----4-|
|-------------------4-----4-|
|-2-2-2-2-2-2-2-2-2-2-2---2-|


  PM--------------------|     PM--------------------|
|---------------------------|---------------------------|
|---------------------------|---------------------------|
|-------------------------4-|-------------------------3-|
|-------------------------5-|-------------------------4-|
|-------------------------5-|-------------------------4-|
|-0-0-0-0-0-0-0-0-3-3-3-3-3-|-2-2-2-2-2-2-2-2-2-2-2-2-2-|
|
|---------------------------|---------------------------|
|---------------------------|---------------------------|
|---------------------------|---------------------------|
|---------------------------|---------------------------|
|---------------------------|---------------------------|
|---------------------------|---------------------------|


                                              Q=Q.
                                                12/8
  PM--------------------|                 PM-----|   PM  PM   PM  PM
|---------------------------|-----------------||-------------------------|
|---------------------------|-----------------||-------------------------|
|-------------------------4-|-3----(3)--------||---9---9---10---7---7--8-|
|-------------------------5-|-4----(4)--------||---9---9---10---7---7--8-|
|-------------------------5-|-4----(4)--------||---7---7----8---5---5--6-|
|-0-0-0-0-0-0-0-0-3-3-3-3-3-|-2----(2)----3-2-||-0---0---0----0---0------|


  PM  PM  PM   PM  PM       PM  PM  PM   PM  PM       PM  PM  PM   PM  PM
|-------------------------|-------------------------|--------------------------|
|-------------------------|-------------------------|--------------------------|
|---9---9---10---7---7--8-|---9---9---10---7---7--8-|---9---9---10---7---7--8--|
|---9---9---10---7---7--8-|---9---9---10---7---7--8-|---9---9---10---7---7--8--|
|---7---7----8---5---5--6-|---7---7----8---5---5--6-|---7---7----8---5---5--6--|
|-0---0---0----0---0------|-0-7-0-7-0--8-0-5-0-5--6-|-0-7-0-7-0--8-0-5-0-5--6--|


  PM  PM  PM   PM  PM            PM--|
|-------------------------|------------------|
|-------------------------|------------------|
|---9---9---10---7---7--8-|------------------|
|---9---9---10---7---7--8-|---9--------9-----|
|---7---7----8---5---5--6-|---7--------7-----|
|-0-7-0-7-0--8-0-5-0-5--6-|---0--0-0-0-------|
|
|     PM--|                      PM--|
|-------------------------|------------------|
|-------------------------|------------------|
|-4----------4------------|------------4-----|
|-4----------4------------|-4s5--------4-----|
|-2----------2------------|-4s5--------2-----|
|-----0-0-0--0------------|-2s3--0-0-0-0-----|


                                          Q.=Q
                                           2/4
       PM--|                PM--|           PM--------|
|--------------------|--------------------|--------------|
|--------------------|--------------------|--------------|
|------------4-------|--------------------|--------------|
|-4s5--------4-------|-4s5----------------|--------------|
|-4s5--------2-------|-4s5--5-5-5-5-------|-8-8-8-5-5-5/-|
|-2s3--0-0-0-0-------|-2s3--3-3-3-3-------|-6-6-6-3-3-3/-|


                                                F# GF#G   F# GF#G
 4/4
                                             Gtrs I, II
                                                |  || |   |  || |
                                                /  // /   /  // /

   PM--------------------|
|--------------------------|-----------------||---------|---------|
|--------------------------|-----------------||---------|---------|
|--------------------------|-3----4s3--------||---------|---------|
|--------------------------|-4----5s4--------||---------|---------|
|-/7-7-7-5-5-5-4-4-4-5-5-5-|-4----5s4--------||---------|---------|
|-/5-5-5-3-3-3-2-2-2-3-3-3-|-2--3-3s2--/12\--||---------|---------|


  F#  G     F# GF#G   F# GF#G   F#  G
  | | |  |  |  || |   |  || |   | | |  |
  / / /  /  /  // /   /  // /   / / /  /

|---------|---------|---------|----------|
|---------|---------|---------|----------|
|---------|---------|---------|----------|
|---------|---------|---------|----------|
|---------|---------|---------|----------|
|---------|---------|---------|----------|


             To Coda
  F# GF#G   F# GF#G   F#  A     E
  |  || |   |  || |   |   |  |  |  || |
  /  // /   /  // /   /   /  /  /  // /

|---------|---------|---------|----------||
|---------|---------|---------|----------||
|---------|---------|---------|----------||
|---------|---------|---------|----------||
|---------|---------|---------|----------||
|---------|---------|---------|----------||


  Gtrs I, II
  PM------|       ~    PM------|       ~    PM------|       ~
|--------------------|--------------------|---------------------|
|--------------------|--------------------|---------------------|
|--------------------|--------------------|---------------------|
|-----------9-9-9-8--|-----------9-9-9-8--|-----------9-9-9-8---|
|---7-------7-7-7-7--|---7-------7-7-7-7--|---7-------7-7-7-7---|
|-0-0-0-0-0----------|-0-0-0-0-0----------|-0-0-0-0-0-----------|


  PM------|       PM      PM                PM           PM--|
|---------------------------|-----------------------||----------------------|
|---------------------------|----------------------o||----------------------|
|---------------------------|-----------------------||----------------------|
|-----------8h9p8-----------|-----------------2-----||-9-------10-10-10-8-9-|
|---7---------------7h8p7---|-----------------2----o||-7--------7--7--7-7-7-|
|-0-0-0-0-0-------0-------0-|-6h7p6-0-2h3p2-0-0-----||-0-0-0-0--0--0----0---|


  PM----|       ~      PM--|
|------------------|----------------------|
|------------------|----------------------|
|------------------|----------------------|
|---------9-9-9-8--|-9-------10-10-10-8-9-|
|---------7-7-7-7--|-7--------7--7--7-7-7-|
|-0-0-0-0-0--------|---0-0-0--0-------0---|


  PM----|       ~      PM--|
|------------------|----------------------|
|------------------|----------------------|
|------------------|----------------------|
|---------9-9-9-8--|-9-------10-10-10-8-9-|
|---------7-7-7-7--|-7--------7--7--7-7-7-|
|-0-0-0-0-0--------|---0-0-0--0-------0---|


  PM----|   PM        PM------------------
|-----------------|----------------------|
|-----------------|----------------------|
|-----------------|----------------------|
|-------------5---|-9-------10-10-10-8-9-|
|-----------5---5-|-7--------7--7--7-7-7-|
|-0-0-0-0-7-------|---0-0-0--0-------0---|


 -------|   PM        PM---------------|
|-----------------|------------------------|
|-----------------|------------------------|
|-----------------|------------------------|
|-------------5---|------------------------|
|-----------5---5-|-9-------10-10-10-8-9---|
|-0-0-0-0-7-------|-7-7-7-7--7--7--7-7-7---|


 5/4                   4/4
  PM--------|   PM        PM-------------------------|   PM
|---------------------|----------------------|-----------------||
|---------------------|----------------------|-----------------||
|---------------------|----------------------|-----------------||
|-------------5---5---|----------------------|-------------5---||
|-----------6---6---5-|-9-------10-10-10-8-9-|-----------6---5-||
|-7-7-7-7-7-----------|-7-7-7-7--7--7--7-7-7-|-7-7-7-7-7-------||


  Gtrs III, IV
|-----------------8---------------|---------------------8-------|
|---10-8h10p8-----------10-8h10p8-|-------10-8h10p8-------------|
|---10-9-10-9-10-12-----10-9-10-9-|-10--9-10-9-10-9-10-12-10--9-|
|-------------12------------------|-12-10-----------12----12-10-|
|---------------------------------|-----------------------------|
|---------------------------------|-----------------------------|
|
| Gtrs I, II
|    PM-------|                      PM------|
|---------------------------------|-----------------------------|
|---------------------------------|-----------------------------|
|-7-------------------------------|-----------------------------|
|-7---------------8-8-8--6-7------|------------------------3----|
|-5--5-5-------5--5-5-5--5-5------|--5--5--5-5----------3-----3-|
|---------------------------------|------------------5----------|


|------------------8---------------|---------------------8-------|
|----10-8h10p8-----------10-8h10p8-|-------10-8h10p8-------------|
|-10-10-9-10-9-10-12-----10-9-10-9-|-10--9-10-9-10-9-10-12-10--9-|
|-12-----------12------------------|-12-10-----------12----12-10-|
|----------------------------------|-----------------------------|
|----------------------------------|-----------------------------|
|
|     PM-------|                      PM------|
|----------------------------------|-----------------------------|
|----------------------------------|-----------------------------|
|--7-------------------------------|-----------------------------|
|--7---------------8-8-8--6-7------|------------------------3----|
|--5--5-5-------5--5-5-5--5-5------|--5--5--5-5----------3-----3-|
|----------------------------------|------------------5----------|


                             5/4
|---------------------------|-----------------------------|
|-------------5-------------|---------------5-------------|
|---5-4h5p4---------5-4h5p4-|-----5-4h5p4-----5p4---5p4---|
|-7---------7---------------|-7-5---------7-------7-----7-|
|---------------------------|-----------------------------|
|---------------------------|-----------------------------|
|
|   PM------|                 PM----|       PM    PM
|---------------------------|-----------------------------|
|---------------------------|-----------------------------|
|---------------------------|-----------------------------|
|-7-------------------------|-----------------3-----3-----|
|-7-----------8-8-8-6-7-----|---------------3-----3-----3-|
|-5-5-5-----5-5-----5-------|-5-5-5-5-----5---------------|


 4/4
|-----------------------------|
|-------------5---------------|
|---5-4h5p4---------5-4h5p4---|
|-7---------7-----------------|
|-----------------------------|
|-----------------------------|
|
|-----------------------------|
|-----------------------------|
|-----------------------------|
|-----------------------------|
|-7-----------8-8-8-6-7-------|
|-5-5-5-----5-5-----5---------|


|---------------------|------------------8---------------|
|---------------5-----|----10-8h10p8-----------10-8h10p8-|
|-----5p4-5p4-----5---|----10-9-10-9-10-12-----10-9-10-9-|
|-7-5---------7-------|-12-----------12------------------|
|---------------------|----------------------------------|
|---------------------|----------------------------------|
|
| PM------|     PM          PM-------|
|---------------------|----------------------------------|
|---------------------|----------------------------------|
|---------------------|--7-------------------------------|
|-----------------3---|--7---------------8-8-8--6-7------|
|---------------3---3-|--5--5-5-------5--5-5-5--5-5------|
|-5-5-5---5---5-------|----------------------------------|


|---------------------8-------|
|-------10-8h10p8-------------|
|-10--9-10-9-10-9-10-12-10--9-|
|-12-10-----------12----12-10-|
|-----------------------------|
|-----------------------------|
|
|  PM------|
|-----------------------------|
|-----------------------------|
|-----------------------------|
|------------------------3----|
|--5--5--5-5----------3-----3-|
|------------------5----------|


                                    5/4
|------------------8---------------|---------------------------------|
|----10-8h10p8-----------10-8h10p8-|-------10-8h10p8s6-5-6p5---6p5---|
|-10-10-9-10-9-10-12-----10-9-10-9-|-10--9-10-9-10-9-7-5-5-4-7-5-4-5-|
|-12-----------12------------------|-12-10-------------------7-----5-|
|----------------------------------|---------------------------------|
|----------------------------------|---------------------------------|
|
|     PM-------|                      PM------|        PM    PM    PM
|----------------------------------|---------------------------------|
|----------------------------------|---------------------------------|
|----------------------------------|---------------------------------|
|--7---------------8-8-8--6-7------|---------------------3-----3-----|
|--5--5-5-------5--5------5--------|--5--5--5-5--------3-----3-----3-|
|----------------------------------|-----------------5---------------|


 4/4
|--------------------------|-------------------------|-------------------------|
|--------------------------|-------------------------|-------------------------|
|--------------------------|-------------------------|-------------------------|
|-7\-----------------------|-------------------------|-------------------------|
|-7\-----------------------|-------------------------|-------------------------|
|--------------------------|-------------------------|-------------------------|
|
| PM-------------------------------------------------------------------------|
|--------------------------|-------------------------|-------------------------|
|--------------------------|-------------------------|-------------------------|
|--------------------------|-------------------------|-------------------------|
|--------------------------|-------------------------|-7-7-7-5-5-5-4-4-4-5-5-5-|
|-7--7-7-8-8-8-6-6-6-7-7-7-|-9-9-9-7-7-7-6-6-6-7-7-7-|-5-5-5-3-3-3-2-2-2-3-3-3-|
|-5--5-5-6-6-6-4-4-4-5-5-5-|-7-7-7-5-5-5-4-4-4-5-5-5-|-------------------------|


                    Guitar Solo
                     F#            G  F#         G
                  Gtrs I, II
                     |             |   |           |
                     /             /   /           /

  Gtrs I, II      Gtr III
                     \4___/  \2.5___/  \2.5____/
      PM--------|
|-----------------||-----------------------------------|
|-----------------||-----------------------------------|
|-7-7-5-5-4-4-----||-2----4-(4)s====9-(9)s====11-(11)--|
|-7-7-5-5-4-4-5-5-||-----------------------------------|
|-5-5-3-3-2-2-5-5-||-----------------------------------|
|-------------3-3-||-----------------------------------|


  F#              G        F#    G
    |               |        |     |
    /               /        /     /

            \2.5____/
                             ~~~~
|----------------------------------------22b25==|
|-----------------------------------------------|
|-/22b23---22-----(22)b23==(22)--(22)r-x--------|
|-----------------------------------------------|
|-----------------------------------------------|
|-----------------------------------------------|


  F#            GF#             G       E                   G        F#  G
    |           |  |             |       |                   |        |  |
    /           /  /             /       /                   /        /  /

          ~~~~~~~~~~~~~
|-(22)r--22b25===(22)r-19h22p19-18-18-|-18h19p18s15-(15)-15-15h18p15s14----|
|-------------------------------------|------------------------------------|
|-------------------------------------|------------------------------------|
|-------------------------------------|------------------------------------|
|-------------------------------------|------------------------------------|
|-------------------------------------|------------------------------------|


  F#                   G     F#          G
   |                    |     |           |
   /                    /     /           /

                                          ~~
|-14h15p14----14----------------------------------|
|----------17----17-15-14----15p14----------15p14-|
|-------------------------16-------16-15-16-------|
|-------------------------------------------------|
|-------------------------------------------------|
|-------------------------------------------------|


  F#             G     F#        G            F#                G     F#             G
   |              |     |         |            |                 |     |              |
   /              /     /         /            /                 /     /              /

         ~~                             ~~
|-----------------------------------------|---------------------14-15-14h15p14----14-15-18-18-|
|----------15p14-----------15p14----------|---15p14----14-15-17----------------17-------------|
|-16-15-16-------16-15-16--------16-15-16-|-x-------16----------------------------------------|
|-----------------------------------------|---------------------------------------------------|
|-----------------------------------------|---------------------------------------------------|
|-----------------------------------------|---------------------------------------------------|


                                        D.S. al Coda
  F#
   |        |        |        |
   /        /        /        /

                                       \2.5____/
   T        T        T        T
|-19p18p15-19p18p15-19p18p15-19p18p15----------------||
|-------------------------------------19-----(19)----||
|-------------------------------------19-----(19)----||
|----------------------------------------------------||
|----------------------------------------------------||
|----------------------------------------------------||


  &
  F#  A     E
  Gtrs I, II
  |   |  |  |  || |
  /   /  /  /  // /

|---------|---------|
|---------|---------|
|---------|---------|
|---------|---------|
|---------|---------|
|---------|---------|


    Q=Q.
   12/8
    PM  PM       PM  PM            PM--|
                             4x
||---------------------------||----------------||
||o-------------------------o||----------------||
||----9---9s7-10---7---7--8--||----------------||
||----9---9s7-10---7---7--8--||-2--------2-----||
||o---7---7s5--8---5---5--6-o||-2--------2-----||
||--0-7-0-7s5--8-0-5-0-5--6--||-0--0-0-0-0-----||


  PM  PM  PM   PM  PM       PM  PM  PM   PM  PM          PM--|
|-------------------------|-------------------------|----------------|
|-------------------------|-------------------------|----------------|
|---9---9---10---7---7--8-|---9---9---10---7---7--8-|----------------|
|---9---9---10---7---7--8-|---9---9---10---7---7--8-|-2--------2-----|
|---7---7----8---5---5--6-|---7---7----8---5---5--6-|-2--------2-----|
|-0---0---0----0---0------|-0---0---0----0---0------|-0--0-0-0-0-----|


                      PM----------------|
|--------------|--------------------------|------------*|
|--------------|--------------------------|------------*|
|--------------|--------------------------|------------*|
|-2------------|-4s5----------------------|-2----------*|
|-2------------|-4s5--2-2-2-2-2-2-2-2-2-2-|-2----------*|
|-0------------|-2s3--0-0-0-0-0-0-0-0-0-0-|-0----------*|


comments
We did not receive enough feedback on this tab! Please rate:
print report bad tab
1 2 3 4 5
1 comment total.
0 reply
Warlock2019 wrote on July 21 2009, 10:28 am

Nice Directly ripped from the Metallica version.....

The In Flames Version didn't have the solo in it. And Played some of other parts a bit different too..

I want to post or [tab]
guest
You may want to rate the tab now too:
select rating
Please do not post tabs as comments. Select "correction" instead!