Oops, an error
Loading. Please wait.

Fear Is The Weakness Tab

ver1
ver1

Intro

Whole song

Interactive

More versions @911Tabs.com
4,009 views 57 this week
no commentswrite comment
1 2 3 4 5
excellent!
x 2
Autoscroll
+/-
esc
set tempo
stop
Contributor
Difficulty
Tuning
advanced
A# F A# D# G C
Hey! There's an official Ultimate Guitar app which is ideal
for learning songs when you're away from computer. Get the app
WARNING: You are trying to view
                                    content from Ultimate-Guitar.com
                                    in an unauthorized application,
                                    which is prohibited.

                                    Please use an official Ultimate
                                    Guitar Tabs application for iPhone,
                                    iPad or Android to access legitimate
                                    chords, guitar, bass, and drum tabs
                                    from Ultimate-Guitar.com database.

                                    Type "ultimate guitar tabs" in Apple
                                    App Store's or Android Market's
                                    search to find the application.
Clean Intro

C |-----------------------|------------------------|--------------------------|
G |-----------------------|------------------------|--------------------------|
D#|--/7------10------7----|--7---9----10------9----|--9---10----14------10----|
A#|-----------------------|------------------------|--------------------------|
F |-----------------------|------------------------|--------------------------|
A#|-----------------------|------------------------|--------------------------|

 
C |----------------------|------------------------|-------------------|
G |----------------------|------------------------|-------------------|
D#|--12--------14--------|--14------15------15----|-------------------|
A#|----------------------|------------------------|-------------------|
F |----------------------|------------------------|-------------------|
A#|----------------------|------------------------|-------------------|

                                               X2
C |------------------------|-------------------|
G |------------------------|-------------------|
D#|--14------15------15----|-------------------|
A#|------------------------|-------------------|
F |------------------------|-------------------|
A#|------------------------|-------------------|


Dist 
Main Riff   
C |------|-------------------------------|----------------------------|
G |---3--|-------------------------------|-------------------------3--|
D#|---2--|-------------------------------|-------------------------2--|
A#|---0--|-------------------------------|-------------------------0--|
F |---0--|-------------------------------|-------------------------0--|
A#|---0--|------0-0-0--0--0-0-0--0--0-0--|--0--0--0-0-0--0-0-0--0--0--|


C |------------------------------|----------------------------|
G |------------------------------|-------------------------8--|
D#|------------------------------|-------------------------7--|
A#|------------------------------|-------------------------5--|
F |------------------------------|-------------------------5--|
A#|-----0-0-0--0--0-0-0--0--0-0--|--0--0--0-0-0--0-0-0--0--5--|


C |------------------------------|----------------------------|
G |------------------------------|-------------------------8--|
D#|------------------------------|-------------------------7--|
A#|------------------------------|-------------------------5--|
F |------------------------------|-------------------------5--|
A#|-----5-5-5--5--5-5-5--5--5-5--|--5--5--5-5-5--5-5-5--5--5--|

  
C |---------------------------|-------------------------|
G |---------------------------|----------------------3--|
D#|---------------------------|----------------------2--|
A#|---------------------------|-----5----------------0--|
F |------------------------3--|--5-------------5-----0--|
A#|----5-5-5--5--5-5-5--5-----|----------3--5-----5--0--|

 
C |-------------------------------|----------------------------|
G |-------------------------------|-------------------------3--|
D#|-------------------------------|-------------------------2--|
A#|-------------------------------|-------------------------0--|
F |-------------------------------|-------------------------0--|
A#|------0-0-0--0--0-0-0--0--0-0--|--0--0--0-0-0--0-0-0--0--0--|


C |------------------------------|----------------------------|
G |------------------------------|-------------------------8--|
D#|------------------------------|-------------------------7--|
A#|------------------------------|-------------------------5--|
F |------------------------------|-------------------------5--|
A#|-----0-0-0--0--0-0-0--0--0-0--|--0--0--0-0-0--0-0-0--0--5--|


C |------------------------------|----------------------------|
G |------------------------------|-------------------------8--|
D#|------------------------------|-------------------------7--|
A#|------------------------------|-------------------------5--|
F |------------------------------|-------------------------5--|
A#|-----5-5-5--5--5-5-5--5--5-5--|--5--5--5-5-5--5-5-5--5--5--|

 
C |---------------------------|------------------------|
G |---------------------------|------------------------|
D#|---------------------------|------------------------|
A#|---------------------------|-----5------------------|
F |------------------------3--|--5-------------5-------|
A#|----5-5-5--5--5-5-5--5-----|----------3--5-----5----|

Solo     
C |----------------------|-------------------------------|
G |---------10-----------|--/13------11------10h-11p-10--|
D#|--7--------------7----|-------------------------------|
A#|----------------------|-------------------------------|
F |----------------------|-------------------------------|
A#|----------------------|-------------------------------|


C |----------------------------|-------------------------------|
G |----------------------------|-------------------------------|
D#|--12------------10h-12p-10--|--9------9--10--12--10--9------|
A#|----------------------------|-----10--------------------10--|
F |----------------------------|-------------------------------|
A#|----------------------------|-------------------------------|


C |-------------------------|-------------------------------|
G |--/15--------------15----|--/13------11------10h-11p-10--|
D#|-----------14------------|-------------------------------|
A#|-------------------------|-------------------------------|
F |-------------------------|-------------------------------|
A#|-------------------------|-------------------------------|


C |--------------------|--------------------------|
G |--------------------|--------------------------|
D#|--12----------------|--------------------------|
A#|--------------------|--------------------------|
F |--------------------|--------------------------|
A#|--------------------|--3--3--3--3--3--2--1--0--|


Verse A
C |--------------------------|--------------------------|
G |-----6--------6-----------|-----6--------------6-----|
D#|--7-----7--7-----7--7-----|--------7--------7-----5--|
A#|-----------------------7--|-----------7--8-----------|
F |--------------------------|--------------------------|
A#|--------------------------|--------------------------|


C |--------------------------|---------------------------|
G |-----5--------5--------5--|-----5-6-5-----5-----------|
D#|--------5--5-----5--5-----|------------7-----7-----7--|
A#|--------------------------|---------------------7-----|
F |--------------------------|---------------------------|
A#|--------------------------|---------------------------|


C |--------------------------|--------------------------|
G |-----6--------6-----------|-----6--------------6-----|
D#|--------7--7-----7--7-----|--------7--------7-----5--|
A#|-----------------------7--|-----------7--8-----------|
F |--------------------------|--------------------------|
A#|--------------------------|--------------------------|


C |--------------------------|---------------------------|
G |-----5--------5--------5--|-----5-6-5-----5-----------|
D#|--------5--5-----5--5-----|------------7-----7--5-----|
A#|--------------------------|------------------------0--|
F |--------------------------|---------------------------|
A#|--------------------------|---------------------------|

                                         
C |----------------------------|---------------------------|
G |----------------------------|---------------------------|
D#|------9--------10-----------|--------5------------5-----|
A#|---------0--0------0--0-----|-----2------------3--------|
F |-------------------------0--|-----------1------------3--|
A#|----------------------------|---------------------------|

   
C |--------------------------|--------------------------|
G |--------------3-----------|--------------3-----------|
D#|-----------------5--------|-----------------5--------|
A#|--------5-----------------|--------5--------------0--|
F |-----3-----3--------3--3--|-----3-----3--------3-----|
A#|--------------------------|--------------------------|


C |----------------------------|---------------------------|
G |----------------------------|---------------------------|
D#|------9--------10-----------|--------5------------5-----|
A#|---------0--0------0--0-----|-----2------------3--------|
F |-------------------------0--|-----------1------------3--|
A#|----------------------------|---------------------------|

                                                     Solo 2
C |--------------------------|--------------------------|--------------------|
G |--------------3-----------|--------------3-----------|--------------------|
D#|-----------------5--------|-----------------5-----9--|--(9)B--------------|
A#|--------5-----------------|--------5-----------------|--------------------|
F |-----3-----3--------3--3--|-----3-----3--------3-----|--------------------|
A#|--------------------------|--------------------------|--------------------|


C |----------------------|---------------------|-------------------------------|
G |----------------------|---------------------|--------8---10----11----10p-8h-|
D#|------------------7~--|----------------\----|--/10--------------------------|
A#|----------------------|---------------------|-------------------------------|
F |----------------------|---------------------|-------------------------------|
A#|----------------------|---------------------|-------------------------------|


C |-----------------------|--------------------------------|
G |--10b------------------|-------10pb----10pbr----8--13b--|
D#|-----------------------|--------------------------------|
A#|-----------------------|--------------------------------|
F |-----------------------|--------------------------------|
A#|-----------------------|--------------------------------|
 

C |----------------------------|--------------------------|
G |-------13pb--13b~-----------|--------------(13)\-------|
D#|----------------------------|--------------------------|
A#|----------------------------|--------------------------|
F |----------------------------|--------------------------|
A#|----------------------------|-----------------------0--|

Verse B
C |--------------------------|---------------------------|
G |--------------------------|---------------------------|
D#|--------------------------|---------------------------|
A#|--------------------------|---------------------------|
F |-----8--------8-----------|-----7-----------7---------|
A#|--------0--0-----0--0--7--|--------7--8--------8--10--|


C |------------------------------|---------------------------|
G |------------------------------|---------------------------|
D#|------------------------------|---------------------------|
A#|------------------------------|---------------------------|
F |-----7----------7----------7--|-----7-8-7--5--7--3--------|
A#|--------10--10-----10--10-----|---------------------7--0--|


C |--------------------------|---------------------------|
G |--------------------------|---------------------------|
D#|--------------------------|---------------------------|
A#|--------------------------|---------------------------|
F |-----8--------8-----------|-----7-----------7---------|
A#|--------0--0-----0--0--7--|--------7--8--------8--10--|


C |-------------------------------|---------------------|
G |-------------------------------|---------------------|
D#|-------------------------------|---------------------|
A#|-------------------------------|---------------------|
F |-----7----------7--------------|--7------------------|
A#|--------10--10-----10--10--10--|---------------------|


Chorus
C |-------------------------------|---------------------------|
G |-------------------------------|---------------------------|
D#|---------------10--10--10--10--|---------------9--9--9--9--|
A#|----------------7---7---7---7--|---------------7--7--7--7--|
F |----------------5---5---5---5--|---------------5--5--5--5--|
A#|--0-0-0--0--0------------------|--0-0-0--0--0--------------|


C |-------------------------------|---------------------------|
G |-------------------------------|---------------------------|
D#|---------------10--10--10--10--|---------------5--5--5--5--|
A#|----------------7---7---7---7--|---------------5--5--5--5--|
F |----------------5---5---5---5--|---------------3--3--3--3--|
A#|--0-0-0--0--0------------------|--0-0-0--0--0--------------|


C |---------------------------|---------------------------|
G |---------------------------|---------------------------|
D#|---------------3--3--3--3--|---------------3--3--3--3--|
A#|---------------3--3--3--3--|---------------3--3--3--3--|
F |---------------1--1--1--1--|---------------1--1--1--1--|
A#|--0-0-0--0--0--------------|--0-0-0--0--0--------------|


C |---------------------------|---------------------------|
G |---------------------------|---------------------------|
D#|---------------3--3--3--3--|---------------5--5--5--5--|
A#|---------------3--3--3--3--|---------------5--5--5--5--|
F |---------------1--1--1--1--|---------------3--3--3--3--|
A#|--0-0-0--0--0--------------|--0-0-0--0--0--------------|


C |-------------------------------|---------------------------|
G |-------------------------------|---------------------------|
D#|---------------10--10--10--10--|---------------9--9--9--9--|
A#|----------------7---7---7---7--|---------------7--7--7--7--|
F |----------------5---5---5---5--|---------------5--5--5--5--|
A#|--0-0-0--0--0------------------|--0-0-0--0--0--------------|


C |-------------------------------|---------------------------|
G |-------------------------------|---------------------------|
D#|---------------10--10--10--10--|---------------5--5--5--5--|
A#|----------------7---7---7---7--|---------------5--5--5--5--|
F |----------------5---5---5---5--|---------------3--3--3--3--|
A#|--0-0-0--0--0------------------|--0-0-0--0--0--------------|


C |---------------------------|---------------------------|
G |---------------------------|---------------------------|
D#|---------------3--3--3--3--|---------------3--3--3--3--|
A#|---------------3--3--3--3--|---------------3--3--3--3--|
F |---------------1--1--1--1--|---------------1--1--1--1--|
A#|--0-0-0--0--0--------------|--0-0-0--0--0--------------|


C |---------------------------|---------------------------|
G |---------------------------|---------------------------|
D#|---------------3--3--3--3--|---------------5--5--5--5--|
A#|---------------3--3--3--3--|---------------5--5--5--5--|
F |---------------1--1--1--1--|---------------3--3--3--3--|
A#|--0-0-0--0--0--------------|--0-0-0--0--0--------------|


Solo 3
      |---3---|   |---3---|   |---3---|   |---3---|   
C |--------------------------------------------------|
G |--------------------------------------------------|
D#|--------------------------10----------------------|
A#|--------------10--12--13------13--12--10----------|
F |--10--12--13------------------------------13--12--|
A#|--------------------------------------------------|


      |---3---|   |---3---|                                                    
C |----------------------------------------|---------------------|
G |----------------------------------------|---------------------|
D#|--------------------------10--12---14---|--15~----------------|
A#|--------------10--12--13----------------|---------------------|
F |--10--12--13----------------------------|---------------------|
A#|----------------------------------------|---------------------|

C |----------------------------------|-----------------------|-------------------|
G |----------------------------------|-----------------------|-------------------|
D#|--14------14h-15p-14-------12~----|-----------------7~----|-------------------|
A#|---------------------15-----------|-----------------------|-------------------|
F |----------------------------------|-----------------------|-------------------|
A#|----------------------------------|-----------------------|-------------------|

               
C |--------------------------------|--------------------------------------|
G |--4p--3-----4p--3------11p--10--|------11p--10------11p--10------------|
D#|---------3---------3/-----------|--10-----------10-----------10s--12~--|
A#|--------------------------------|--------------------------------------|
F |--------------------------------|--------------------------------------|
A#|--------------------------------|--------------------------------------|


                          |---3---|   |---3---|   |---3---|   |---3---|   
C |-------------------|----------------------15--17--15----------15--17--|
G |-------------------|----------15--16--18--------------18--16----------|
D#|-------------------|--15--17------------------------------------------|
A#|-------------------|--------------------------------------------------|
F |-------------------|--------------------------------------------------|
A#|-------------------|--------------------------------------------------|


C |--18~----------------|--17------17h-18p-17-------15~----|
G |---------------------|---------------------18-----------|
D#|---------------------|----------------------------------|
A#|---------------------|----------------------------------|
F |---------------------|----------------------------------|
A#|---------------------|----------------------------------|


                     |---3---|      |---3---|   |---3---|             
C |---------15------13--11------|------------------------------------|
G |-------------------------15--|--13--11------11--13--15------------|
D#|-----------------------------|----------14--------------12--------|
A#|-----------------------------|------------------------------------|
F |-----------------------------|------------------------------------|
A#|-----------------------------|------------------------------------|


C |------------------------|-----------------------|
G |--11~--------13b--------|--13--------15b--------|
D#|------------------------|-----------------------|
A#|------------------------|-----------------------|
F |------------------------|-----------------------|
A#|------------------------|-----------------------|


      |----3----|    |-3-|   3  3                               
C |--------------------------------------|---------------------|
G |--15--------13-------15p-13-----------|---------------------|
D#|----------------------------15--------|--14~----------------|
A#|--------------------------------------|---------------------|
F |--------------------------------------|---------------------|
A#|--------------------------------------|---------------------|

Verse A
C |--------------------------|--------------------------|
G |-----6--------6-----------|-----6--------------6-----|
D#|--7-----7--7-----7--7-----|--------7--------7-----5--|
A#|-----------------------7--|-----------7--8-----------|
F |--------------------------|--------------------------|
A#|--------------------------|--------------------------|


C |--------------------------|---------------------------|
G |-----5--------5--------5--|-----5-6-5-----5-----------|
D#|--------5--5-----5--5-----|------------7-----7-----7--|
A#|--------------------------|---------------------7-----|
F |--------------------------|---------------------------|
A#|--------------------------|---------------------------|


C |--------------------------|--------------------------|
G |-----6--------6-----------|-----6--------------6-----|
D#|--------7--7-----7--7-----|--------7--------7-----5--|
A#|-----------------------7--|-----------7--8-----------|
F |--------------------------|--------------------------|
A#|--------------------------|--------------------------|


C |--------------------------|---------------------------|
G |-----5--------5--------5--|-----5-6-5-----5-----------|
D#|--------5--5-----5--5-----|------------7-----7--5-----|
A#|--------------------------|------------------------0--|
F |--------------------------|---------------------------|
A#|--------------------------|---------------------------|

                                         
C |----------------------------|---------------------------|
G |----------------------------|---------------------------|
D#|------9--------10-----------|--------5------------5-----|
A#|---------0--0------0--0-----|-----2------------3--------|
F |-------------------------0--|-----------1------------3--|
A#|----------------------------|---------------------------|

   
C |--------------------------|--------------------------|
G |--------------3-----------|--------------3-----------|
D#|-----------------5--------|-----------------5--------|
A#|--------5-----------------|--------5--------------0--|
F |-----3-----3--------3--3--|-----3-----3--------3-----|
A#|--------------------------|--------------------------|


C |----------------------------|---------------------------|
G |----------------------------|---------------------------|
D#|------9--------10-----------|--------5------------5-----|
A#|---------0--0------0--0-----|-----2------------3--------|
F |-------------------------0--|-----------1------------3--|
A#|----------------------------|---------------------------|


C |--------------------------|--------------------------|
G |--------------3-----------|--------------3-----------|
D#|-----------------5--------|-----------------5--------|
A#|--------5-----------------|--------5--------------- -|
F |-----3-----3--------3--3--|-----3-----3--------3-----|
A#|--------------------------|-----------------------0--|


Verse B
C |--------------------------|---------------------------|
G |--------------------------|---------------------------|
D#|--------------------------|---------------------------|
A#|--------------------------|---------------------------|
F |-----8--------8-----------|-----7-----------7---------|
A#|--------0--0-----0--0--7--|--------7--8--------8--10--|


C |------------------------------|---------------------------|
G |------------------------------|---------------------------|
D#|------------------------------|---------------------------|
A#|------------------------------|---------------------------|
F |-----7----------7----------7--|-----7-8-7--5--7--3--------|
A#|--------10--10-----10--10-----|---------------------7--0--|


C |--------------------------|---------------------------|
G |--------------------------|---------------------------|
D#|--------------------------|---------------------------|
A#|--------------------------|---------------------------|
F |-----8--------8-----------|-----7-----------7---------|
A#|--------0--0-----0--0--7--|--------7--8--------8--10--|


C |-------------------------------|---------------------|
G |-------------------------------|---------------------|
D#|-------------------------------|---------------------|
A#|-------------------------------|---------------------|
F |-----7----------7--------------|--7------------------|
A#|--------10--10-----10--10--10--|---------------------|


Chorus
C |-------------------------------|---------------------------|
G |-------------------------------|---------------------------|
D#|---------------10--10--10--10--|---------------9--9--9--9--|
A#|----------------7---7---7---7--|---------------7--7--7--7--|
F |----------------5---5---5---5--|---------------5--5--5--5--|
A#|--0-0-0--0--0------------------|--0-0-0--0--0--------------|


C |-------------------------------|---------------------------|
G |-------------------------------|---------------------------|
D#|---------------10--10--10--10--|---------------5--5--5--5--|
A#|----------------7---7---7---7--|---------------5--5--5--5--|
F |----------------5---5---5---5--|---------------3--3--3--3--|
A#|--0-0-0--0--0------------------|--0-0-0--0--0--------------|


C |---------------------------|---------------------------|
G |---------------------------|---------------------------|
D#|---------------3--3--3--3--|---------------3--3--3--3--|
A#|---------------3--3--3--3--|---------------3--3--3--3--|
F |---------------1--1--1--1--|---------------1--1--1--1--|
A#|--0-0-0--0--0--------------|--0-0-0--0--0--------------|


C |---------------------------|---------------------------|
G |---------------------------|---------------------------|
D#|---------------3--3--3--3--|---------------5--5--5--5--|
A#|---------------3--3--3--3--|---------------5--5--5--5--|
F |---------------1--1--1--1--|---------------3--3--3--3--|
A#|--0-0-0--0--0--------------|--0-0-0--0--0--------------|


C |-------------------------------|---------------------------|
G |-------------------------------|---------------------------|
D#|---------------10--10--10--10--|---------------9--9--9--9--|
A#|----------------7---7---7---7--|---------------7--7--7--7--|
F |----------------5---5---5---5--|---------------5--5--5--5--|
A#|--0-0-0--0--0------------------|--0-0-0--0--0--------------|


C |-------------------------------|---------------------------|
G |-------------------------------|---------------------------|
D#|---------------10--10--10--10--|---------------5--5--5--5--|
A#|----------------7---7---7---7--|---------------5--5--5--5--|
F |----------------5---5---5---5--|---------------3--3--3--3--|
A#|--0-0-0--0--0------------------|--0-0-0--0--0--------------|


C |---------------------------|---------------------------|
G |---------------------------|---------------------------|
D#|---------------3--3--3--3--|---------------3--3--3--3--|
A#|---------------3--3--3--3--|---------------3--3--3--3--|
F |---------------1--1--1--1--|---------------1--1--1--1--|
A#|--0-0-0--0--0--------------|--0-0-0--0--0--------------|


C |---------------------------|---------------------------|
G |---------------------------|---------------------------|
D#|---------------3--3--3--3--|---------------5--5--5--5--|
A#|---------------3--3--3--3--|---------------5--5--5--5--|
F |---------------1--1--1--1--|---------------3--3--3--3--|
A#|--0-0-0--0--0--------------|--0-0-0--0--0--------------|


C |-------------------------------|---------------------------|
G |-------------------------------|---------------------------|
D#|---------------10--10--10--10--|---------------9--9--9--9--|
A#|----------------7---7---7---7--|---------------7--7--7--7--|
F |----------------5---5---5---5--|---------------5--5--5--5--|
A#|--0-0-0--0--0------------------|--0-0-0--0--0--------------|


C |-------------------------------|---------------------------|
G |-------------------------------|---------------------------|
D#|---------------10--10--10--10--|---------------5--5--5--5--|
A#|----------------7---7---7---7--|---------------5--5--5--5--|
F |----------------5---5---5---5--|---------------3--3--3--3--|
A#|--0-0-0--0--0------------------|--0-0-0--0--0--------------|


C |---------------------------|---------------------------|
G |---------------------------|---------------------------|
D#|---------------3--3--3--3--|---------------3--3--3--3--|
A#|---------------3--3--3--3--|---------------3--3--3--3--|
F |---------------1--1--1--1--|---------------1--1--1--1--|
A#|--0-0-0--0--0--------------|--0-0-0--0--0--------------|


C |---------------------------|---------------------------|
G |---------------------------|---------------------------|
D#|---------------3--3--3--3--|---------------5--5--5--5--|
A#|---------------3--3--3--3--|---------------5--5--5--5--|
F |---------------1--1--1--1--|---------------3--3--3--3--|
A#|--0-0-0--0--0--------------|--0-0-0--0--0--------------|


C |-------------------------------|---------------------------|
G |-------------------------------|---------------------------|
D#|---------------10--10--10--10--|---------------9--9--9--9--|
A#|----------------7---7---7---7--|---------------7--7--7--7--|
F |----------------5---5---5---5--|---------------5--5--5--5--|
A#|--0-0-0--0--0------------------|--0-0-0--0--0--------------|


C |-------------------------------|---------------------------|
G |-------------------------------|---------------------------|
D#|---------------10--10--10--10--|---------------5--5--5--5--|
A#|----------------7---7---7---7--|---------------5--5--5--5--|
F |----------------5---5---5---5--|---------------3--3--3--3--|
A#|--0-0-0--0--0------------------|--0-0-0--0--0--------------|


C |---------------------------|---------------------------|
G |---------------------------|---------------------------|
D#|---------------3--3--3--3--|---------------3--3--3--3--|
A#|---------------3--3--3--3--|---------------3--3--3--3--|
F |---------------1--1--1--1--|---------------1--1--1--1--|
A#|--0-0-0--0--0--------------|--0-0-0--0--0--------------|


C |---------------------------|---------------------------|
G |---------------------------|------------------------3--|
D#|---------------3--3--3--3--|---------------5--5--5--2--|
A#|---------------3--3--3--3--|---------------5--5--5--0--|
F |---------------1--1--1--1--|---------------3--3--3--0--|
A#|--0-0-0--0--0--------------|--0-0-0--0--0-----------0--|

Main Riff
C |-------------------------------|----------------------------|
G |-------------------------------|-------------------------3--|
D#|-------------------------------|-------------------------2--|
A#|-------------------------------|-------------------------0--|
F |-------------------------------|-------------------------0--|
A#|------0-0-0--0--0-0-0--0--0-0--|--0--0--0-0-0--0-0-0--0--0--|


C |------------------------------|----------------------------|
G |------------------------------|-------------------------8--|
D#|------------------------------|-------------------------7--|
A#|------------------------------|-------------------------5--|
F |------------------------------|-------------------------5--|
A#|-----0-0-0--0--0-0-0--0--0-0--|--0--0--0-0-0--0-0-0--0--5--|


C |------------------------------|----------------------------|
G |------------------------------|-------------------------8--|
D#|------------------------------|-------------------------7--|
A#|------------------------------|-------------------------5--|
F |------------------------------|-------------------------5--|
A#|-----5-5-5--5--5-5-5--5--5-5--|--5--5--5-5-5--5-5-5--5--5--|

 
C |---------------------------|------------------------|
G |---------------------------|------------------------|
D#|---------------------------|------------------------|
A#|---------------------------|-----5------------------|
F |------------------------3--|--5-------------5-------|
A#|----5-5-5--5--5-5-5--5-----|----------3--5-----5----|


C |-------------------------------|----------------------------|
G |-------------------------------|-------------------------3--|
D#|-------------------------------|-------------------------2--|
A#|-------------------------------|-------------------------0--|
F |-------------------------------|-------------------------0--|
A#|------0-0-0--0--0-0-0--0--0-0--|--0--0--0-0-0--0-0-0--0--0--|


C |------------------------------|----------------------------|
G |------------------------------|-------------------------8--|
D#|------------------------------|-------------------------7--|
A#|------------------------------|-------------------------5--|
F |------------------------------|-------------------------5--|
A#|-----0-0-0--0--0-0-0--0--0-0--|--0--0--0-0-0--0-0-0--0--5--|


C |------------------------------|----------------------------|
G |------------------------------|-------------------------8--|
D#|------------------------------|-------------------------7--|
A#|------------------------------|-------------------------5--|
F |------------------------------|-------------------------5--|
A#|-----5-5-5--5--5-5-5--5--5-5--|--5--5--5-5-5--5-5-5--5--5--|

 
C |---------------------------|------------------------|
G |---------------------------|------------------------|
D#|---------------------------|------------------------|
A#|---------------------------|-----5------------------|
F |------------------------3--|--5-------------5-------|
A#|----5-5-5--5--5-5-5--5-----|----------3--5-----5----|

Clean Outro
C |-----------------------|------------------------|--------------------------|
G |-----------------------|------------------------|--------------------------|
D#|--/7------10------7----|--7---9----10------9----|--9---10----14------10----|
A#|-----------------------|------------------------|--------------------------|
F |-----------------------|------------------------|--------------------------|
A#|-----------------------|------------------------|--------------------------|

 
C |----------------------|------------------------|-------------------|
G |----------------------|------------------------|-------------------|
D#|--12--------14--------|--14------15------15----|-------------------|
A#|----------------------|------------------------|-------------------|
F |----------------------|------------------------|-------------------|
A#|----------------------|------------------------|-------------------|

                                               X2
C |------------------------|-------------------|
G |------------------------|-------------------|
D#|--14------15------12----|-------------------|
A#|------------------------|-------------------|
F |------------------------|-------------------|
A#|------------------------|-------------------|
comments
We did not receive enough feedback on this tab! Please rate:
print report bad tab
1 2 3 4 5
I want to post or [tab]
guest
You may want to rate the tab now too:
select rating
Please do not post tabs as comments. Select "correction" instead!