Oops, an error
Loading. Please wait.

Goliaths Disarm Their Davids Tab

ver1
ver1

Whole song

Interactive

More versions @911Tabs.com
6,400 views 12 this week
no commentswrite comment
1 2 3 4 5
excellent!
x 3
add to favorites launch autoscroll
font size
0
reset
Autoscroll
+/-
esc
set tempo
stop
Contributor
WARNING: You are trying to view
                                    content from Ultimate-Guitar.com
                                    in an unauthorized application,
                                    which is prohibited.

                                    Please use an official Ultimate
                                    Guitar Tabs application for iPhone,
                                    iPad or Android to access legitimate
                                    chords, guitar, bass, and drum tabs
                                    from Ultimate-Guitar.com database.

                                    Type "ultimate guitar tabs" in Apple
                                    App Store's or Android Market's
                                    search to find the application.
#----------------------------------PLEASE NOTE---------------------------------#
#This file is the author's own work and represents their interpretation of the #
#song. You may only use this file for private study, scholarship, or research. #
#------------------------------------------------------------------------------##

                          GOLIATHS DISARM THEIR DAVIDS
                            As recorded by In Flames
                   (From the 1997 Album BLACK ASH INHERITANCE)

Transcribed by The Foreverlorn

Gtr I (C F Bb Eb G C) - 'Untitled'
Gtr II (C F Bb Eb G C) - 'Untitled'
Gtr III (C F Bb Eb G C) - 'Untitled'
Gtr IV (C F Bb Eb G C) - 'Untitled'
Gtr V (C F Bb Eb G C) - 'Untitled'

 Intro
  Q=145
  N.C.                                                                  D5/A
 4/4
  Gtr I
  E E E E E E E E   E E E E E E E E   E E E E E E E E   E   E E E E E E E
|---0-----0-----0-|---0-----0-----0-|---0-----0-----0-|-----5-----5-----5--|
|-----0-----0-----|-----0-----0-----|-----0-----0-----|-------5-----5------|
|-0-----0-----0---|-5-----5-----5---|-9-----9-----9---|-7-------7-----7----|
|-----------------|-----------------|-----------------|--------------------|
|-----------------|-----------------|-----------------|--------------------|
|-----------------|-----------------|-----------------|--------------------|
|
| Gtr II
| E E E E E E E E   E E E E E E E E   E E E E E E E E   E   E E E E E E E
|---0-----0-----0-|---0-----0-----0-|---0-----0-----0-|-----5-----5-----5--|
|-----0-----0-----|-----0-----0-----|-----0-----0-----|-------5-----5------|
|-----------------|-2-----2-----2---|-5-----5-----5---|-7-------7-----7----|
|-2-----2-----2---|-----------------|-----------------|--------------------|
|-----------------|-----------------|-----------------|--------------------|
|-----------------|-----------------|-----------------|--------------------|
|
| Gtrs III, IV
| W                 W                 W                 H..             E
|-----------------|-----------------|-----------------|--------------------|
|-----------------|-----------------|-----------------|--------------------|
|-----------------|-----------------|-----------------|--------------------|
|-----------------|-----------------|-----------------|-----------------0--|
|-----------------|-----------------|-----------------|-----------------0--|
|-----------------|-----------------|-----------------|--------------------|


    E5                A5
    E E E E E E E E   E  E E E E E E E
||----0-----0-----0-|----0-----0-----0-|
||o-----0-----0-----|------0-----0-----|
||--0-----0-----0---|-5------5-----5---|
||------------------|------------------|
||o-----------------|------------------|
||------------------|------------------|
|
|   E E E E E E E E   E  E E E E E E E
||----0-----0-----0-|----0-----0-----0-|
||o-----0-----0-----|------0-----0-----|
||------------------|-2------2-----2---|
||--2-----2-----2---|------------------|
||o-----------------|------------------|
||------------------|------------------|
|
|                                  PM|
|   W                 H.           E E
||------------------|------------------|
||o-----------------|------------------|
||------------------|-2----------------|
||--2---------------|-2----------------|
||o-2---------------|-0------------0-0-|
||--0---------------|------------------|


  C5                  D5      G5  A5
  E   E E E E E E E   E E E E E E E E   4x
|-----0-----0-----0-|---5-----5-----5---||
|-------0-----0-----|-----5-----5------o||
|-9-------9-----9---|-7-----7-----7-----||
|-------------------|-------------------||
|-------------------|------------------o||
|-------------------|-------------------||
|
| E   E E E E E E E   E E E E E E E E   4x
|-----0-----0-----0-|---5-----5-----5---||
|-------0-----0-----|-----5-----5------o||
|-5-------5-----5---|-7-----7-----7-----||
|-------------------|-------------------||
|-------------------|------------------o||
|-------------------|-------------------||
|
| H..             E   H       Q   Q     4x
|-------------------|-------------------||
|-------------------|------------------o||
|-5---------------5-|-7-----------------||
|-5---------------5-|-7-------5---7-----||
|-3---------------3-|-5-------5---7----o||
|-------------------|---------3---5-----||


 Guitar Lead
  E5         A5       B5 C5                   D5      A5G5F#5 G5
  Gtr III
  ~~~~~~~~~~~~~                ~~~~           ~~
                                                          |--3---|
  W          H    +E  Q   E    H.       E E   Q.    E E E E E    E
|----------|----------------|---------------|----------------------|
|----------|----------------|---------------|----------------------|
|----------|----------------|-----------7-9-|-7--------------------|
|----------|-7----(7)-9--10-|-10------------|------10-9-7-7h9h==10-|
|-7--------|----------------|---------------|----------------------|
|----------|----------------|---------------|----------------------|
|
| Gtr V
| W          H    +E  Q   E    H..        E   H       E E E   E
|----------|----------------|---------------|----------------------|
|----------|----------------|---------------|----------------------|
|----------|-2----(2)-4s==5-|--5----------5-|-7--------------------|
|-2--------|-2----(2)-4s==5-|--5----------5-|-7-------7-5-4---5----|
|-2--------|-0----(0)-2s==3-|--3----------3-|-5-------7-5-4---5----|
|-0--------|----------------|---------------|---------5-3-2---3----|


  E5         A5       B5 C5
  ~~~~~~~~~~~~~                ~~~~
                                       |-3--|  |---3---|
  W          H    +E  Q   E    H       E  E E  E  E    E
|----------|----------------|----------------------------|
|----------|----------------|---------13p12p8------------|
|----------|----------------|----------------------------|
|----------|-7----(7)-9--10-|-10--------------14p12p==10-|
|-7--------|----------------|----------------------------|
|----------|----------------|----------------------------|
|
| W          H    +E  Q   E    H..                  E
|----------|----------------|----------------------------|
|----------|----------------|----------------------------|
|----------|-2----(2)-4s==5-|--5--------------------5----|
|-2--------|-2----(2)-4s==5-|--5--------------------5----|
|-2--------|-0----(0)-2s==3-|--3--------------------3----|
|-0--------|----------------|----------------------------|


  D5               A5G5 F#5G5
                         ~~
      |--3--|
   E  S  S  S E  Q    E  Q
|-----------------------------|
|-----------------------------|
|-----------------------------|
|-12-10h12p10-9-10---12-------|
|-----------------------10----|
|-----------------------------|
|
|  H               E  E  E E
|-----------------------------|
|-----------------------------|
|--7--------------------------|
|--7---------------7--5--4-5--|
|--5---------------7--5--4-5--|
|------------------5--3--2-3--|


   Interlude
    $
    A5                                  C5
    Gtr III
                    ~~~~PM|      PM|                    ~~~~
     E  E  E    E  +E   S  S  E  S  S    E  E  E    E  +Q       E  E
||------------------------------------|--------------------------------|
||o-----------------------------------|---------------------------12---|
||------------------------------------|------------12-(12)-----14------|
||------------------------------------|--------------------------------|
||o-12-12------12-(12)-------12-------|-15-14-15-----------------------|
||--------12-----------12-12----12-12-|--------------------------------|
|
|   Gtr IV
|                   ~~~~                                ~~~~
|    E  E  E    E  +Q         E  E       E  E  E    E  +Q       E  E
||------------------------------------|--------------------------------|
||o-----------------------------------|---------------------------12---|
||------------------------------------|------------12-(12)-----14------|
||------------------------------------|--------------------------------|
||o-12-12-10---12-(12)----------------|-15-14-15-----------------------|
||---------------------------12-10----|--------------------------------|
|
|   Gtr V
|          PM|          PM|      PM|           PM|         PM|     PM|
|    E  E  S S  Q       S  S  E  S  S    E  E  S S  Q      S S  E  S S
||------------------------------------|--------------------------------|
||o-----------------------------------|--------------------------------|
||---2--2-------2-------------2-------|--5--5-------5-----------5------|
||---2--2-------2-------------2-------|--5--5-------5-----------5------|
||o--0--0--0-0--0-------0--0--0--0--0-|--3--3--3-3--3------3-3--3--3-3-|
||------------------------------------|--------------------------------|


                                                          To Coda
  F5              C5             G5               D5
      |--3--|
   E  S  S  S  E   E  +E   E  E   E    +E   E  E   E  +E   E  E   E
|-----------------------------------|--------------------------------||
|-13-12h13p12S10--------------------|-------------------------------o||
|-----------------12-(12)-10--9-----|--------------------------------||
|--------------------------------12-|-(12)---------------------------||
|-----------------------------------|------15-14--12-(12)----12--15-o||
|-----------------------------------|---------------------15---------||
|
|     |--3--|
|  E  S  S  S  E   E  +E   E  E   E    +E   E  E   E  +E   E  E   E
|-----------------------------------|--------------------------------||
|-13-12h13p12S10--------------------|-------------------------------o||
|-----------------12-(12)-10--9-----|--------------------------------||
|--------------------------------12-|-(12)-----------------------10--||
|-----------------------------------|------15-14--12-(12)-10--------o||
|-----------------------------------|------------------------12------||
|
|  E  E       +E   E  +E   E +E   E    +E   E +E   E  +E   E +E   E
|-----------------------------------|--------------------------------||
|-----------------------------------|-------------------------------o||
|------------------5--(5)--5-(5)----|--------------7--(7)--7-(7)--7--||
|--3--3-------(3)--5--(5)--5-(5)--5-|--(5)--5-(5)--7--(7)--7-(7)--7--||
|--3--3-------(3)--3--(3)--3-(3)--5-|--(5)--5-(5)--5--(5)--5-(5)--5-o||
|--1--1-------(1)-----------------3-|--(3)--3-(3)--------------------||


 Verse
  $$
  N.C.
  Gtr III
  PM  PM|   PM  PM--|   PM  PM  PM    PM  PM  PM  PM    PM  PM  PM  PM
  E E E E E E E E   E E E E E E E E   E E E E E E E E   E E E E E E E   E
|-----------------|-----------------|-----------------|--------------------|
|-----------------|-----------------|-----------------|--------------------|
|---------4---5---|-----------------|-----------------|--------------------|
|---2-------------|---5---7---5-----|-----------------|--------------------|
|-0---0-0---0---0-|-3---3---3---3-7-|---5---7---5-----|---2---0---2-----0--|
|-----------------|-----------------|-3---3---3---3-7-|-1---1---1---1------|
|
| Gtr IV
| PM  PM  PM  PM    PM  PM  PM  PM    PM  PM  PM  PM    PM  PM  PM  PM
| E E E E E E E E   E E E E E E E E   E E E E E E E E   E E E E E E E a E
|-----------------|-----------------|-----------------|--------------------|
|-----------------|-----------------|-----------------|--------------------|
|-----------------|-----------------|-----------------|--------------------|
|---2---2---2---2-|---5---3---2---3-|-----------------|--------------------|
|-0---3---0---3---|-3---3---3---3---|---2---3---5---2-|---2---3---5---2h3--|
|-----------------|-----------------|-3---3---3---3---|-1---1---1---1------|


  N.C.
  PM|   PM  PM  PM--|   PM  PM  PM    PM  PM  PM  PM    PM  PM  PM  PM
  E E E E E E E E   E E E E E E E E   E E E E E E E E   E E E E E E E   E
|-----------------|-----------------|-----------------|--------------------|
|-----------------|-----------------|-----------------|--------------------|
|-----2---4---5---|-----------------|-----------------|--------------------|
|---2-------------|---5---7---5-----|-----------------|--------------------|
|-0-----0---0---0-|-3---3---3---3-7-|---2---0---2---0-|---2---0---2-----0--|
|-----------------|-----------------|-1---1---1---1---|-0---0---0---0------|
|
| PM  PM  PM  PM    PM  PM  PM  PM    PM  PM  PM  PM    PM  PM  PM  PM
| E E E E E E E E   E E E E E E E E   E E E E E E E E   E E E E E E E a E
|-----------------|-----------------|-----------------|--------------------|
|-----------------|-----------------|-----------------|--------------------|
|-----------------|-----------------|-----------------|--------------------|
|---2---2---2---2-|---5---3---2---3-|-----------------|--------------------|
|-0---3---0---3---|-0---0---0---0---|---2---3---5---2-|---2---3---5---2h3--|
|-----------------|-----------------|-1---1---1---1---|-0---0---0---0------|


  N.C.
  PM|   PM  PM  PM--|   PM  PM  PM    PM  PM  PM  PM    PM  PM  PM  PM
  E E E E E E E E   E E E E E E E E   E E E E E E E E   E E E E E E E   E
|-----------------|-----------------|-----------------|--------------------|
|-----------------|-----------------|-----------------|--------------------|
|-----2---4---5---|-----------------|-----------------|--------------------|
|---2-------------|---5---7---5-----|-----------------|--------------------|
|-0-----0---0---0-|-3---3---3---3-7-|---5---7---5-----|---2---0---2-----0--|
|-----------------|-----------------|-3---3---3---3-7-|-1---1---1---1------|
|
| PM  PM  PM  PM    PM  PM  PM  PM    PM  PM  PM  PM    PM  PM  PM  PM
| E E E E E E E E   E E E E E E E E   E E E E E E E E   E E E E E E E a E
|-----------------|-----------------|-----------------|--------------------|
|-----------------|-----------------|-----------------|--------------------|
|-----------------|-----------------|-----------------|--------------------|
|---2---2---2---2-|---5---3---2---3-|-----------------|--------------------|
|-0---3---0---3---|-3---3---3---3---|---2---3---5---2-|---2---3---5---2h3--|
|-----------------|-----------------|-3---3---3---3---|-1---1---1---1------|


                                                            D.S. al Coda
                                                            D.S. al Coda
  N.C.
  PM|   PM  PM  PM--|   PM  PM  PM    PM  PM  PM  PM    PM  PM  PM  PM
  E E E E E E E E   E E E E E E E E   E E E E E E E E   E E E E E E E   E
|-----------------|-----------------|-----------------|--------------------|
|-----------------|-----------------|-----------------|--------------------|
|-----2---4---5---|-----------------|-----------------|--------------------|
|---2-------------|---5---7---5-----|-----------------|--------------------|
|-0-----0---0---0-|-3---3---3---3-7-|---2---0---2---0-|---2---0---2-----0--|
|-----------------|-----------------|-1---1---1---1---|-0---0---0---0------|
|
| PM  PM  PM  PM    PM  PM  PM  PM    PM  PM  PM  PM    PM  PM  PM  PM
| E E E E E E E E   E E E E E E E E   E E E E E E E E   E E E E E E E a E
|-----------------|-----------------|-----------------|--------------------|
|-----------------|-----------------|-----------------|--------------------|
|-----------------|-----------------|-----------------|--------------------|
|---2---2---2---2-|---5---3---2---3-|-----------------|--------------------|
|-0---3---0---3---|-3---3---3---3---|---2---3---5---2-|---2---3---5---2h3--|
|-----------------|-----------------|-1---1---1---1---|-0---0---0---0------|


 Break
  &
  A5          D5/AAm           D5/AA5  F/A
            PM  PM           PM  PM  PM
  E E  E  E E E E E   +E   E E E E E E  E
|-------------------|---------------------||
|-------------------|---------------------||
|-9-9--9--9---7---5-|-(5)--5---7---9---10-||
|-7-7--7--7---7---7-|-(7)--7---7---7----7-||
|-----------0---0---|--------0---0---0----||
|-------------------|---------------------||
|
| E E  H.              H..              E
|-------------------|---------------------||
|-------------------|---------------------||
|-9-9\--------------|---------------------||
|-7-7\--------------|-------------------7-||
|-0-0---------------|-------------------5-||
|-------------------|---------------------||


 Chorus
                 A5F/A   Em                  A5
               PM      PM          PM  PM  PM
   +E   +E   E E E  E  E E   +E  E E E E E E E
|--------------------------|-------------------|
|--------------------------|-------------------|
|-(10)-(10)-10---9s10----4-|-(4)-4---5---4---9-|
|--(7)--(7)--7-0-7-(7)-0-5-|-(5)-5---5---5---7-|
|--------------------------|-------7---7---7---|
|--------------------------|-------------------|
|
|              PM      PM          PM  PM  PM
|  +E   +E   E E E +E  E E   +E  E E E E E E E
|--------------------------|-------------------|
|--------------------------|-------------------|
|--------------------------|-----------------9-|
|--(7)--(7)--7---7-(7)---9-|-(9)-9---9---9---7-|
|--(5)--(5)--5-5-5-(5)-5-7-|-(7)-7---7---7---0-|
|--------------------------|-------0---0---0---|


  A5          D5/AAm          D5/AA5  F/A
            PM  PM          PM  PM  PM
  +E  E E E E E E E   +E  E E E E E E  E
|-------------------|--------------------|
|-------------------|--------------------|
|-(9)-9-9-9---7---5-|-(5)-5---7---9---10-|
|-(7)-7-7-7---7---7-|-(7)-7---7---7----7-|
|-----------0---0---|-------0---0---0----|
|-------------------|--------------------|
|
|           PM  PM          PM  PM  PM
| +E  E E E E E E E   +E  E E E E E E  E
|-------------------|--------------------|
|-------------------|--------------------|
|-(9)-9-9-9---7---5-|-(5)-5---7---9------|
|-(7)-7-7-7---7---7-|-(7)-7---7---7----7-|
|-(0)-0-0-0-0-0-0-0-|-(0)-0-0-0-0-0-0--5-|
|-------------------|--------------------|


                 A5F/A   F5                          A5
               PM      PM          PM
   +E   +E   E E E  E  E  E    +E  E  E  E E  E  +E  E
|---------------------------|--------------------------|
|---------------------------|--------------------------|
|-(10)-(10)-10---9s10----10-|-(10)---12-10-x--9--(9)-9-|
|--(7)--(7)--7-0-7-(7)-0-10-|-(10)-------------------7-|
|-------------------------8-|--(8)-8-------------------|
|---------------------------|--------------------------|
|
|              PM      PM          PM
|  +E   +E   E E E  E  E  E    +E  E  E  E E  E  +E  E
|---------------------------|--------------------------|
|---------------------------|--------------------------|
|---------------------------|---------9--7-x---------9-|
|--(7)--(7)--7---7--7-----3-|--(3)-----------10-(10)-7-|
|--(5)--(5)--5-5-5--5--5--3-|--(3)-------------------0-|
|-------------------------1-|--(1)-1-------------------|


  A5          D5/AAm          D5/AA5  F/A
            PM  PM          PM  PM  PM
  +E  E E E E E E E   +E  E E E E E E  E
|-------------------|--------------------|
|-------------------|--------------------|
|-(9)-9-9-9---7---5-|-(5)-5---7---9---10-|
|-(7)-7-7-7---7---7-|-(7)-7---7---7----7-|
|-----------0---0---|-------0---0---0----|
|-------------------|--------------------|
|
|           PM  PM          PM  PM  PM
| +E  E E E E E E E   +E  E E E E E E  E
|-------------------|--------------------|
|-------------------|--------------------|
|-(9)-9-9-9---7---5-|-(5)-5---7---9------|
|-(7)-7-7-7---7---7-|-(7)-7---7---7----7-|
|-(0)-0-0-0-0-0-0-0-|-(0)-0-0-0-0-0-0--5-|
|-------------------|--------------------|


                 A5F/A   Em                  A5
               PM      PM          PM  PM  PM
   +E   +E   E E E  E  E E   +E  E E E E E E E
|--------------------------|-------------------|
|--------------------------|-------------------|
|-(10)-(10)-10---9s10----4-|-(4)-4---5---4---9-|
|--(7)--(7)--7-0-7-(7)---5-|-(5)-5---5---5---7-|
|----------------------5---|-------7---7---7---|
|--------------------------|-------------------|
|
|              PM      PM          PM  PM  PM
|  +E   +E   E E E  E  E E   +E  E E E E E E E
|--------------------------|-------------------|
|--------------------------|-------------------|
|--------------------------|-----------------9-|
|--(7)--(7)--7---7--7----9-|-(9)-9---9---9---7-|
|--(5)--(5)--5-5-5--5--5-7-|-(7)-7---7---7---0-|
|--------------------------|-------0---0---0---|


  A5          D5/AAm          D5/AA5  F/A
            PM  PM          PM  PM  PM
  +E  E E E E E E E   +E  E E E E E E  E
|-------------------|--------------------|
|-------------------|--------------------|
|-(9)-9-9-9---7---5-|-(5)-5---7---9---10-|
|-(7)-7-7-7---7---7-|-(7)-7---7---7----7-|
|-----------0---0---|-------0---0---0----|
|-------------------|--------------------|
|
|           PM  PM          PM  PM  PM
| +E  E E E E E E E   +E  E E E E E E  E
|-------------------|--------------------|
|-------------------|--------------------|
|-(9)-9-9-9---7---5-|-(5)-5---7---9------|
|-(7)-7-7-7---7---7-|-(7)-7---7---7----7-|
|-(0)-0-0-0-0-0-0-0-|-(0)-0-0-0-0-0-0--5-|
|-------------------|--------------------|


                                  D.S.S. al Dbl. Coda
                 A5F/A   F5
               PM      PM          PM         ~~~~~~~~~~~~
   +E   +E   E E E  E  E  E    +E  E  E  E E  E  +E   +E
|---------------------------|-----------------------------|
|---------------------------|-----------------------------|
|-(10)-(10)-10---9s10----10-|-(10)---12-10-x--9--(9)--(9)-|
|--(7)--(7)--7-0-7-(7)-0-10-|-(10)------------------------|
|-------------------------8-|--(8)-8----------------------|
|---------------------------|-----------------------------|
|
|              PM      PM          PM         ~~~~~~~~~~~~
|  +E   +E   E E E  E  E  E    +E  E  E  E E  E  +E   +E
|---------------------------|-----------------------------|
|---------------------------|-----------------------------|
|---------------------------|---------9--7-x--------------|
|--(7)--(7)--7---7--7-----3-|--(3)-----------10-(10)-(10)-|
|--(5)--(5)--5-5-5--5--5--3-|--(3)------------------------|
|-------------------------1-|--(1)-1----------------------|


 Chorus
  &&
  A5        D5/AAm          D5/AA5  F/A
          PM  PM          PM  PM  PM
  E E E E E E E E   +E  E E E E E E  E
|-----------------|--------------------|
|-----------------|--------------------|
|-9-9-9-9---7---5-|-(5)-5---7---9---10-|
|-7-7-7-7---7---7-|-(7)-7---7---7----7-|
|---------0---0---|-------0---0---0----|
|-----------------|--------------------|
|
|         PM  PM          PM  PM  PM
| E E E E E E E E   +E  E E E E E E  E
|-----------------|--------------------|
|-----------------|--------------------|
|-9-9-9-9---7---5-|-(5)-5---7---9------|
|-7-7-7-7---7---7-|-(7)-7---7---7----7-|
|-0-0-0-0-0-0-0-0-|-(0)-0-0-0-0-0-0--5-|
|-----------------|--------------------|


                 A5F/A   Em                  A5
               PM      PM          PM  PM  PM
   +E   +E   E E E  E  E E   +E  E E E E E E E
|--------------------------|-------------------|
|--------------------------|-------------------|
|-(10)-(10)-10---9s10----4-|-(4)-4---5---4---9-|
|--(7)--(7)--7-0-7-(7)---5-|-(5)-5---5---5---7-|
|----------------------5---|-------7---7---7---|
|--------------------------|-------------------|
|
|              PM      PM          PM  PM  PM
|  +E   +E   E E E +E  E E   +E  E E E E E E E
|--------------------------|-------------------|
|--------------------------|-------------------|
|--------------------------|-----------------9-|
|--(7)--(7)--7---7-(7)---9-|-(9)-9---9---9---7-|
|--(5)--(5)--5-5-5-(5)-5-7-|-(7)-7---7---7---0-|
|--------------------------|-------0---0---0---|


  A5          D5/AAm          D5/AA5  F/A
            PM  PM          PM  PM  PM
  +E  E E E E E E E   +E  E E E E E E  E
|-------------------|--------------------|
|-------------------|--------------------|
|-(9)-9-9-9---7---5-|-(5)-5---7---9---10-|
|-(7)-7-7-7---7---7-|-(7)-7---7---7----7-|
|-----------0---0---|-------0---0---0----|
|-------------------|--------------------|
|
|           PM  PM          PM  PM  PM
| +E  E E E E E E E   +E  E E E E E E  E
|-------------------|--------------------|
|-------------------|--------------------|
|-(9)-9-9-9---7---5-|-(5)-5---7---9------|
|-(7)-7-7-7---7---7-|-(7)-7---7---7----7-|
|-(0)-0-0-0-0-0-0-0-|-(0)-0-0-0-0-0-0--5-|
|-------------------|--------------------|


                 A5F/A   F5                          A5
               PM      PM          PM         ~~~~~~~
   +E   +E   E E E  E  E  E    +E  E  E  E E  E  +E  E
|---------------------------|--------------------------|
|---------------------------|--------------------------|
|-(10)-(10)-10---9s10----10-|-(10)---12-10-x--9--(9)-9-|
|--(7)--(7)--7-0-7-(7)---10-|-(10)-------------------7-|
|----------------------5--8-|--(8)-8-------------------|
|---------------------------|--------------------------|
|
|              PM      PM          PM         ~~~~~~~
|  +E   +E   E E E  E  E  E    +E  E  E  E E  E  +E  E
|---------------------------|--------------------------|
|---------------------------|--------------------------|
|---------------------------|---------9--7-x---------9-|
|--(7)--(7)--7---7--7-----3-|--(3)-----------10-(10)-7-|
|--(5)--(5)--5-5-5--5--5--3-|--(3)-------------------0-|
|-------------------------1-|--(1)-1-------------------|


  A5          D5/AAm          D5/AA5  F/A
            PM  PM          PM  PM  PM
  +E  E E E E E E E   +E  E E E E E E  E
|-------------------|--------------------|
|-------------------|--------------------|
|-(9)-9-9-9---7---5-|-(5)-5---7---9---10-|
|-(7)-7-7-7---7---7-|-(7)-7---7---7----7-|
|-----------0---0---|-------0---0---0----|
|-------------------|--------------------|
|
|           PM  PM          PM  PM  PM
| +E  E E E E E E E   +E  E E E E E E  E
|-------------------|--------------------|
|-------------------|--------------------|
|-(9)-9-9-9---7---5-|-(5)-5---7---9------|
|-(7)-7-7-7---7---7-|-(7)-7---7---7----7-|
|-(0)-0-0-0-0-0-0-0-|-(0)-0-0-0-0-0-0--5-|
|-------------------|--------------------|


                 A5F/A   Em                  A5
               PM      PM          PM  PM  PM
   +E   +E   E E E  E  E E   +E  E E E E E E E
|--------------------------|-------------------|
|--------------------------|-------------------|
|-(10)-(10)-10---9s10----4-|-(4)-4---5---4---9-|
|--(7)--(7)--7-0-7-(7)---5-|-(5)-5---5---5---7-|
|----------------------5---|-------7---7---7---|
|--------------------------|-------------------|
|
|              PM      PM          PM  PM  PM
|  +E   +E   E E E  E  E E   +E  E E E E E E E
|--------------------------|-------------------|
|--------------------------|-------------------|
|--------------------------|-----------------9-|
|--(7)--(7)--7---7--7----9-|-(9)-9---9---9---7-|
|--(5)--(5)--5-5-5--5--5-7-|-(7)-7---7---7---0-|
|--------------------------|-------0---0---0---|


  A5          D5/AAm          D5/AA5  F/A
  Gtr III
            PM  PM          PM  PM  PM
  +E  E E E E E E E   +E  E E E E E E  E
|-------------------|--------------------|
|-------------------|--------------------|
|-(9)-9-9-9---7---5-|-(5)-5---7---9---10-|
|-(7)-7-7-7---7---7-|-(7)-7---7---7----7-|
|-----------0---0---|-------0---0---0----|
|-------------------|--------------------|
|
| Gtr IV
|           PM  PM          PM  PM  PM
| +E  E E E E E E E   +E  E E E E E E  E
|-------------------|--------------------|
|-------------------|--------------------|
|-(9)-9-9-9---7---5-|-(5)-5---7---9------|
|-(7)-7-7-7---7---7-|-(7)-7---7---7----7-|
|-(0)-0-0-0-0-0-0-0-|-(0)-0-0-0-0-0-0--5-|
|-------------------|--------------------|
|
| Gtr V
|  W                   W
|-------------------|--------------------|
|-------------------|--------------------|
|-------------------|--------------------|
|-------------------|--------------------|
|-------------------|--------------------|
|-------------------|--------------------|


                 A5F/A   F5                           F
               PM      PM           PM         ~~~~~~~
   +E   +E   E E E  E  E  E    +E   E  E  E E  E  +E    E
|---------------------------|-------------------------/17-|
|---------------------------|-----------------------------|
|-(10)-(10)-10---9s10----10-|-(10)----12-10-x--9--(9)-----|
|--(7)--(7)--7-0-7-(7)---10-|-(10)------------------------|
|----------------------5--8-|--(8)--8---------------------|
|---------------------------|-----------------------------|
|
|              PM      PM           PM         ~~~~~~~
|  +E   +E   E E E  E  E  E    +E   E  E  E E  E  +E    E
|---------------------------|-------------------------/13-|
|---------------------------|-----------------------------|
|---------------------------|----------9--7-x-------------|
|--(7)--(7)--7---7--7-----3-|--(3)------------10-(10)-----|
|--(5)--(5)--5-5-5--5--5--3-|--(3)------------------------|
|-------------------------1-|--(1)--1---------------------|
|
|   W                           H..                     E
|---------------------------|-----------------------------|
|---------------------------|-----------------------------|
|---------------------------|-----------------------------|
|---------------------------|-----------------------------|
|---------------------------|---------------------------0-|
|---------------------------|---------------------------1-|


 Guitar Solo
         GAG          ABAm         A5             Am
                                                              ~~~~
   +Q    E   Q.       E   E    +Q     E   +E       +S   +S   +Q       E
|-(17)---x-/19--------x-/20-|-(20)---20--(20)b24==(20)r(20)-(20)-----20b24==|
|---------------------------|-----------------------------------------------|
|---------------------------|-----------------------------------------------|
|---------------------------|-----------------------------------------------|
|---------------------------|-----------------------------------------------|
|---------------------------|-----------------------------------------------|
|
|                                                             ~~~~
|  +Q    E   Q.       E   E    +Q     E   +E       +S   +S   +Q       E
|-(13)---x-/15--------x-/17-|-(17)---17--(17)b20==(17)r(17)-(17)------------|
|---------------------------|-----------------------------------------------|
|---------------------------|-----------------------------------------------|
|---------------------------|-----------------------------------------------|
|---------------------------|-----------------------------------------------|
|---------------------------|-----------------------------------------------|
|
|                                          PM
|  +E  E E   E  +E  E E   E    +E  E  E    E        E         E  +E   E
|---------------------------|-----------------------------------------------|
|---------------------------|-----------------------------------------------|
|---------------------------|-----------------------------------------------|
|---------------------------|-----------------------------------------------|
|--(0)-2-3---2--(2)-3-5---3-|--(3)-7p=5-------------3h========5--(5)--0-----|
|--(1)-3-5---3--(3)-5-7---5-|--(5)-5-(5)---5--------5--------(5)-(5)--1-----|


  F    G    Am  G                Am       A5      AmG   F
             T    ~~~~~~~~~~~~~~~~~~~~~~~~
   +E   +E   E    E  +H               +W
|-(20)-(20)-23r-/24-(24)-----------|-(24)------------------|
|----------------------------------|-----------------------|
|----------------------------------|-----------------------|
|----------------------------------|-----------------------|
|----------------------------------|-----------------------|
|----------------------------------|-----------------------|
|
|   W                                  W
|----------------------------------|-----------------------|
|----------------------------------|-----------------------|
|----------------------------------|-----------------------|
|----------------------------------|-----------------------|
|----------------------------------|-----------------------|
|----------------------------------|-----------------------|
|
|                                               PM    PM
|   E    E   E    E  +E   E   E  E    +E  E  E  E E E E E
|----------------------------------|-----------------------|
|----------------------------------|-----------------------|
|----------------------------------|-----------------------|
|----------------------------------|-----------------------|
|---0----2---3----2--(2)--3---5--3-|--(3)-7p=5----3-2---0--|
|---1----3---5----3--(3)-(3)-(3)-5-|--(5)-5-(5)-5-5-3-3-1--|


  F      G       Am    G           Am   Bm    Am
  Gtr III
                  |---3---|  |---3----|  |---3---|
   S   S  S  +S   E  E    E  E   E    E  E  E    E
|-17--20-17-(17)----17---20-19--17------17---------|
|----------------20------------------20----20---18-|
|--------------------------------------------------|
|--------------------------------------------------|
|--------------------------------------------------|
|--------------------------------------------------|
|
| Gtr V
| +E      E       E    E    +E     E     E    E
|--------------------------------------------------|
|--------------------------------------------------|
|--------------------------------------------------|
|--------------------------------------------------|
|-(0)-----2-------3----2----(2)----3-----5----3----|
|-(1)-----3-------5----3----(3)----5-----7----5----|


         A5               Am          F
                           ~~~~~~~~~~~
   |---3----|  |---3----|
   E   E    E  E   E    E  Q      +E   +E
|-------------------------------------------|
|-17--18---17-------------------------------|
|-------------19--17------------------------|
|----------------------21-19-----(19)-(19)\-|
|-------------------------------------------|
|-------------------------------------------|
|
|                    PM
| +E     E     E     E     E  E   +E    E
|-------------------------------------------|
|-------------------------------------------|
|-------------------------------------------|
|-------------------------------------------|
|-(3)----7p====5-----------3h=5---(5)---0---|
|-(5)----5----(5)----5-----5-(5)--(5)---1---|


  F        G        Am       G                                      Am
  Gtr III
   |--3--|  |--3--|  |--3--|  |--3--|  |--3---|  |--3---|  |--3---|
   S  S  S  S  S  S  S  S  S  S  S  S  S   S  S  S   S  S  S   S  S  E
|-----------------------------------------------12--------12--15-17s19-|
|-----------------------------------------13-15-----13-15--------------|
|-------------------------12-14----12-16-------------------------------|
|----------12-------14-15-------15-------------------------------------|
|-12-14-15----14-15----------------------------------------------------|
|----------------------------------------------------------------------|
|
| Gtr IV
|  W
|----------------------------------------------------------------------|
|----------------------------------------------------------------------|
|----------------------------------------------------------------------|
|----------------------------------------------------------------------|
|----------------------------------------------------------------------|
|----------------------------------------------------------------------|
|
| Gtr V
|  E        E        E        E       +E         E         E         E
|----------------------------------------------------------------------|
|----------------------------------------------------------------------|
|----------------------------------------------------------------------|
|----------------------------------------------------------------------|
|--0--------2--------3--------2-------(2)--------3---------5---------3-|
|--1--------3--------5--------3-------(3)-------(3)-------(3)--------5-|


        A5            Am   G           F
                                   \1/
    ~~~~~               ~~~~~~~~~~
   +Q      E   +E      +Q     +E   a    E
|-(19)----19--(19)b22r(19)---(19)-22---22-|
|-----------------------------------------|
|-----------------------------------------|
|-----------------------------------------|
|-----------------------------------------|
|-----------------------------------------|
|
|                                  \1/
|   H..                            a    E
|---------------------------------17---17-|
|-----------------------------------------|
|-----------------------------------------|
|-----------------------------------------|
|-----------------------------------------|
|-----------------------------------------|
|
|               PM             PM
|  +E   E  E    E       E  E   E        E
|-----------------------------------------|
|-----------------------------------------|
|-----------------------------------------|
|-----------------------------------------|
|--(3)--7p=5------------3--2------------0-|
|--(5)--5-(5)---5-------5--3---3--------1-|


       F   G         Am        G          Am        Bm        Am
   \1/        \1/       \1/       \1/        \1/       \1/
        |---------3----------|         |---------3----------|
   a    Q     a    Q    a    Q    a    Q     a    Q    a    Q
|-24---24----22---22---20---20---22---22----20---20---17---17---|
|---------------------------------------------------------------|
|---------------------------------------------------------------|
|---------------------------------------------------------------|
|---------------------------------------------------------------|
|---------------------------------------------------------------|
|
|  \1/        \1/       \1/       \1/        \1/       \1/
|       |---------3----------|         |---------3----------|
|  a    Q     a    Q    a    Q    a    Q     a    Q    a    Q
|-19---19----17---17---15---15---17---17----15---15-------------|
|-----------------------------------------------------17---17---|
|---------------------------------------------------------------|
|---------------------------------------------------------------|
|---------------------------------------------------------------|
|---------------------------------------------------------------|
|
|      +E  E         E         E      +E  E         E         E
|---------------------------------------------------------------|
|---------------------------------------------------------------|
|---------------------------------------------------------------|
|---------------------------------------------------------------|
|------(0)-2---------3---------2------(2)-3---------5---------3-|
|------(1)-3---------5---------3------(3)-5---------7---------5-|


           A5                      Am         F
   \1/        \1/         \1/
                                    ~~~
        |----------3-----------|
   a    Q     a    Q      a    Q    H
|-20---20----17---17-----12---12---12-----------|
|-----------------------------------------------|
|-----------------------------------------------|
|-----------------------------------------------|
|-----------------------------------------------|
|-----------------------------------------------|
|
|  \1/        \1/         \1/
|                                   ~~~
|       |----------3-----------|
|  a    Q     a    Q      a    Q    H
|-15---15---------------------------------------|
|------------17---17-----13---13---13-----------|
|-----------------------------------------------|
|-----------------------------------------------|
|-----------------------------------------------|
|-----------------------------------------------|
|
|                                PM
|      +E  E          E          E  E  E  +E  E
|-----------------------------------------------|
|-----------------------------------------------|
|-----------------------------------------------|
|-----------------------------------------------|
|------(3)-7p=========5-------------3h=5--(5)-0-|
|------(5)-5---------(5)---------5--5-(5)-(5)-1-|


     F  G AmG             Am        A5      AmG   F
      ~~~~~~~~~~~~               ~~~~
   a  H        Q.          E    +W
|-10h12-------10-------------|----------------------|
|-------------------------13-|-(13)-----------------|
|----------------------------|----------------------|
|----------------------------|----------------------|
|----------------------------|----------------------|
|----------------------------|----------------------|
|
|     ~~~~~~~~~~~~               ~~~~
|  a  H        Q.          E    +W
|----------------------------|----------------------|
|-12h13-------12-------------|----------------------|
|-------------------------14-|-(14)-----------------|
|----------------------------|----------------------|
|----------------------------|----------------------|
|----------------------------|----------------------|
|
|                                         PM    PM
|     E E E E +E   E   E   E    +E  E  E  E E E E E
|----------------------------|----------------------|
|----------------------------|----------------------|
|----------------------------|----------------------|
|----------------------------|----------------------|
|-----0-2-3-2-(2)--3---5---3-|--(3)-7p=5----3-2---0-|
|-----1-3-5-3-(3)-(3)-(3)--5-|--(5)-5-(5)-5-5-3-3-1-|


         G    Am    G           Am   Bm    Am            A5                Am           F
                                                                            ~~~~
   |---3----|  |---3---|  |---3----|  |---3---|    |---3----|  |----3----|
   E   E    E  E  E    E  E   E    E  E  E    E    E   E    E  E   E     E  Q..            S
|-----------------------------------------------|-----------------------------------------20--|
|-----------------------------------------------|---------------------------------------------|
|-----------------------------------------------|-------------19--17---/21-19-----------------|
|------------------------------------17------19-|-17--22---21---------------------------------|
|-------------17------19-17--20---19----20------|---------------------------------------------|
|-17--20---19----20-----------------------------|---------------------------------------------|
|
|  W                                               W
|-----------------------------------------------|---------------------------------------------|
|-----------------------------------------------|---------------------------------------------|
|-----------------------------------------------|---------------------------------------------|
|-----------------------------------------------|---------------------------------------------|
|-----------------------------------------------|---------------------------------------------|
|-----------------------------------------------|---------------------------------------------|
|
|                                                                    PM
| +E     E     E    E    +E     E     E    E      +E     E     E     E      E    E  +E  E
|-----------------------------------------------|---------------------------------------------|
|-----------------------------------------------|---------------------------------------------|
|-----------------------------------------------|---------------------------------------------|
|-----------------------------------------------|---------------------------------------------|
|-(0)----2-----3----2----(2)----3-----5----3----|-(3)----7p====5------------3h===5--(5)-0-----|
|-(1)----3-----5----3----(3)----5-----7----5----|-(5)----5----(5)----5------5---(5)-(5)-1-----|


  F        G     Am       G                                Am
  Gtr III
   |--3--|        |--3--|        |--3---|         |--3---|
   S  S  S  S  S  S  S  S  S  S  S   S  S  S   S  S   S  S  S  S
|-20h24p20----20-20h24p20----20-19h=22p19-----19-19h=22p19----19-|
|----------22-------------22--------------20---------------20----|
|----------------------------------------------------------------|
|----------------------------------------------------------------|
|----------------------------------------------------------------|
|----------------------------------------------------------------|
|
| Gtr V
|  E        E     E        E    +E         E      E         E
|----------------------------------------------------------------|
|----------------------------------------------------------------|
|----------------------------------------------------------------|
|----------------------------------------------------------------|
|--0--------2-----3--------2----(2)--------3------5---------3----|
|--1--------3-----5--------3----(3)-------(3)----(3)--------5----|


            A5                    Am     G         Am
   |--3---|        |--3---|
   S   S  S  S  S  S   S  S  S  S  E      +E   +E   +E
|-20h=24p20----20-20h=24p20----20-27b29==(27)-(27)r(27)b29==|
|-----------22--------------22------------------------------|
|-----------------------------------------------------------|
|-----------------------------------------------------------|
|-----------------------------------------------------------|
|-----------------------------------------------------------|
|
|                            PM                 PM
| +E         E     E         E     E       E    E    E
|-----------------------------------------------------------|
|-----------------------------------------------------------|
|-----------------------------------------------------------|
|-----------------------------------------------------------|
|-(3)--------7p====5---------------3-------2---------3------|
|-(5)--------5----(5)--------5-----5-------3----3----5------|


  Am                       A5
  Gtr III
          ~~~~~~~~                        ~~~~
   +E    +E   +H      +E    E            +H.      Q
|-(27)--(27)-(27)----(27)r------------|--------------|
|--------------------------12---------|-(12)---------|
|-------------------------------------|--------------|
|-------------------------------------|--------------|
|-------------------------------------|--------------|
|-------------------------------------|--------------|
|
| Gtr IV
|                                         ~~~~
|   H..                     S     +S     +H.      Q
|-------------------------------------|--------------|
|-------------------------------------|--------------|
|--------------------------11b12-(11)-|-(11)---------|
|-------------------------------------|--------------|
|-------------------------------------|--------------|
|-------------------------------------|--------------|
|
| Gtr V
|  +H..                     E            +H.      Q
|-------------------------------------|--------------|
|-------------------------------------|--------------|
|-------------------------------------|--------------|
|---------------------------7---------|--(7)---------|
|--(3)----------------------7---------|--(7)---------|
|--(5)----------------------5---------|--(5)---------|


   Interlude
    A5                                  C5
                    ~~~~PM|      PM|                    ~~~~
     E  E  E    E  +E   S  S  E  S  S    E  E  E    E  +Q       E  E
||------------------------------------|--------------------------------|
||o-----------------------------------|---------------------------12---|
||------------------------------------|------------12-(12)-----14------|
||------------------------------------|--------------------------------|
||o-12-12------12-(12)-------12-------|-15-14-15-----------------------|
||--------12-----------12-12----12-12-|--------------------------------|
|
|                   ~~~~                                ~~~~
|    E  E  E    E  +Q         E  E       E  E  E    E  +Q       E  E
||------------------------------------|--------------------------------|
||o-----------------------------------|---------------------------12---|
||------------------------------------|------------12-(12)-----14------|
||------------------------------------|--------------------------------|
||o-12-12-10---12-(12)----------------|-15-14-15-----------------------|
||---------------------------12-10----|--------------------------------|
|
|          PM|          PM|      PM|           PM|         PM|     PM|
|    E  E  S S  Q       S  S  E  S  S    E  E  S S  Q      S S  E  S S
||------------------------------------|--------------------------------|
||o-----------------------------------|--------------------------------|
||---2--2-------2-------------2-------|--5--5-------5-----------5------|
||---2--2-------2-------------2-------|--5--5-------5-----------5------|
||o--0--0--0-0--0-------0--0--0--0--0-|--3--3--3-3--3------3-3--3--3-3-|
||------------------------------------|--------------------------------|


  F5              C5             G5               D5
      |--3--|
   E  S  S  S  E   E  +E   E  E   E    +E   E  E   E  +E   E  E   E
|-----------------------------------|--------------------------------||
|-13-12h13p12S10--------------------|-------------------------------o||
|-----------------12-(12)-10--9-----|--------------------------------||
|--------------------------------12-|-(12)---------------------------||
|-----------------------------------|------15-14--12-(12)----12--15-o||
|-----------------------------------|---------------------15---------||
|
|     |--3--|
|  E  S  S  S  E   E  +E   E  E   E    +E   E  E   E  +E   E  E   E
|-----------------------------------|--------------------------------||
|-13-12h13p12S10--------------------|-------------------------------o||
|-----------------12-(12)-10--9-----|--------------------------------||
|--------------------------------12-|-(12)-----------------------10--||
|-----------------------------------|------15-14--12-(12)-10--------o||
|-----------------------------------|------------------------12------||
|
|  E  E       +E   E  +E   E +E   E    +E   E +E   E  +E   E +E   E
|-----------------------------------|--------------------------------||
|-----------------------------------|-------------------------------o||
|------------------5--(5)--5-(5)----|--------------7--(7)--7-(7)--7--||
|--3--3-------(3)--5--(5)--5-(5)--5-|--(5)--5-(5)--7--(7)--7-(7)--7--||
|--3--3-------(3)--3--(3)--3-(3)--5-|--(5)--5-(5)--5--(5)--5-(5)--5-o||
|--1--1-------(1)-----------------3-|--(3)--3-(3)--------------------||


 Verse
  N.C.
  Gtr III
  PM|   PM  PM  PM--|   PM  PM  PM    PM  PM  PM  PM    PM  PM  PM  PM
  E E E E E E E E   E E E E E E E E   E E E E E E E E   E E E E E E E   E
|-----------------|-----------------|-----------------|--------------------|
|-----------------|-----------------|-----------------|--------------------|
|-----2---4---5---|-----------------|-----------------|--------------------|
|---2-------------|---5---7---5-----|-----------------|--------------------|
|-0-----0---0---0-|-3---3---3---3-7-|---5---7---5-----|---2---0---2-----0--|
|-----------------|-----------------|-3---3---3---3-7-|-1---1---1---1------|
|
| Gtr IV
| PM  PM  PM  PM    PM  PM  PM  PM    PM  PM  PM  PM    PM  PM  PM  PM
| E E E E E E E E   E E E E E E E E   E E E E E E E E   E E E E E E E a E
|-----------------|-----------------|-----------------|--------------------|
|-----------------|-----------------|-----------------|--------------------|
|-----------------|-----------------|-----------------|--------------------|
|---2---2---2---2-|---5---3---2---3-|-----------------|--------------------|
|-0---3---0---3---|-3---3---3---3---|---2---3---5---2-|---2---3---5---2h3--|
|-----------------|-----------------|-3---3---3---3---|-1---1---1---1------|


  N.C.
  PM|   PM  PM  PM--|   PM  PM  PM    PM  PM  PM  PM    PM  PM  PM  PM
  E E E E E E E E   E E E E E E E E   E E E E E E E E   E E E E E E E   E
|-----------------|-----------------|-----------------|--------------------|
|-----------------|-----------------|-----------------|--------------------|
|-----2---4---5---|-----------------|-----------------|--------------------|
|---2-------------|---5---7---5-----|-----------------|--------------------|
|-0-----0---0---0-|-3---3---3---3-7-|---2---0---2---0-|---2---0---2-----0--|
|-----------------|-----------------|-1---1---1---1---|-0---0---0---0------|
|
| PM  PM  PM  PM    PM  PM  PM  PM    PM  PM  PM  PM    PM  PM  PM  PM
| E E E E E E E E   E E E E E E E E   E E E E E E E E   E E E E E E E a E
|-----------------|-----------------|-----------------|--------------------|
|-----------------|-----------------|-----------------|--------------------|
|-----------------|-----------------|-----------------|--------------------|
|---2---2---2---2-|---5---3---2---3-|-----------------|--------------------|
|-0---3---0---3---|-0---0---0---0---|---2---3---5---2-|---2---3---5---2h3--|
|-----------------|-----------------|-1---1---1---1---|-0---0---0---0------|


   Interlude
    A5                                  C5
    Gtr III
                    ~~~~PM|      PM|                    ~~~~
     E  E  E    E  +E   S  S  E  S  S    E  E  E    E  +Q       E  E
||------------------------------------|--------------------------------|
||o-----------------------------------|---------------------------12---|
||------------------------------------|------------12-(12)-----14------|
||------------------------------------|--------------------------------|
||o-12-12------12-(12)-------12-------|-15-14-15-----------------------|
||--------12-----------12-12----12-12-|--------------------------------|
|
|   Gtr IV
|                   ~~~~                                ~~~~
|    E  E  E    E  +Q         E  E       E  E  E    E  +Q       E  E
||------------------------------------|--------------------------------|
||o-----------------------------------|---------------------------12---|
||------------------------------------|------------12-(12)-----14------|
||------------------------------------|--------------------------------|
||o-12-12-10---12-(12)----------------|-15-14-15-----------------------|
||---------------------------12-10----|--------------------------------|
|
|   Gtr V
|          PM|          PM|      PM|           PM|         PM|     PM|
|    E  E  S S  Q       S  S  E  S  S    E  E  S S  Q      S S  E  S S
||------------------------------------|--------------------------------|
||o-----------------------------------|--------------------------------|
||---2--2-------2-------------2-------|--5--5-------5-----------5------|
||---2--2-------2-------------2-------|--5--5-------5-----------5------|
||o--0--0--0-0--0-------0--0--0--0--0-|--3--3--3-3--3------3-3--3--3-3-|
||------------------------------------|--------------------------------|


  F5              C5             G5               D5
      |--3--|
   E  S  S  S  E   E  +E   E  E   E    +E   E  E   E  +E   E  E   E
|-----------------------------------|--------------------------------||
|-13-12h13p12S10--------------------|-------------------------------o||
|-----------------12-(12)-10--9-----|--------------------------------||
|--------------------------------12-|-(12)---------------------------||
|-----------------------------------|------15-14--12-(12)----12--15-o||
|-----------------------------------|---------------------15---------||
|
|     |--3--|
|  E  S  S  S  E   E  +E   E  E   E    +E   E  E   E  +E   E  E   E
|-----------------------------------|--------------------------------||
|-13-12h13p12S10--------------------|-------------------------------o||
|-----------------12-(12)-10--9-----|--------------------------------||
|--------------------------------12-|-(12)-----------------------10--||
|-----------------------------------|------15-14--12-(12)-10--------o||
|-----------------------------------|------------------------12------||
|
|  E  E       +E   E  +E   E +E   E    +E   E +E   E  +E   E +E   E
|-----------------------------------|--------------------------------||
|-----------------------------------|-------------------------------o||
|------------------5--(5)--5-(5)----|--------------7--(7)--7-(7)--7--||
|--3--3-------(3)--5--(5)--5-(5)--5-|--(5)--5-(5)--7--(7)--7-(7)--7--||
|--3--3-------(3)--3--(3)--3-(3)--5-|--(5)--5-(5)--5--(5)--5-(5)--5-o||
|--1--1-------(1)-----------------3-|--(3)--3-(3)--------------------||


   Interlude (Variation)
    B5                                  D5
    Gtr III
                    ~~~~PM|      PM|                    ~~~~
     E  E  E    E  +E   S  S  E  S  S    E  E  E    E  +Q       E  E
||------------------------------------|--------------------------------|
||o-----------------------------------|---------------------------14---|
||------------------------------------|------------14-(14)-----16------|
||------------------------------------|--------------------------------|
||o-14-14------14-(14)-------14-------|-17-16-17-----------------------|
||--------14-----------14-14----14-14-|--------------------------------|
|
|   Gtr V
|          PM|          PM|      PM|           PM|         PM|     PM|
|    E  E  S S  Q       S  S  E  S  S    E  E  S S  Q      S S  E  S S
||------------------------------------|--------------------------------|
||o-----------------------------------|--------------------------------|
||---4--4-------4-------------4-------|--7--7-------7-----------7------|
||---4--4-------4-------------4-------|--7--7-------7-----------7------|
||o--2--2--2-2--2-------2--2--2--2--2-|--5--5--5-5--5------5-5--5--5-5-|
||------------------------------------|--------------------------------|


  G5              D5             A5               E5
      |--3--|
   E  S  S  S  E   E  +E   E  E   E    +E   E  E   E  +E   E  E   E
|-----------------------------------|--------------------------------||
|-15-14h15p14S12--------------------|-------------------------------o||
|-----------------14-(14)-12-11-----|--------------------------------||
|--------------------------------14-|-(14)---------------------------||
|-----------------------------------|------17-16--14-(14)----14--16-o||
|-----------------------------------|---------------------17---------||
|
|  E  E       +E   E  +E   E +E   E    +E   E +E   E  +E   E +E   E
|-----------------------------------|--------------------------------||
|-----------------------------------|-------------------------------o||
|------------------7--(7)--7-(7)----|--------------------------------||
|--5--5-------(5)--7--(7)--7-(7)--7-|--(7)--7-(7)--2--(2)--2-(2)--2--||
|--5--5-------(5)--5--(5)--5-(5)--7-|--(7)--7-(7)--2--(2)--2-(2)--2-o||
|--3--3-------(3)-----------------5-|--(5)--5-(5)--0--(0)--0-(0)--0--||


 Out-Chorus
  A5        D5/AAm          D5/AA5  F/A
  Gtr III
          PM  PM          PM  PM  PM
  E E E E E E E E   +E  E E E E E E  E
|-----------------|--------------------|
|-----------------|--------------------|
|-9-9-9-9---7---5-|-(5)-5---7---9---10-|
|-7-7-7-7---7---7-|-(7)-7---7---7----7-|
|---------0---0---|-------0---0---0----|
|-----------------|--------------------|
|
| Gtr IV
|         PM  PM          PM  PM  PM
| E E E E E E E E   +E  E E E E E E  E
|-----------------|--------------------|
|-----------------|--------------------|
|-9-9-9-9---7---5-|-(5)-5---7---9------|
|-7-7-7-7---7---7-|-(7)-7---7---7----7-|
|-0-0-0-0-0-0-0-0-|-(0)-0-0-0-0-0-0--5-|
|-----------------|--------------------|


                 A5F/A   Em                  A5
               PM      PM          PM  PM  PM
   +E   +E   E E E  E  E E   +E  E E E E E E E
|--------------------------|-------------------|
|--------------------------|-------------------|
|-(10)-(10)-10---9s10----4-|-(4)-4---5---4---9-|
|--(7)--(7)--7-0-7-(7)---5-|-(5)-5---5---5---7-|
|----------------------5---|-------7---7---7---|
|--------------------------|-------------------|
|
|              PM      PM          PM  PM  PM
|  +E   +E   E E E +E  E E   +E  E E E E E E E
|--------------------------|-------------------|
|--------------------------|-------------------|
|--------------------------|-----------------9-|
|--(7)--(7)--7---7-(7)---9-|-(9)-9---9---9---7-|
|--(5)--(5)--5-5-5-(5)-5-7-|-(7)-7---7---7---0-|
|--------------------------|-------0---0---0---|


  A5          D5/AAm          D5/AA5  F/A
            PM  PM          PM  PM  PM
  +E  E E E E E E E   +E  E E E E E E  E
|-------------------|--------------------|
|-------------------|--------------------|
|-(9)-9-9-9---7---5-|-(5)-5---7---9---10-|
|-(7)-7-7-7---7---7-|-(7)-7---7---7----7-|
|-----------0---0---|-------0---0---0----|
|-------------------|--------------------|
|
|           PM  PM          PM  PM  PM
| +E  E E E E E E E   +E  E E E E E E  E
|-------------------|--------------------|
|-------------------|--------------------|
|-(9)-9-9-9---7---5-|-(5)-5---7---9------|
|-(7)-7-7-7---7---7-|-(7)-7---7---7----7-|
|-(0)-0-0-0-0-0-0-0-|-(0)-0-0-0-0-0-0--5-|
|-------------------|--------------------|


                 A5F/A   F5                          A5
               PM      PM          PM
   +E   +E   E E E  E  E  E    +E  E  E  E E  E  +E  E
|---------------------------|--------------------------|
|---------------------------|--------------------------|
|-(10)-(10)-10---9s10----10-|-(10)---12-10-x--9--(9)-9-|
|--(7)--(7)--7-0-7-(7)---10-|-(10)-------------------7-|
|----------------------5--8-|--(8)-8-------------------|
|---------------------------|--------------------------|
|
|              PM      PM          PM
|  +E   +E   E E E  E  E  E    +E  E  E  E E  E  +E  E
|---------------------------|--------------------------|
|---------------------------|--------------------------|
|---------------------------|---------9--7-x---------9-|
|--(7)--(7)--7---7--7-----3-|--(3)-----------10-(10)-7-|
|--(5)--(5)--5-5-5--5--5--3-|--(3)-------------------0-|
|-------------------------1-|--(1)-1-------------------|


  A5          D5/AAm          D5/AA5  F/A
            PM  PM          PM  PM  PM
  +E  E E E E E E E   +E  E E E E E E  E
|-------------------|--------------------|
|-------------------|--------------------|
|-(9)-9-9-9---7---5-|-(5)-5---7---9---10-|
|-(7)-7-7-7---7---7-|-(7)-7---7---7----7-|
|-----------0---0---|-------0---0---0----|
|-------------------|--------------------|
|
|           PM  PM          PM  PM  PM
| +E  E E E E E E E   +E  E E E E E E  E
|-------------------|--------------------|
|-------------------|--------------------|
|-(9)-9-9-9---7---5-|-(5)-5---7---9------|
|-(7)-7-7-7---7---7-|-(7)-7---7---7----7-|
|-(0)-0-0-0-0-0-0-0-|-(0)-0-0-0-0-0-0--5-|
|-------------------|--------------------|


                 A5F/A   Em                  A5
               PM      PM          PM  PM  PM
   +E   +E   E E E  E  E E   +E  E E E E E E E
|--------------------------|-------------------|
|--------------------------|-------------------|
|-(10)-(10)-10---9s10----4-|-(4)-4---5---4---9-|
|--(7)--(7)--7-0-7-(7)---5-|-(5)-5---5---5---7-|
|----------------------5---|-------7---7---7---|
|--------------------------|-------------------|
|
|              PM      PM          PM  PM  PM
|  +E   +E   E E E +E  E E   +E  E E E E E E E
|--------------------------|-------------------|
|--------------------------|-------------------|
|--------------------------|-----------------9-|
|--(7)--(7)--7---7-(7)---9-|-(9)-9---9---9---7-|
|--(5)--(5)--5-5-5-(5)-5-7-|-(7)-7---7---7---0-|
|--------------------------|-------0---0---0---|


  A5          D5/AAm          D5/AA5  F/A
            PM  PM          PM  PM  PM
  +E  E E E E E E E   +E  E E E E E E  E
|-------------------|--------------------|
|-------------------|--------------------|
|-(9)-9-9-9---7---5-|-(5)-5---7---9---10-|
|-(7)-7-7-7---7---7-|-(7)-7---7---7----7-|
|-----------0---0---|-------0---0---0----|
|-------------------|--------------------|
|
|           PM  PM          PM  PM  PM
| +E  E E E E E E E   +E  E E E E E E  E
|-------------------|--------------------|
|-------------------|--------------------|
|-(9)-9-9-9---7---5-|-(5)-5---7---9------|
|-(7)-7-7-7---7---7-|-(7)-7---7---7----7-|
|-(0)-0-0-0-0-0-0-0-|-(0)-0-0-0-0-0-0--5-|
|-------------------|--------------------|


                 A5F/A   F5
               PM      PM          PM
   +E   +E   E E E  E  E  E    +E  E  E  E E  E  +E   E
|---------------------------|---------------------------|
|---------------------------|---------------------------|
|-(10)-(10)-10---9s10----10-|-(10)---12-10-x--9--(9)-10-|
|--(7)--(7)--7-0-7-(7)---10-|-(10)-------------------10-|
|----------------------5--8-|--(8)-8------------------8-|
|---------------------------|---------------------------|
|
|              PM      PM          PM
|  +E   +E   E E E  E  E  E    +E  E  E  E E  E  +E   E
|---------------------------|---------------------------|
|---------------------------|---------------------------|
|---------------------------|---------9--7-x------------|
|--(7)--(7)--7---7--7-----3-|--(3)-----------10-(10)--3-|
|--(5)--(5)--5-5-5--5--5--3-|--(3)--------------------3-|
|-------------------------1-|--(1)-1------------------1-|


 Outro
  F5                     N.C.
       PM
                                   |-3--|
   +E  E  E  E E  E  +E   E    +E  S  S S  E  E  E  E E  E    +E   H..
|---------------------------|------------------------------|--------------*|
|---------------------------|------------------------------|--------------*|
|-(10)---12-10-x--9--(9)--9-|--(9)-7h=9p7-------------7----|--------------*|
|-(10)----------------------|-------------10--9-----9---10-|-(10)\--------*|
|--(8)-8--------------------|-------------------10---------|--------------*|
|---------------------------|------------------------------|--------------*|
|
|      PM
|                                  |-3--|
|  +E  E  E  E E  E  +E   E    +E  S  S S  E  E  E  E E  E    +E   H..
|---------------------------|------------------------------|--------------*|
|---------------------------|------------------------------|--------------*|
|---------9--7-x------------|------------------------------|--------------*|
|--(3)-----------10-(10)-10-|-(10)-9h10p9-------------9----|--------------*|
|--(3)----------------------|-------------12-10----10---12-|-(12)\--------*|
|--(1)-1--------------------|-------------------12---------|--------------*|


Duration Legend
---------------
W - whole; H - half; Q - quarter; E - 8th; S - 16th; T - 32nd; X - 64th; a - acciaccatura
+ - note tied to previous; . - note dotted; .. - note double dotted
Uncapitalized letters represent notes that are staccato (1/2 duration)
Irregular groupings are notated above the duration line
Duration letters will always appear directly above the note/fret number it represents the
duration for.  Duration letters with no fret number below them represent rests.  Multi-
bar rests are notated in the form Wxn, where n is the number of bars to rest for.  Low
melody durations appear below the staff

Tablature Legend
----------------
 h   - hammer-on
 p   - pull-off
 b   - bend
 pb  - pre-bend
 r   - bend release (if no number after the r, then release immediately)
 /\  - slide into or out of (from/to "nowhere")
 s   - legato slide
 S   - shift slide
<n>  - natural harmonic
[n]  - artificial harmonic
n(n) - tapped harmonic
 ~   - vibrato
 tr  - trill
 T   - tap
 TP  - trem. picking
 PM  - palm muting
\n/  - tremolo bar dip; n = amount to dip
 \n  - tremolo bar down
 n/  - tremolo bar up
/n\  - tremolo bar inverted dip
 =   - hold bend; also acts as connecting device for hammers/pulls
 <>  - volume swell (louder/softer)
 x   - on rhythm slash represents muted slash
 o   - on rhythm slash represents single note slash

Misc Legend
-----------
 |  - bar
||  - double bar
||o - repeat start
o|| - repeat end
*|  - double bar (ending)
 :  - bar (freetime)
 $  - Segno
 &  - Coda
Tempo markers - <E/E./Q/Q./H/H.> = BPM(8/16=s8/s16), where s8 = swing 8ths, s16 = swing 16ths


***************************************************************************************
* Generated using Power Tab Editor by Brad Larsen - http://powertab.guitarnetwork.org *
***************************************************************************************
comments
We did not receive enough feedback on this tab! Please rate:
print report bad tab
1 2 3 4 5
I want to post or [tab]
guest
You may want to rate the tab now too:
select rating
Please do not post tabs as comments. Select "correction" instead!