Oops, an error
Loading. Please wait.

Land Of Confusion Tab

ver1
ver1

Whole song

Interactive

More versions @911Tabs.com
3,570 views 3 this week
no commentswrite comment
1 2 3 4 5
excellent!
x 1
Autoscroll
+/-
esc
set tempo
stop
Contributor
Difficulty
intermediate
Hey! There's an official Ultimate Guitar app which is ideal
for learning songs when you're away from computer. Get the app
WARNING: You are trying to view
                                    content from Ultimate-Guitar.com
                                    in an unauthorized application,
                                    which is prohibited.

                                    Please use an official Ultimate
                                    Guitar Tabs application for iPhone,
                                    iPad or Android to access legitimate
                                    chords, guitar, bass, and drum tabs
                                    from Ultimate-Guitar.com database.

                                    Type "ultimate guitar tabs" in Apple
                                    App Store's or Android Market's
                                    search to find the application.
                              Land of Confusion - In Flames                               


                                                                       
guitar1

Tuning=Tune down 2 step

C F A# D# G C

Tempo=140 bpm



                                  
      W                                      E  E  E  E  E  E  E  E   
C ||--------------------------------------|--------------------------|
G ||--------------------------------------|--------------------------|
D#||--------------------------------------|--------------5-----------|
A#||--------------------------------------|--------5-----------5-----|
F ||--------------------------------------|-----3-----3-----3-----3--|
C ||--------------------------------------|--------------------------|


  E  E  E  E  E  E  E  E     E  E  E  E  E  E  E  E   
--------------------------|--------------------------|
--------------------------|--------------------------|
--------------5-----------|--------------5-----------|
--------5-----------5-----|--------5-----------5-----|
-----3-----3-----3-----3--|-----3-----3-----3-----3--|
--------------------------|--------------------------|


  E  E  E  E  E  E  E  S S    E  E  H.              H.           E  S S  
---------------------------|---------------------|----------------------|
---------------------------|---------------------|----------------------|
--------------5------------|---------------------|---------------3--L-3-|
--------5-----------5----3-|--L--5---------------|---------------3--L-3-|
-----3-----3-----3-----3-3-|--L--5---------------|---------------1--L-1-|
-------------------------1-|--L--3---------------|----------------------|


  S S E  E  E  H           H.           E  S S    S S E  H.            
------------------------|----------------------|----------------------|
------------------------|----------------------|----------------------|
--L-3-5-----------------|---------------5--L-5-|--L-5-8---------------|
--L-3-5-----------------|---------------5--L-5-|--L-5-8---------------|
--L-1-3-----------------|---------------3--L-3-|--L-3-6---------------|
------------------------|----------------------|----------------------|


  H.           E  S S    S S E  E  E  H           H.           E  S S  
----------------------|------------------------|----------------------|
----------------------|------------------------|----------------------|
----------------------|------------------------|----------------------|
---------------3--L-3-|--L-3-5-----------------|---------------3--L-3-|
---------------3--L-3-|--L-3-5-----------------|---------------3--L-3-|
---------------1--L-1-|--L-1-3-----------------|---------------1--L-1-|


  S S E  E  E  E  E  E  E     E  E  E  E  E  E  E  S S  
---------------------------|---------------------------|
---------------------------|---------------------------|
---------------------------|--------------------3--L-3-|
--L-3-5--------------------|--------------------3--L-3-|
--L-3-5--5--5--5--5--5--5--|--5--5--5--5--5--5--1--L-1-|
--L-1-3--3--3--3--3--3--3--|--3--3--3--3--3--3---------|


  S S E  E  E  E  E  E  E     E  E  E  E  E  E  E  S S  
---------------------------|---------------------------|
---------------------------|---------------------------|
--L-3-5--------------------|--------------------5--L-5-|
--L-3-5--5--5--5--5--5--5--|--5--5--5--5--5--5--5--L-5-|
--L-1-3--3--3--3--3--3--3--|--3--3--3--3--3--3--3--L-3-|
---------------------------|---------------------------|


  E  E  E  E  E  E  E  E     E  E  E  E  E  E  E  S S  
--------------------------|---------------------------|
--------------------------|---------------------------|
--L--8--------------------|---------------------------|
--L--8--8--8--8--8--8--8--|--8--8--8--8--8--8--3--L-3-|
--L--6--6--6--6--6--6--6--|--6--6--6--6--6--6--3--L-3-|
--------------------------|--------------------1--L-1-|


  E  E  E  E  E  E  E  E     E  E  E  E  Q    E  E     Q.     H        E   
--------------------------|-------------------------|---------------------|
--------------------------|-------------------------|---------------------|
--------------------------|-------------------------|---------------------|
--L--5--------------------|-------------------------|--3------5--------L--|
--L--5--5--5--5--5--5--5--|--5--5--5--5--5----L--5--|--3------5--------L--|
--L--3--3--3--3--3--3--3--|--3--3--3--3--3----L--3--|--1------3--------L--|


  Q.     H        E     Q.     H        E     Q.     H        E   
---------------------|---------------------|---------------------|
---------------------|---------------------|---------------------|
--3------5--------L--|---------------------|--3------------------|
--3------5--------L--|--3------5--------L--|--3------3--------L--|
--1------3--------L--|--3------5--------L--|--1------3--------L--|
---------------------|--1------3--------L--|---------1--------L--|


  Q.     H        E     Q.     H        E     Q.     H        E   
---------------------|---------------------|---------------------|
---------------------|---------------------|---------------------|
---------------------|--3------5--------L--|---------------------|
--3------5--------L--|--3------5--------L--|--3------5--------L--|
--3------5--------L--|--1------3--------L--|--3------5--------L--|
--1------3--------L--|---------------------|--1------3--------L--|


  Q.     E  H           Q    E  E  E.  E.  E     Q    E  E   Q    E  E    
---------------------|------------------------|--------------------------|
---------------------|------------------------|--------------------------|
--3------------------|-------------3---2------|-------2--2\--------------|
--3------3-----------|----------5----------5--|--3-----------0----3--3\--|
--1------3-----------|------------------------|--------------------------|
---------1-----------|------------------------|--------------------------|


  Q    E  E  E.  E.  E     Q    E  E   S E.  Q        Q    E  E  E.  E.  E   
------------------------|--------------------------|------------------------|
------------------------|--------------------------|------------------------|
-------------3---2------|-------2--2\--3-2---------|-------------3---2------|
----------5----------5--|--3-----------------0~----|--L-------5----------5--|
------------------------|--------------------------|------------------------|
------------------------|--------------------------|------------------------|


  Q    E  E   Q    E  E      Q    E  E  E.  E.  E     Q    E  E   Q    E  E    
--------------------------|------------------------|--------------------------|
--------------------------|------------------------|--------------------------|
-------2--2\--------------|-------------3---2------|-------2--2\--------------|
--3-----------0----3--3\--|----------5----------5--|--3-----------0----3--3\--|
--------------------------|------------------------|--------------------------|
--------------------------|------------------------|--------------------------|


  E  E  E  E  E  E  E  E     E  E  E  E  E  E  E  E   
--------------------------|--------------------------|
--------------------------|--------------------------|
--------------5-----------|--------------5-----------|
--------5-----------5-----|--------5-----------5-----|
-----3-----3-----3-----3--|-----3-----3-----3-----3--|
--------------------------|--------------------------|


  E  E  E  E  E  E  E  E     E  E  E  E  E  E  E  S S    E  E  H.            
--------------------------|---------------------------|---------------------|
--------------------------|---------------------------|---------------------|
--------------5-----------|--------------5------------|---------------------|
--------5-----------5-----|--------5-----------5----3-|--L--5---------------|
-----3-----3-----3-----3--|-----3-----3-----3-----3-3-|--L--5---------------|
--------------------------|-------------------------1-|--L--3---------------|


  H.           E  S S    S S E  E  E  H           H.           E  S S  
----------------------|------------------------|----------------------|
----------------------|------------------------|----------------------|
---------------3--L-3-|--L-3-5-----------------|---------------5--L-5-|
---------------3--L-3-|--L-3-5-----------------|---------------5--L-5-|
---------------1--L-1-|--L-1-3-----------------|---------------3--L-3-|
----------------------|------------------------|----------------------|


  S S E  H.              H.           E  S S    S S E  E  E  H         
----------------------|----------------------|------------------------|
----------------------|----------------------|------------------------|
--L-5-8---------------|----------------------|------------------------|
--L-5-8---------------|---------------3--L-3-|--L-3-5-----------------|
--L-3-6---------------|---------------3--L-3-|--L-3-5-----------------|
----------------------|---------------1--L-1-|--L-1-3-----------------|


  W                   Q.     H        E     Q.     H        E   
-------------------|---------------------|---------------------|
-------------------|---------------------|---------------------|
-------------------|---------------------|--3------5--------L--|
-------------------|--3------5--------L--|--3------5--------L--|
-------------------|--3------5--------L--|--1------3--------L--|
-------------------|--1------3--------L--|---------------------|


  Q.     H        E     Q.     H        E     Q.     H        E   
---------------------|---------------------|---------------------|
---------------------|---------------------|---------------------|
---------------------|--3------------------|---------------------|
--3------5--------L--|--3------3--------L--|--3------5--------L--|
--3------5--------L--|--1------3--------L--|--3------5--------L--|
--1------3--------L--|---------1--------L--|--1------3--------L--|


  Q.     H        E     Q.     H        E     Q.     E  H         
---------------------|---------------------|---------------------|
---------------------|---------------------|---------------------|
--3------5--------L--|---------------------|--3------------------|
--3------5--------L--|--3------5--------L--|--3------3-----------|
--1------3--------L--|--3------5--------L--|--1------3-----------|
---------------------|--1------3--------L--|---------1-----------|


  Q    E  E  E.  E.  E     Q    E  E   Q    E  E      Q    E  E  E.  E.  E   
------------------------|--------------------------|------------------------|
------------------------|--------------------------|------------------------|
-------------3---2------|-------2--2\--------------|-------------3---2------|
----------5----------5--|--3-----------0----3--3\--|----------5----------5--|
------------------------|--------------------------|------------------------|
------------------------|--------------------------|------------------------|


  Q    E  E   S E.  Q        Q    E  E  E.  E.  E     Q    E  E   Q    E  E    
--------------------------|------------------------|--------------------------|
--------------------------|------------------------|--------------------------|
-------2--2\--3-2---------|-------------3---2------|-------2--2\--------------|
--3-----------------0~----|--L-------5----------5--|--3-----------0----3--3\--|
--------------------------|------------------------|--------------------------|
--------------------------|------------------------|--------------------------|


  Q    E  E  E.  E.  E     Q    E  E   Q    E  E      E  E  E  E  E  E  E  E   
------------------------|--------------------------|--------------------------|
------------------------|--------------------------|--------------------------|
-------------3---2------|-------2--2\--------------|--------------5-----------|
----------5----------5--|--3-----------0----3--3\--|--------5-----------5-----|
------------------------|--------------------------|-----3-----3-----3-----3--|
------------------------|--------------------------|--------------------------|


  E  E  E  E  E  E  E  E     E  E  E  E  E  E  E  E   
--------------------------|--------------------------|
--------------------------|--------------------------|
--------------5-----------|--------------5-----------|
--------5-----------5-----|--------5-----------5-----|
-----3-----3-----3-----3--|-----3-----3-----3-----3--|
--------------------------|--------------------------|


  E  E  E  E  E  E  E  E     E.   E.   E   S   S   S  E.   E   
--------------------------|-----------------------------------|
--------------------------|-----------------------------------|
--------------5-----------|-----------------------------------|
--------5-----------5-----|--8---10---15--14h-15p-14-12---10--|
-----3-----3-----3-----3--|-----------------------------------|
--------------------------|-----------------------------------|


  E.   E.   E   Q     Q       E.   E.   E   S   S   S  E.   E   
---------------------------|-----------------------------------|
---------------------------|-----------------------------------|
---------------------------|-----------------------------------|
--8---10---15--14----10----|--8---10---15--14h-15p-14-12---10--|
---------------------------|-----------------------------------|
---------------------------|-----------------------------------|


  E.   E.   E   Q     Q       E.   E.   E   S   S   S  E.   E   
---------------------------|-----------------------------------|
---------------------------|-----------------------------------|
---------------------------|-----------------------------------|
--8---10---15--14----10----|--8---10---15--14h-15p-14-12---10--|
---------------------------|-----------------------------------|
---------------------------|-----------------------------------|


  E.   E.   E   Q     Q       E.   E.   E   S   S   S  E.   E   
---------------------------|-----------------------------------|
---------------------------|-----------------------------------|
---------------------------|-----------------------------------|
--8---10---15--14----10----|--8---10---15--14h-15p-14-12---10--|
---------------------------|-----------------------------------|
---------------------------|-----------------------------------|


  E.   E.   E   Q     Q       W                   H.           E  S S  
---------------------------|-------------------|----------------------|
---------------------------|-------------------|----------------------|
---------------------------|-------------------|----------------------|
--8---10---15--14----10----|--5----------------|--L------------3--L-3-|
---------------------------|--5----------------|--L------------3--L-3-|
---------------------------|--3----------------|--L------------1--L-1-|


  E  E  H.              H.           E  S S    S S E  E  E  H         
---------------------|----------------------|------------------------|
---------------------|----------------------|------------------------|
---------------------|---------------3--L-3-|--L-3-5-----------------|
--L--5---------------|---------------3--L-3-|--L-3-5-----------------|
--L--5---------------|---------------1--L-1-|--L-1-3-----------------|
--L--3---------------|----------------------|------------------------|


  H.           E  S S    S S E  H.              H.           E  S S  
----------------------|----------------------|----------------------|
----------------------|----------------------|----------------------|
---------------5--L-5-|--L-5-8---------------|----------------------|
---------------5--L-5-|--L-5-8---------------|---------------3--L-3-|
---------------3--L-3-|--L-3-6---------------|---------------3--L-3-|
----------------------|----------------------|---------------1--L-1-|


  S S E  E  E  H           H.            Q        Q.     H        E   
------------------------|----------------------|---------------------|
------------------------|----------------------|---------------------|
------------------------|----------------------|---------------------|
--L-3-5-----------------|----------------------|--3------5--------L--|
--L-3-5-----------------|----------------------|--3------5--------L--|
--L-1-3-----------------|---------------13S----|--1------3--------L--|


  Q.     H        E     Q.     H        E     Q.     H        E   
---------------------|---------------------|---------------------|
---------------------|---------------------|---------------------|
--3------5--------L--|---------------------|--3------------------|
--3------5--------L--|--3------5--------L--|--3------3--------L--|
--1------3--------L--|--3------5--------L--|--1------3--------L--|
---------------------|--1------3--------L--|---------1--------L--|


  Q.     H        E     Q.     H        E     Q.     H        E   
---------------------|---------------------|---------------------|
---------------------|---------------------|---------------------|
---------------------|--3------5--------L--|---------------------|
--3------5--------L--|--3------5--------L--|--3------5--------L--|
--3------5--------L--|--1------3--------L--|--3------5--------L--|
--1------3--------L--|---------------------|--1------3--------L--|


  Q.     E  H           Q    E  E  E.  E.  E     Q    E  E   Q    E  E    
---------------------|------------------------|--------------------------|
---------------------|------------------------|--------------------------|
--3------------------|-------------3---2------|-------2--2\--------------|
--3------3-----------|----------5----------5--|--3-----------0----3--3\--|
--1------3-----------|------------------------|--------------------------|
---------1-----------|------------------------|--------------------------|


  Q    E  E  E.  E.  E     Q    E  E   S E.  Q        Q    E  E  E.  E.  E   
------------------------|--------------------------|------------------------|
------------------------|--------------------------|------------------------|
-------------3---2------|-------2--2\--3-2---------|-------------3---2------|
----------5----------5--|--3-----------------0~----|--L-------5----------5--|
------------------------|--------------------------|------------------------|
------------------------|--------------------------|------------------------|


  Q    E  E   Q    E  E      Q    E  E  E.  E.  E     Q    E  E   Q    E  E    
--------------------------|------------------------|--------------------------|
--------------------------|------------------------|--------------------------|
-------2--2\--------------|-------------3---2------|-------2--2\--------------|
--3-----------0----3--3\--|----------5----------5--|--3-----------0----3--3\--|
--------------------------|------------------------|--------------------------|
--------------------------|------------------------|--------------------------|


  Q    E  E  E.  E.  E     Q    E  E   Q    E  E      Q    E  E  E.  E.  E   
------------------------|--------------------------|------------------------|
------------------------|--------------------------|------------------------|
-------------6---5------|-------5--5\--------------|-------------6---5------|
----------8----------8--|--6-----------3----6--6\--|----------8----------8--|
------------------------|--------------------------|------------------------|
------------------------|--------------------------|------------------------|


  Q    E  E   S E.  Q        Q    E  E  E.  E.  E     Q    E  E   Q    E  E    
--------------------------|------------------------|--------------------------|
--------------------------|------------------------|--------------------------|
-------5--5\--6-5---------|-------------6---5------|-------5--5\--------------|
--6-----------------3~----|----------8----------8--|--6-----------3----6--6\--|
--------------------------|------------------------|--------------------------|
--------------------------|------------------------|--------------------------|


  Q    E  E  E.  E.  E     Q    E  E   Q    E  E      E  E  E  E  E  E  E  E   
------------------------|--------------------------|--------------------------|
------------------------|--------------------------|--------------------------|
-------------6---5------|-------5--5\--------------|--------------5-----------|
----------8----------8--|--6-----------3----6--6\--|--------5-----------5-----|
------------------------|--------------------------|-----3-----3-----3-----3--|
------------------------|--------------------------|--------------------------|


  E  E  E  E  E  E  E  E    
--------------------------||
--------------------------||
--------------5-----------||
--------5-----------5-----||
-----3-----3-----3-----3--||
--------------------------||




________________________________________________________________________________
********************************************************************************
________________________________________________________________________________

*********************************Guitar 2***************************************


                               
               W                                             W                 
C ||-------|----------------------------------------------|-------------------|
G ||-------|--13------------------------------------------|--L----------------|
D#||-------|--12------------------------------------------|--L----------------|
A#||-------|----------------------------------------------|-------------------|
F ||-------|----------------------------------------------|-------------------|
C ||-------|----------------------------------------------|-------------------|


  W                   W                                                         
--8----------------|--L----------------|-------------------|-------------------|
-------------------|-------------------|-------------------|-------------------|
--8----------------|--L----------------|-------------------|-------------------|
-------------------|-------------------|-------------------|-------------------|
-------------------|-------------------|-------------------|-------------------|
-------------------|-------------------|-------------------|-------------------|


-------------------|-------------------|-------------------|-------------------|
-------------------|-------------------|-------------------|-------------------|
-------------------|-------------------|-------------------|-------------------|
-------------------|-------------------|-------------------|-------------------|
-------------------|-------------------|-------------------|-------------------|
-------------------|-------------------|-------------------|-------------------|


-------------------|-------------------|-------------------|-------------------|
-------------------|-------------------|-------------------|-------------------|
-------------------|-------------------|-------------------|-------------------|
-------------------|-------------------|-------------------|-------------------|
-------------------|-------------------|-------------------|-------------------|
-------------------|-------------------|-------------------|-------------------|


-------------------|-------------------|-------------------|-------------------|
-------------------|-------------------|-------------------|-------------------|
-------------------|-------------------|-------------------|-------------------|
-------------------|-------------------|-------------------|-------------------|
-------------------|-------------------|-------------------|-------------------|
-------------------|-------------------|-------------------|-------------------|


-------------------|-------------------|-------------------|-------------------|
-------------------|-------------------|-------------------|-------------------|
-------------------|-------------------|-------------------|-------------------|
-------------------|-------------------|-------------------|-------------------|
-------------------|-------------------|-------------------|-------------------|
-------------------|-------------------|-------------------|-------------------|


-------------------|-------------------|-------------------|-------------------|
-------------------|-------------------|-------------------|-------------------|
-------------------|-------------------|-------------------|-------------------|
-------------------|-------------------|-------------------|-------------------|
-------------------|-------------------|-------------------|-------------------|
-------------------|-------------------|-------------------|-------------------|


                                          Q.     H        E   
-------------------|-------------------|---------------------|
-------------------|-------------------|---------------------|
-------------------|-------------------|---------3--------L--|
-------------------|-------------------|--5------3--------L--|
-------------------|-------------------|--5------1--------L--|
-------------------|-------------------|--3------------------|


  H        H           Q.     H        E     H        H         
--------------------|---------------------|--------------------|
--------------------|---------------------|--------------------|
--------------------|---------3--------L--|--------------------|
--3--------0--------|--5------3--------L--|--3--------0--------|
--3--------0--------|--5------1--------L--|--3--------0--------|
--1-----------------|--3------------------|--1-----------------|


  Q.     H        E     H        H           Q.     H        E   
---------------------|--------------------|---------------------|
---------------------|--------------------|---------------------|
---------3--------L--|--------------------|---------3--------L--|
--5------3--------L--|--3--------0--------|--5------3--------L--|
--5------1--------L--|--3--------0--------|--5------1--------L--|
--3------------------|--1-----------------|--3------------------|


  H        H            W                   W                 
--------------------|--------------------|-------------------|
--------------------|--13----------------|--L----------------|
--------------------|--12----------------|--L----------------|
--3--------0--------|--------------------|-------------------|
--3--------0--------|--------------------|-------------------|
--1-----------------|--------------------|-------------------|


  W                   W                                                         
--8----------------|--L----------------|-------------------|-------------------|
-------------------|-------------------|-------------------|-------------------|
--8----------------|--L----------------|-------------------|-------------------|
-------------------|-------------------|-------------------|-------------------|
-------------------|-------------------|-------------------|-------------------|
-------------------|-------------------|-------------------|-------------------|


-------------------|-------------------|-------------------|-------------------|
-------------------|-------------------|-------------------|-------------------|
-------------------|-------------------|-------------------|-------------------|
-------------------|-------------------|-------------------|-------------------|
-------------------|-------------------|-------------------|-------------------|
-------------------|-------------------|-------------------|-------------------|


-------------------|-------------------|-------------------|-------------------|
-------------------|-------------------|-------------------|-------------------|
-------------------|-------------------|-------------------|-------------------|
-------------------|-------------------|-------------------|-------------------|
-------------------|-------------------|-------------------|-------------------|
-------------------|-------------------|-------------------|-------------------|


-------------------|-------------------|-------------------|-------------------|
-------------------|-------------------|-------------------|-------------------|
-------------------|-------------------|-------------------|-------------------|
-------------------|-------------------|-------------------|-------------------|
-------------------|-------------------|-------------------|-------------------|
-------------------|-------------------|-------------------|-------------------|


                                          Q.     H        E   
-------------------|-------------------|---------------------|
-------------------|-------------------|---------------------|
-------------------|-------------------|---------3--------L--|
-------------------|-------------------|--5------3--------L--|
-------------------|-------------------|--5------1--------L--|
-------------------|-------------------|--3------------------|


  H        H           Q.     H        E     H        H         
--------------------|---------------------|--------------------|
--------------------|---------------------|--------------------|
--------------------|---------3--------L--|--------------------|
--3--------0--------|--5------3--------L--|--3--------0--------|
--3--------0--------|--5------1--------L--|--3--------0--------|
--1-----------------|--3------------------|--1-----------------|


  Q.     H        E     H        H           Q.     H        E   
---------------------|--------------------|---------------------|
---------------------|--------------------|---------------------|
---------3--------L--|--------------------|---------3--------L--|
--5------3--------L--|--3--------0--------|--5------3--------L--|
--5------1--------L--|--3--------0--------|--5------1--------L--|
--3------------------|--1-----------------|--3------------------|


  H        H            W                   W                 
--------------------|--------------------|-------------------|
--------------------|--13----------------|--L----------------|
--------------------|--12----------------|--L----------------|
--3--------0--------|--------------------|-------------------|
--3--------0--------|--------------------|-------------------|
--1-----------------|--------------------|-------------------|


  W                   W                   E.  E.   E   S   S   S  E.  E   
--8----------------|--L----------------|---------------------------------|
-------------------|-------------------|---------------------------------|
--8----------------|--L----------------|---------------------------------|
-------------------|-------------------|---------------------------------|
-------------------|-------------------|---------------------------------|
-------------------|-------------------|--6---8---13--12h-13p-12-10---8--|


  E.  E.   E   Q    Q       E.  E.   E   S   S   S  E.  E   
-------------------------|---------------------------------|
-------------------------|---------------------------------|
-------------------------|---------------------------------|
-------------------------|---------------------------------|
-------------------------|---------------------------------|
--6---8---13--12----8----|--6---8---13--12h-13p-12-10---8--|


  E.  E.   E   Q    Q       E.  E.   E   S   S   S  E.  E   
-------------------------|---------------------------------|
-------------------------|---------------------------------|
-------------------------|---------------------------------|
-------------------------|---------------------------------|
-------------------------|---------------------------------|
--6---8---13--12----8----|--6---8---13--12h-13p-12-10---8--|


  E.  E.   E   Q    Q       E.  E.   E   S   S   S  E.  E   
-------------------------|---------------------------------|
-------------------------|---------------------------------|
-------------------------|---------------------------------|
-------------------------|---------------------------------|
-------------------------|---------------------------------|
--6---8---13--12----8----|--6---8---13--12h-13p-12-10---8--|


  E.  E.   E   Q    Q       W                   H.           Q     
-------------------------|-------------------|--------------------|
-------------------------|-------------------|--------------------|
-------------------------|-------------------|--------------------|
-------------------------|--5----------------|--L-----------------|
-------------------------|-------------------|--------------------|
--6---8---13--12----8----|--3----------------|--L-----------------|


-------------------|-------------------|-------------------|-------------------|
-------------------|-------------------|-------------------|-------------------|
-------------------|-------------------|-------------------|-------------------|
-------------------|-------------------|-------------------|-------------------|
-------------------|-------------------|-------------------|-------------------|
-------------------|-------------------|-------------------|-------------------|


-------------------|-------------------|-------------------|-------------------|
-------------------|-------------------|-------------------|-------------------|
-------------------|-------------------|-------------------|-------------------|
-------------------|-------------------|-------------------|-------------------|
-------------------|-------------------|-------------------|-------------------|
-------------------|-------------------|-------------------|-------------------|


-------------------|-------------------|-------------------|-------------------|
-------------------|-------------------|-------------------|-------------------|
-------------------|-------------------|-------------------|-------------------|
-------------------|-------------------|-------------------|-------------------|
-------------------|-------------------|-------------------|-------------------|
-------------------|-------------------|-------------------|-------------------|


-------------------|-------------------|-------------------|-------------------|
-------------------|-------------------|-------------------|-------------------|
-------------------|-------------------|-------------------|-------------------|
-------------------|-------------------|-------------------|-------------------|
-------------------|-------------------|-------------------|-------------------|
-------------------|-------------------|-------------------|-------------------|


  Q.     H        E     H        H           Q.     H        E   
---------------------|--------------------|---------------------|
---------------------|--------------------|---------------------|
---------3--------L--|--------------------|---------3--------L--|
--5------3--------L--|--3--------0--------|--5------3--------L--|
--5------1--------L--|--3-----------------|--5------1--------L--|
--3------------------|--1-----------------|--3------------------|


  H        H           Q.     H        E     H        H         
--------------------|---------------------|--------------------|
--------------------|---------------------|--------------------|
--------------------|---------3--------L--|--------------------|
--3--------0--------|--5------3--------L--|--3--------0--------|
--3--------0--------|--5------1--------L--|--3--------0--------|
--1-----------------|--3------------------|--1-----------------|


  Q.     H        E     H        H           Q.     H        E   
---------------------|--------------------|---------------------|
---------------------|--------------------|---------------------|
---------3--------L--|--------------------|---------6--------L--|
--5------3--------L--|--3--------0--------|--8------6--------L--|
--5------1--------L--|--3--------0--------|--8------4--------L--|
--3------------------|--1-----------------|--6------------------|


  H        H           Q.     H        E     H        H         
--------------------|---------------------|--------------------|
--------------------|---------------------|--------------------|
--------------------|---------6--------L--|--------------------|
--6--------3--------|--8------6--------L--|--6--------3--------|
--6--------3--------|--8------4--------L--|--6--------3--------|
--4--------1--------|--6------------------|--4--------1--------|


  Q.     H        E     H        H           Q.     H        E   
---------------------|--------------------|---------------------|
---------------------|--------------------|---------------------|
---------6--------L--|--------------------|---------6--------L--|
--8------6--------L--|--6--------3--------|--8------6--------L--|
--8------4--------L--|--6--------3--------|--8------4--------L--|
--6------------------|--4--------1--------|--6------------------|


  H        H            W                   W                  
--------------------|--------------------|--8----------------||
--------------------|--13----------------|-------------------||
--------------------|--12----------------|--8----------------||
--6--------3--------|--------------------|-------------------||
--6--------3--------|--------------------|-------------------||
--4--------1--------|--------------------|-------------------||



_________________________________________________________________
*****************************************************************
_________________________________________________________________

******************************Guitar 3***************************


                                                      



              E  E  E  E  E  E  E  E     E  E  E  E  E  E  E  E   
C ||-------|--------------------------|--------------------------|
G ||-------|--------------------------|--------------------------|
D#||-------|--5--5--5--5--5--5--5--5--|--5--5--5--5--5--5--5--5--|
A#||-------|--5--5--5--5--5--5--5--5--|--5--5--5--5--5--5--5--5--|
F ||-------|--------------------------|--------------------------|
C ||-------|--------------------------|--------------------------|


  E  E  E  E  E  E  E  E     E  E  E  E  E  E  E  E                           
--------------------------|--------------------------|-------|-------|-------|
--4--4--4--4--4--4--4--4--|--4--4--4--4--4--4--4--4--|-------|-------|-------|
--------------------------|--------------------------|-------|-------|-------|
--1--1--1--1--1--1--1--1--|--1--1--1--1--1--1--1--1--|-------|-------|-------|
--------------------------|--------------------------|-------|-------|-------|
--------------------------|--------------------------|-------|-------|-------|


-------|-------|-------|-------|-------|-------|-------|-------|-------|-------|
-------|-------|-------|-------|-------|-------|-------|-------|-------|-------|
-------|-------|-------|-------|-------|-------|-------|-------|-------|-------|
-------|-------|-------|-------|-------|-------|-------|-------|-------|-------|
-------|-------|-------|-------|-------|-------|-------|-------|-------|-------|
-------|-------|-------|-------|-------|-------|-------|-------|-------|-------|


-------|-------|-------|-------|-------|-------|-------|-------|-------|-------|
-------|-------|-------|-------|-------|-------|-------|-------|-------|-------|
-------|-------|-------|-------|-------|-------|-------|-------|-------|-------|
-------|-------|-------|-------|-------|-------|-------|-------|-------|-------|
-------|-------|-------|-------|-------|-------|-------|-------|-------|-------|
-------|-------|-------|-------|-------|-------|-------|-------|-------|-------|


                  H.           E   E      Q    Q     H         
-------|-------|------------------10--|---8----6\-------------|
-------|-------|------------------11--|--10----8\-------------|
-------|-------|----------------------|-----------------------|
-------|-------|----------------------|-----------------------|
-------|-------|----------------------|-----------------------|
-------|-------|----------------------|-----------------------|


  H.           E   E      Q    Q     H           H.           E   E   
------------------10--|---8----6\-------------|------------------10--|
------------------11--|--10----8\-------------|------------------11--|
----------------------|-----------------------|----------------------|
----------------------|-----------------------|----------------------|
----------------------|-----------------------|----------------------|
----------------------|-----------------------|----------------------|


   Q    Q     H           W                   E  E  E  E  E  E  E  E   
---8----6\-------------|-------------------|--------------------------|
--10----8\-------------|-------------------|--------------------------|
-----------------------|-------------------|--5--5--5--5--5--5--5--5--|
-----------------------|-------------------|--5--5--5--5--5--5--5--5--|
-----------------------|-------------------|--------------------------|
-----------------------|-------------------|--------------------------|


  E  E  E  E  E  E  E  E     E  E  E  E  E  E  E  E   
--------------------------|--------------------------|
--------------------------|--4--4--4--4--4--4--4--4--|
--5--5--5--5--5--5--5--5--|--------------------------|
--5--5--5--5--5--5--5--5--|--1--1--1--1--1--1--1--1--|
--------------------------|--------------------------|
--------------------------|--------------------------|


  E  E  E  E  E  E  E  E                                                   
--------------------------|-------|-------|-------|-------|-------|-------|
--4--4--4--4--4--4--4--4--|-------|-------|-------|-------|-------|-------|
--------------------------|-------|-------|-------|-------|-------|-------|
--1--1--1--1--1--1--1--1--|-------|-------|-------|-------|-------|-------|
--------------------------|-------|-------|-------|-------|-------|-------|
--------------------------|-------|-------|-------|-------|-------|-------|


-------|-------|-------|-------|-------|-------|-------|-------|-------|-------|
-------|-------|-------|-------|-------|-------|-------|-------|-------|-------|
-------|-------|-------|-------|-------|-------|-------|-------|-------|-------|
-------|-------|-------|-------|-------|-------|-------|-------|-------|-------|
-------|-------|-------|-------|-------|-------|-------|-------|-------|-------|
-------|-------|-------|-------|-------|-------|-------|-------|-------|-------|


          H.           E   E      Q    Q     H           H.           E   E   
-------|------------------10--|---8----6\-------------|------------------10--|
-------|------------------11--|--10----8\-------------|------------------11--|
-------|----------------------|-----------------------|----------------------|
-------|----------------------|-----------------------|----------------------|
-------|----------------------|-----------------------|----------------------|
-------|----------------------|-----------------------|----------------------|


   Q    Q     H           H.           E   E      Q    Q     H         
---8----6\-------------|------------------10--|---8----6\-------------|
--10----8\-------------|------------------11--|--10----8\-------------|
-----------------------|----------------------|-----------------------|
-----------------------|----------------------|-----------------------|
-----------------------|----------------------|-----------------------|
-----------------------|----------------------|-----------------------|


  W                   E  E  E  E  E  E  E  E     E  E  E  E  E  E  E  E   
-------------------|--------------------------|--------------------------|
-------------------|--------------------------|--------------------------|
-------------------|--5--5--5--5--5--5--5--5--|--5--5--5--5--5--5--5--5--|
-------------------|--5--5--5--5--5--5--5--5--|--5--5--5--5--5--5--5--5--|
-------------------|--------------------------|--------------------------|
-------------------|--------------------------|--------------------------|


  E  E  E  E  E  E  E  E     E  E  E  E  E  E  E  E     W                 
--------------------------|--------------------------|-------------------|
--4--4--4--4--4--4--4--4--|--4--4--4--4--4--4--4--4--|-------------------|
--------------------------|--------------------------|--3----------------|
--1--1--1--1--1--1--1--1--|--1--1--1--1--1--1--1--1--|--3----------------|
--------------------------|--------------------------|--1----------------|
--------------------------|--------------------------|-------------------|


  H.           Q       W                   H.           Q     
--------------------|-------------------|--------------------|
--------------------|-------------------|--------------------|
--3------------5----|--3----------------|--3------------5----|
--3------------5----|--3----------------|--3------------5----|
--1------------3----|--1----------------|--1------------3----|
--------------------|-------------------|--------------------|


  H        H           H        H           H        H         
--------------------|--------------------|--------------------|
--------------------|--------------------|--------------------|
--3--------5--------|--3--------5--------|--3--------5--------|
--3--------5--------|--3--------5--------|--3--------5--------|
--1--------3--------|--1--------3--------|--1--------3--------|
--------------------|--------------------|--------------------|


  H        H           W                   H.           Q                     
--------------------|-------------------|--------------------|-------|-------|
--------------------|-------------------|--------------------|-------|-------|
--3--------5--------|-------------------|--------------------|-------|-------|
--3--------5--------|--5----------------|--L-----------------|-------|-------|
--1--------3--------|--5----------------|--L-----------------|-------|-------|
--------------------|--3----------------|--L-----------------|-------|-------|


-------|-------|-------|-------|-------|-------|-------|-------|-------|-------|
-------|-------|-------|-------|-------|-------|-------|-------|-------|-------|
-------|-------|-------|-------|-------|-------|-------|-------|-------|-------|
-------|-------|-------|-------|-------|-------|-------|-------|-------|-------|
-------|-------|-------|-------|-------|-------|-------|-------|-------|-------|
-------|-------|-------|-------|-------|-------|-------|-------|-------|-------|


                                          H.           E   E   
-------|-------|-------|-------|-------|------------------10--|
-------|-------|-------|-------|-------|------------------11--|
-------|-------|-------|-------|-------|----------------------|
-------|-------|-------|-------|-------|----------------------|
-------|-------|-------|-------|-------|----------------------|
-------|-------|-------|-------|-------|----------------------|


   Q    Q     H           H.           E   E      Q    Q     H         
---8----6\-------------|------------------10--|---8----6\-------------|
--10----8\-------------|------------------11--|--10----8\-------------|
-----------------------|----------------------|-----------------------|
-----------------------|----------------------|-----------------------|
-----------------------|----------------------|-----------------------|
-----------------------|----------------------|-----------------------|


  H.           E   E      Q    Q     H           W                 
------------------10--|---8----6\-------------|-------------------|
------------------11--|--10----8\-------------|-------------------|
----------------------|-----------------------|-------------------|
----------------------|-----------------------|-------------------|
----------------------|-----------------------|-------------------|
----------------------|-----------------------|-------------------|


                      H.           E   E      Q     Q     H         
-------------------|------------------13--|--11-----9\-------------|
-------------------|------------------14--|--13----11\-------------|
-------------------|----------------------|------------------------|
-------------------|----------------------|------------------------|
-------------------|----------------------|------------------------|
-------------------|----------------------|------------------------|


  H.           E   E      Q     Q     H           H.           E   E   
------------------13--|--11-----9\-------------|------------------13--|
------------------14--|--13----11\-------------|------------------14--|
----------------------|------------------------|----------------------|
----------------------|------------------------|----------------------|
----------------------|------------------------|----------------------|
----------------------|------------------------|----------------------|


   Q     Q     H                               E  E  E  E  E  E  E  E   
--11-----9\-------------|-------------------|--------------------------|
--13----11\-------------|-------------------|--------------------------|
------------------------|-------------------|--5--5--5--5--5--5--5--5--|
------------------------|-------------------|--5--5--5--5--5--5--5--5--|
------------------------|-------------------|--------------------------|
------------------------|-------------------|--------------------------|


  E  E  E  E  E  E  E  E    
--------------------------||
--4--4--4--4--4--4--4--4--||
--------------------------||
--1--1--1--1--1--1--1--1--||
--------------------------||
--------------------------||




Duration Legend
---------------
W - whole
H - half
Q - quarter
E - 8th
S - 16th
T - 32nd
X - 64th
. - note dotted
|-n-|  - n-tuplets


Tablature Legend
----------------
L - tied note
x - dead note
g - grace note
(n) - ghost note
> - accentuded note
NH - natural harmonic
AH - artificial harmonic
TH - tapped harmonic
SH - semi harmonic
PH - pitch harmonic
h - hammer on
p - pull off
b - bend
br - bendRelease
pb - preBend
pbr - preBendRelease
brb - bendReleaseBend
\n/ - tremolo bar dip
\n - tremolo bar dive
-/n - tremolo bar Release up
/n\ - tremolo bar inverted dip
/n - tremolo bar return
-\n - tremolo bar Release down
S - shift slide
s - legato slide
/ -  slide into from below or out of upwards
\ -  slide into from above or out of downwards
~ - vibrato
W - wide vibrato
tr - trill
TP - tremolo picking
T - tapping
S - slap
P - pop
< - fade in
^ - brush up
v - brush down
comments
We did not receive enough feedback on this tab! Please rate:
print report bad tab
1 2 3 4 5
I want to post or [tab]
guest
You may want to rate the tab now too:
select rating
Please do not post tabs as comments. Select "correction" instead!