Oops, an error
Loading. Please wait.

Man Made God Tab

ver1
ver1

Whole song

Interactive

More versions @911Tabs.com
29,810 views 42 this week
12 commentsread comments
1 2 3 4 5
excellent!
x 11
Autoscroll
+/-
esc
set tempo
stop
Contributor
Hey! There's an official Ultimate Guitar app which is ideal
for learning songs when you're away from computer. Get the app
WARNING: You are trying to view
                                    content from Ultimate-Guitar.com
                                    in an unauthorized application,
                                    which is prohibited.

                                    Please use an official Ultimate
                                    Guitar Tabs application for iPhone,
                                    iPad or Android to access legitimate
                                    chords, guitar, bass, and drum tabs
                                    from Ultimate-Guitar.com database.

                                    Type "ultimate guitar tabs" in Apple
                                    App Store's or Android Market's
                                    search to find the application.
#----------------------------------PLEASE NOTE---------------------------------#
#This file is the author's own work and represents their interpretation of the #
#song. You may only use this file for private study, scholarship, or research. #
#------------------------------------------------------------------------------#

IN FLAMES - MAN MADE GOD
From the Album COLONY

Transcribed by: Marcus Päiviö [the_parasite24@hotmail.com]

..  - palm mute          /  - slide up to
 \  - slide down to      ~  - vibrato
 h  - hammer on          b  - bend
 p  - pull off            Suffixes for bend
                          ph - pinch harmonic
                           f - full bend    h - half bend
*  - see comment           r - release      t - tap bend
X  - percussion mute       ~ - vibrato bend
@  - slight palm mute     () - ghost note, sustained note

Tune Gtr to C (All Strings down 2 Steps)

In Flames - Man Made God

Riff A.1
|--------------------|
|---------h-p--------|
|-----2--0-2-0-------|Gtr
|--------------3-2-3-| I
|---3----------------|
|-1------------------|
|                    |
|--------------------|
|--------------------|
|---------h-p--------|Gtr
|-----3--2-3-2-------| II
|---3----------5-3-5-|
|-1------------------|

Riff A.2
|--------------------h-p-----------------------------------------|
|--------------5-6--5-6-5-----------------h-p--------------------|
|------------5------------7--5-7------7--7-9-7---------7--7------|Gtr
|----------7---------------------5-5-----------10-9-10------7----| I
|----------------------------------------------------------------|
|----------------------------------------------------------------|
|                                                                |
|--------------------h-p-----------------------------------------|
|--------------5-6--5-6-5-----------------h-p--------------------|
|------------5------------7--5-7------4--4-5-4--------4-5-4------|Gtr
|----------7---------------------5-5-----------7--5-7-------7----| II
|----------------------------------------------------------------|
|----------------------------------------------------------------|
|                                                                |
|----------------------------------------------------------------|
|----------------------------------------------------------------|
|-2----2-----2---------------------------------------------------|Gtr
|-2--2-2-2-2-2-2--3----3-----3----5----5-----5----5----5-----5---| III
|-0--0-0-0-0-0-0--3--3-3-3-3-3-3--5--5-5-5-5-5-5--5--5-5-5-5-5-5-|
|-----------------1--1-1-1-1-1-1--3--3-3-3-3-3-3--3--3-3-3-3-3-3-|
     .   . .   .     .   . .   .     .   . .   .     .   . .   .

|--------------------h-p------------------------------------|
|--------------5-6--5-6-5----------6fb-6fb-6fb+r-5----------|
|------------5------------7--5-7~------------------7-5-4-5~-|Gtr
|----7-7---7------------------------------------------------| I
|--------7--------------------------------------------------|
|-----------------------------------------------------------|
|                                                           |
|--------------------h-p-----------5fb-5fb-5fb+r-3----------|
|--------------5-6--5-6-5--------------------------6-5-3-5~-|
|------------5------------7--5-7~---------------------------|Gtr
|----7-7---7------------------------------------------------| II
|--------7--------------------------------------------------|
|-----------------------------------------------------------|
|                                                           |
|-----------------------------------------------------------|
|-----------------------------------------------------------|
|-2----2-----2----------------------------------------------|Gtr
|-2--2-2-2-2-2-2--3----3-----3----5----5-----5----5-5--6-6--| III
|-0--0-0-0-0-0-0--3--3-3-3-3-3-3--5--5-5-5-5-5-5--5-5--6-6--|
|-----------------1--1-1-1-1-1-1--3--3-3-3-3-3-3--3-3--4-4--|
     .   . .   .     .   . .   .     .   . .   .

Repeat Riff A.2 (1 time)
Repeat Riff A.1 (1 time)

Fill 1
|----|
|----|
|-2--|
|-2--|
|-0--|
|----|

Riff B.1
|---------------------------------------------------------|
|---------------------------------------------------------|
|---------------------------------------------------------|Gtr
|----------------2-------2---4---5---2---7-7--2-------7-7-| I
|----2---3---5-------5-------------------5-5------3---5-5-|
|-0----0---0---0---0---0---0---0---0---0--------0---0-----|
| .    .   .   .   .   .   .   .   .   .        .   .     |
|---------------------------------------------------------|
|---------------------------------------A.h----------A.h--|
|--------------------------------4------------------------|Gtr
|------------4---5---4---5---7-------5---7~---5---2---4~--| II
|----5---7------------------------------------------------|
|-0----0---0---0---0---0---0---0---0---0--------0---0-----|
  .    .   .   .   .   .   .   .   .   .        .   .

Repeat Riff B.1 (1 time)
Repeat Riff A.1 (1 time)

Riff C.1
|--------------------|
|---------h-p--------|
|-----5--4-5-4-------|Gtr
|---2----------7-5-7-| I
|-0------------------|
|--------------------|
|                    |
|--------------------|
|---------h-p--------|
|-----2--0-2-0-------|Gtr
|---2----------3-2---| II
|-0----------------3-|
|--------------------|

Repeat Riff A.1 (1 time)

Riff C.2
|-----------------|
|-----------------|
|-----5-7-7fb+r-5-|Gtr
|---2-------------| I
|-0---------------|
|-----------------|
|                 |
|-----------------|
|-----------------|
|-----2-4-4hb+r-2-|Gtr
|---2-------------| II
|-0---------------|
|-----------------|

Repeat Riff A.1 (1 time)
Repeat Riff C.1 (1 time)
Repeat Riff A.1 (1 time)
Repeat Riff B.1 (2 times)*(A.h second time only)
Repeat Riff A.1 (1 time)
Repeat Riff C.1 (1 time)
Repeat Riff A.1 (1 time)

Riff C.3
|----------------------|
|----------------------|
|-----5-7-7fb+r-5-4-5~-|Gtr
|---2------------------| I
|-0--------------------|
|----------------------|
|                      |
|----------------------|
|----------------------|
|-----2-4-4hb+r-2---2~-|Gtr
|---2-------------5----| II
|-0--------------------|
|----------------------|

Riff D.1
|-----5----3----1----0---------h-----------------------------|
|---6----5----3----1------3---1-5-5~--0--------------0-------|
|-----------------------4---4-----------2--------2-----2-----|Gtr
|-----------------------------------------2----2---2-----2---| I
|-0-----------------------------------------0--------------0-|
|------------------------------------------------------------|
|                                                            |
|------------------------------------------------------------|
|-----6----5----3----1----0----h------0--------------0-------|
|---7----5----4----2----0---0-2-5-5~----2--------2-----2-----|Gtr
|-----------------------------------------2----2---2-----2---| II
|-0-----------------------------------------0--------------0-|
|------------------------------------------------------------|

Riff D.2
|---------------------------------------------------------------|
|-----h-p---------------------h--p-------------------------------|
|-5--4-5-4-----------10---9--9-10-9-----------9-10-7~-----------|Gtr
|----------7-------7----7------------10-12------------9-10-7~---| I
|-------------7-8-----------------------------------------------|
|---------------------------------------------------------------|
|                                                               |
|---------------------------------------5-----------------------|
|---------0-------------------------------6---------------------|
|-----------------------0-----------7-------7-------------------|Gtr
|-----7-----7-------3-----3---3---7---7-------7-----3-----5---5-| II
|---7---7---------3---3-----3---5-----------------3-----5---5---|
|-5-----------0-1-------------------------------1-----3---------|

|----------------------------------------------------------------|
|-----h-p---------------------h--p-------------------------------|
|-5--4-5-4-----------10---9--9-10-9--------9-10-7~-4/5\4-2-5-4---|Gtr
|----------7-------7----7------------10-12---------------------5-| I
|-------------7-8------------------------------------------------|
|----------------------------------------------------------------|
|                                                                |
|---------------------------------------5------------------------|
|---------0-------------------------------6----------------------|
|-----------------------0-----------7-------7--------------------|Gtr
|-----7-----7-------3-----3---3---7---7-------7-----3-----5---5--| II
|---7---7---------3---3-----3---5-----------------3-----5---5----|
|-5-----------0-1-------------------------------1-----3----------|

|---------------------------------|
|---------------------------------|
|-\2--2--0--------0--2--2/4-5-2~--|Gtr
|---------------------------------| I
|---------------------------------|
|---------------------------------|
|                                 |
|-\5--5--3--------3--5--5/7-8-5~--|
|---------------------------------|
|---------------------------------|Gtr
|---------------------------------| II
|---------------------------------|
|---------------------------------|
|                                 |
|---------------------------------|
|---------------------------------|
|-----2-----4---------0-----2-----|Gtr
|-------------5---------------3---| III
|---3-----5-----5---2-----3-----3-|
|-1-----3---------0-----1---------|

Fill 2
|---------------------------|
|---------------------------|
|-5-------------------------|Gtrs I
|-5--5--7-------------------|  & II
|-3--5--7--7-7-7--7777-7777-|
|----3--5--5-5-5--5555-5555-|
           . . .  .... ....

Riff D.3
|-----h-p----------------------------------------------|
|-5--3-5-3-----------------h--p------------------------|
|----------5---------10---9-10-9-------9-10-7~-7-9-5~--|Gtr
|-------------5-7--7----7--------10-12-----------------| I
|------------------------------------------------------|
|------------------------------------------------------|
|                                                      |
|------------------------------------------------------|
|-----h-p------------------h--p------------------------|
|-5--4-5-4-----------10-9-9-10-9-------9-10-7~---------|Gtr
|----------7-------7-------------10-12---------9-10-7~-| II
|-------------7-8--------------------------------------|
|------------------------------------------------------|
|                                                      |
|------------------------------------------------------|
|------------------------------------------------------|
|-2------------------------------------7---------------|Gtr
|-2-----------2-3----------------------7-------5----3--| III
|-0-----------2-3----------------------5-------5----3--|
|-------------0-1------------------------------3-3--1--|
           .

|-----h-p-------------------------------------------------|
|-5--3-5-3-----------------h--p---------------------------|
|----------5---------10---9-10-9-------9-10-7~--/5\4/5 7~-|Gtr
|-------------5-7--7----7--------10-12--------------------| I
|---------------------------------------------------------|
|---------------------------------------------------------|
|                                                         |
|---------------------------------------------------------|
|-----h-p------------------h--p---------------------------|
|-5--4-5-4-----------10-9-9-10-9-------9-10-7~-/5\4-2-5-4-|Gtr
|----------7-------7-------------10-12--------------------| II
|-------------7-8-----------------------------------------|
|---------------------------------------------------------|
|                                                         |
|---------------------------------------------------------|
|---------------------------------------------------------|
|-2------------------------------------7------------------|Gtr
|-2-----------2-3----------------------7-------3----5-----| III
|-0-----------2-3----------------------5-------3----5-----|
|-------------0-1------------------------------1-1--3-----|
           .
                                              h p
|-5-5-3-3-5/7-8-5--5-5-7-7hb-7-3-5~----5-7-8-7-8-7------|
|------------------------------------5-------------10-8-|
|-------------------------------------------------------|Gtr
|-------------------------------------------------------|
|-------------------------------------------------------|
|                                             h p       |
|-5-5-3-3-5-5/7-8--5-5-7-7hb-7-3-5~----5-7-8-7-8-7------|
|------------------------------------5-------------10-8-|
|-------------------------------------------------------|Gtr
|-------------------------------------------------------| II
|-------------------------------------------------------|
|-------------------------------------------------------|
|                                                       |
|-------------------------------------------------------|
|-------------------------------------------------------|
|------------------------5------------------------------|Gtr
|-3---5---2---3----------5-5-7--------------------------| III
|-3---5---2---3----------3-5-7-------7-7-7--7777--7777--|
|-1-1-3---0-0-1------------3-5-------5-5-5--5555--5555--|
    .       .                        . . .  ....  ....
                                 h p
|-8-8-7-7-8-8/10-12--8-8-10-10fb-10-7-8~----5-7-8-7-8-7------|
|-----------------------------------------5-------------10-8-|
|------------------------------------------------------------|Gtr
|------------------------------------------------------------| I
|------------------------------------------------------------|
|------------------------------------------------------------|
|                                                  h p       |
|-5-5-3-3-5-5/7--8---5-5-7--7hb--7--3-5~----5-7-8-7-8-7------|
|-----------------------------------------5-------------10-8-|
|------------------------------------------------------------|Gtr
|------------------------------------------------------------| II
|------------------------------------------------------------|
|------------------------------------------------------------|
|                                                            |
|------------------------------------------------------------|
|------------------------------------------------------------|
|----------------------------5-------------------------------|Gtr
|-3---5---2---3--------------5-5-7---------------------------| III
|-3---5---2---3--------------3-5-7--------7-7-7--7777--7777--|
|-1-1-3---0-0-1----------------3-5--------5-5-5--5555--5555--|
    .       .                             . . .  ....  ....
              h  p
|---8-10-12-10-12-10-------|
|-8------------------13-12-|
|--------------------------|Gtr
|--------------------------| I
|--------------------------|
|--------------------------|
|             h  p         |
|---5-7--8--7--8--7--------|
|-5------------------10-8--|
|--------------------------|Gtr
|--------------------------| II
|--------------------------|
|--------------------------|
|                          |
|--------------------------|
|--------------------------|
|--------------------------|Gtr
|--------------------------| III
|-7-7-7-----7777----7777---|
|-5-5-5-----5555----5555---|
  . . .     ....    ....

Riff E.1
|--------------------h-p------------------------------------------------|
|--------------7-8--7-8-7-----------------h--p-----------------h--p-----|
|------------7------------9--7-9------9--9-11-9----------9-11-9-11-9----|Gtr
|----------9---------------------7-7------------12-11-12-------------12~| I
|-----------------------------------------------------------------------|
|-----------------------------------------------------------------------|
|                                                                       |
|--------------------h-p------------------------------------------------|
|--------------7-8--7-8-7-----------------h--p-----------------h--p-----|
|------------7------------9--7-9------6--6-7--6----------6-7--6-7--6----|Gtr
|----------9---------------------7-7------------9--7--9--------------9--| II
|-----------------------------------------------------------------------|
|-----------------------------------------------------------------------|
|                                                                       |
|-----------------------------------------------------------------------|
|-----------------------------------------------------------------------|
|-4----4-----4----------------------------------------------------------|Gtr
|-4--4-4-4-4-4-4--5----5-----5----7----7------7----7------7-----7-------| III
|-2--2-2-2-2-2-2--5--5-5-5-5-5-5--7--7-7-7-7--7-7--7---7--7-7-7-7-7-----|
|-----------------3--3-3-3-3-3-3--5--5-5-5-5--5-5--5---5--5-5-5-5-5-----|
     .   . .   .     .   . .   .     .   . .    .      .    . .   .
  (first ending) second time go to the (second ending)
|--------------------h-p----------|---------------------------------|
|--------------7-8--7-8-7---------|-8fb-8fb-8fb+r-7-----------------|
|------------7------------9--7-9~-|------------------9-7-6-7~-------|Gtr
|----------9----------------------|---------------------------------| I
|---------------------------------|---------------------------------|
|---------------------------------|---------------------------------|
|                                 |                                 |
|--------------------h-p----------|-7fb-7fb-7fb+r-------------------|
|--------------7-8--7-8-7---------|---------------10-8-7-5-7~-------|
|------------7------------9--7-9~-|---------------------------------|Gtr
|----9-9---9----------------------|---------------------------------| II
|--------9------------------------|---------------------------------|
|---------------------------------|---------------------------------|
|                                 |                                 |
|---------------------------------|---------------------------------|
|---------------------------------|---------------------------------|
|-4----4-----4--------------------|---------------------------------|Gtr
|-4--4-4-4-4-4-4--5----5-----5----|-7----7-----7----7-7--8-8--------| III
|-2--2-2-2-2-2-2--5--5-5-5-5-5-5--|-7--7-7-7-7-7-7--7-7--8-8--------|
|-----------------3--3-3-3-3-3-3--|-5--5-5-5-5-5-5--5-5--6-6--------|
     .   . .   .     .   . .   .       .   . .   .

(second ending)
|----------------------------|
|-8fb-8fb-8fb+r-7------------|
|------------------9-7~------|Gtr
|----------------------------| I
|----------------------------|
|----------------------------|
|                            |
|-7fb-7fb-7fb+r--------------|
|---------------10-8-7~------|
|----------------------------|Gtr
|----------------------------| II
|----------------------------|
|----------------------------|
|                            |
|----------------------------|
|----------------------------|
|----------------------------|Gtr
|-7----7-----7----7-7--8-8---| III
|-7--7-7-7-7-7-7--7-7--8-8---|
|-5--5-5-5-5-5-5--5-5--6-6---|
     .   . .   .
Repeat Riff A.1 (1 time)
Repeat Fill 1 (1 time)
Repeat Riff B.1 (2 times)
Repeat Riff A.1 (1 time)
Repeat Riff C.1 (1 time)
Repeat Riff A.1 (1 time)

Riff F.1
|----------------------------------------------------------------------|
|----------------------------------------------------------------------|
|-------------h--p-----------------------------h--p-----5fb+r-4--------|Gtr
|----7-9-10--9-10-9-7----7~-----------7-9-10--9-10-9-7----------7-5-7~-| I
|--7------------------10-------7-8--8----------------------------------|
|----------------------------------------------------------------------|
|                                                                      |
|----------------------------------------------------------------------|
|----------------------------------------------------------------------|
|-------------------------------------------------------5-5------------|Gtr
|-7----------------------------2-3----------------------5-5---5-5------| II
|-7-777-777-777-777-777-777-77-2-3--333----333----333---3-3---5-5------|
|-5-555-555-555-555-555-555-55-0-1--111----111----111---------3-3------|
    ... ... ... ... ... ... ..      ...    ...    ...
repeat riff F.1 (1 time)

Riff F.2             (first ending)
|----------------------------------------------------------|------------------|
|------------h-p-----------------------------------h-p-----|-5"6"5"-----------|
|----5-7-9--7-9--7----555-555-55----------5-7-9--7-9--7-5--|--------7~-5-4-5~-|Gtr
|--7---------------9---------------------------------------|------------------| I
|----------------------------------7-8--8------------------|------------------|
|----------------------------------------------------------|------------------|
|                       ... ... ..                         |                  |
|----------------------------------------------------------|------------------|
|----------------------------------------------------------|------------------|
|-------------h--p----------------------------------h--p---|-5"7"5"-4~--------|Gtr
|----7-9-10-9-10-9----777-777-77----------7-9-10-9-10-9-7--|-----------7-5-7~-| II
|--7---------------10-------------7-8--8-------------------|------------------|
|----------------------------------------------------------|------------------|
|                     ... ... ..                           |                  |
|----------------------------------------------------------|------------------|
|----------------------------------------------------------|------------------|
|----------------------------------------------------------|--5-5-------------|Gtr
|-7-------------------------------2-3----------------------|--5-5---5-5-------| II
|-7-777-777-777--777--777-777-77--2-3--333----333----333---|--3-3---5-5-------|
|-5-555-555-555--555--555-555-55--0-1--111----111----111---|--------3-3-------|
    ... ... ... ...   ... ... ..       ...    ...    ...
(second time)
|------------------|
|-5"6"5"-----------|
|--------7~-5-4-2~-|Gtr
|------------------| I
|------------------|
|------------------|
|                  |
|------------------|
|------------------|
|-5"7"5"-4~--------|Gtr
|-----------7-5-3~-| II
|------------------|
|------------------|
|                  |
|------------------|
|------------------|
|--5-5-------------|Gtr
|--5-5---5-5-------| III
|--3-3---5-5-------|
|--------3-3-------|

Repeat Riff A.1 (1 time)
Repeat Riff C.1 (1 time)
Repeat Riff A.1 (1 time)

Fill 3
|------------|
|------------|
|------------|Gtr
|---7-7--5-5-| I
|---7-7--5-5-|
|-0-5-5--3-3-|
| .          |
|------------|
|------------|
|------------|Gtr
|---7-7--5-5-| II
|---7-7--5-5-|
|-0-5-5--3-3-|
  .
Repeat Riff A.1 (1 time)
Repeat Riff C.1 (1 time)
Repeat Riff A.1 (1 time)
Repeat Riff B.1 (2 times)

Riff G.1          p
|----------p-----8--7-8~--10-12/13-10-12~-15fb+r--------------------|
|---p-----5-3-5~---------------------------------18-17-15-17-15-13~-|
|--5-4-5~-----------------------------------------------------------|Gtr
|-------------------------------------------------------------------| I
|-------------------------------------------------------------------|
|-------------------------------------------------------------------|
|                                                                   |
|------------------p----------------------12hb+r--------------------|
|----------p-----10-8-10~-12-13/15-12-13~--------15-13-12-13-12-10~-|
|---p-----5-4-5~----------------------------------------------------|Gtr
|--7-5-7~-----------------------------------------------------------| II
|-------------------------------------------------------------------|
|-------------------------------------------------------------------|
|                                                                   |
|-------------------------------------------------------------------|
|-------------------------------------------------------------------|
|----------------2-------2---4---5---2------------2-----------------|Gtr
|----2---3---5-------5--------------------5---5-------3---3---3-----| III
|-0----0---0---0---0---0---0---0---0------5---5-----0-----3---3-----|
|-----------------------------------------3---3-----------1---1-----|
| .    .   .   .   .   .   .   .   .                .               |
|-------------------------------------------------------------------|
|--------------------------------5----------------3-----------------|
|------------4---5---4---5---7-------5----------------4-------------|Gtr
|----5---7--------------------------------5---5----------3---3------| IV
|-0----0---0---0---0---0---0---0---0------5---5-----0----3---3------|
|-----------------------------------------3---3----------1---1------|
  .    .   .   .   .   .   .   .   .                .




                                   h    *then ther is a few notes
|-\202020/-\222222/-\242424/--19-19-20----19~--19-20-19-17-15-19-17-| wich i couldn't hear
|--------------------------------------22---------------------------| try to figure out
|-------------------------------------------------------------------|Gtr       yourself
|-------------------------------------------------------------------| I
|-------------------------------------------------------------------|
|-------------------------------------------------------------------|
|                                  h                                |
|-/171717\-/191919\-/202020\--22-22-24-20-22~--22-24-22-20-19-22-20-|
|-------------------------------------------------------------------|
|-------------------------------------------------------------------|Gtr
|-------------------------------------------------------------------| II
|-------------------------------------------------------------------|
|-------------------------------------------------------------------|
|                                                                   |
|-------------------------------------------------------------------|
|-------------------------------------------------------------------|
|--------------------2---------2----4---5----2-----------2--------7-|Gtr
|----2-----3----5---------5----------------------5---5---------3--7-| III
|-0-----0----0----0----0----0----0----0----0-----5---5------0-----5-|
|------------------------------------------------3---3--------------|
| .     .    .    .    .    .    .    .    .                .       |
|-------------------------------------------------------------------|
|---------------------------------------5----------------3----------|
|---------------4----5----4----5----7--------5-----------------4--7-|Gtr
|----5-----7--------------------------------------5---5-----------7-| IV
|-0----0-----0----0----0----0----0----0----0------5---5-----0-----5-|
|-------------------------------------------------3---3-------------|
  .    .     .    .    .    .    .    .    .                .

*Solo end with this note
|-15~--|
|------|
|------|Gtr
|------| I
|------|
|------|
|      |
|-15~--|
|------|
|------|Gtr
|------| II
|------|
|------|
|      |
|------|
|------|
|-7----|Gtr
|-7----| III
|-5----|
|------|
|      |
|------|
|------|
|-7----|Gtr
|-7----| IV
|-5----|
|------|

Riff I.1
|-----------------|
|-----------------|
|-----------------|Gtrs I
|-----------------|  & II
|-222-2-222-2-222-|
|-000-0-000-0-000-|
  ... . ... . ...
Repeat Riff I.1 (5 times)

Riff I.2
|---------------------|
|---------------------|
|-------7-7-------4-4-|Gtrs I
|-------7-7-------4-4-|  & II
|-222-2-5-5-222-2-2-2-|
|-000-0-----000-0-----|
  ... .     ... .
Riff J.1
|-------------------------------------------------------------|
|------h--p----------------18--17-15----15--17-18-15----------|
|-17-16-17-16-----------17-----------17--------------16-15-14-|Gtr
|-------------19----------------------------------------------| I
|----------------19-20----------------------------------------|
|-------------------------------------------------------------|
|                                                             |
|-------------------------------------------------------------|
|-------------------------------------------6-----------------|
|-5--------------0--2-----------------------7--------4--2-----|Gtr
|-7--------------2--3-----------------------7--------5--3-----| II
|-7--------------2--3-----------------------5--------5--3-----|
|-5--------------0--1--------------------------------3--1-----|

|--------------------------------------------------------------------|
|------h--p----------------18--17-15----15--17-18-15-----------------|
|-17-16-17-16-----------17-----------17--------------16/17\16-17-19~-|Gtr
|-------------19-----------------------------------------------------| I
|----------------19-20-----------------------------------------------|
|--------------------------------------------------------------------|
|                                                                    |
|--------------------------------------------------------------------|
|-------------------------------------------6------------------------|
|-5--------------0--2-----------------------7--------2---4-----------|Gtr
|-7--------------2--3-----------------------7--------3---5-----------| II
|-7--------------2--3-----------------------5--------3---5-----------|
|-5--------------0--1--------------------------------1---3-----------|

|------------------------|
|------------------------|
|-14-----------16-17-----|Gtr
|----17--17-19-------19~-| I
|------------------------|
|------------------------|
|                        |
|------------------------|
|------------------------|
|-2--4---------0--2------|Gtr
|-3--5---------2--3------| II
|-3--5---------2--3------|
|-1--3---------0--1------|

Fill 4
|----------------|
|----------------|
|-5--------------|Gtr
|-5--5--7--------| I
|-3--5--7--777-7-|
|----3--5--555-5-|
           ... .
End
comments
print report bad tab
12 comments total. Showing first comments.
+1 reply
Xx_banx wrote on January 24 2005, 12:00 am

You have good taste in music :m:

0 reply
P8ntballer wrote on April 6 2005, 12:00 am

So would the tuning be (C G C F A D) or (C F A# D# G C)?

-2 reply
------SYN------ wrote on October 23 2006, 09:12 pm

C G C F A D

I want to post or [tab]
guest
You may want to rate the tab now too:
select rating
Please do not post tabs as comments. Select "correction" instead!