Oops, an error
Loading. Please wait.

Man Made God Tab

ver2
ver2

Whole song

Interactive

More versions @911Tabs.com
2,634 views 3 this week
1 commentread comment
1 2 3 4 5
not so good
x 1
Autoscroll
+/-
esc
set tempo
stop
Contributor
Hey! There's an official Ultimate Guitar app which is ideal
for learning songs when you're away from computer. Get the app
WARNING: You are trying to view
                                    content from Ultimate-Guitar.com
                                    in an unauthorized application,
                                    which is prohibited.

                                    Please use an official Ultimate
                                    Guitar Tabs application for iPhone,
                                    iPad or Android to access legitimate
                                    chords, guitar, bass, and drum tabs
                                    from Ultimate-Guitar.com database.

                                    Type "ultimate guitar tabs" in Apple
                                    App Store's or Android Market's
                                    search to find the application.
#----------------------------------PLEASE NOTE---------------------------------#
#This file is the author's own work and represents their interpretation of the #
#song. You may only use this file for private study, scholarship, or research. #
#------------------------------------------------------------------------------#

                           IN FLAMES - MAN MADE GOD
                             From the Album COLONY
                         Copyright 1999 NUCLEAR BLAST
                           Version 1.1 - April 2001

Transcription Done By: NinJak (Alex Ho)
Proofreading/Input By: QSlicer (Andy Boyle) qslicer@pionet.net
Riff D.1 Rhythm added by: Michael Herman (Wayfaerer)

For Questions, Comments, Corrections, or Newest Version;
          please contact Alex Ho at ninjak99@hotmail.com

.. - palm mute                          /  - slide up to
\  - slide down to                      ~  - vibrato
"  - tremelo picking

Riff Headings : Indented RiFF headings are the play order ... Non-indented
                are for title only.

Timing is quite non shalant in this here tab.

Tuning: C (C,F,A#,D#,G,C)

RiFF A.1

|-----------------------|
|-----------------------|
|-----------------------|
|-------3-2h3p2h0-------|
|-----3-----------3-2-0-|
|-1---------------------|
|                       |
|-----------------------|
|-----------------------|
|-------2-0h2p0---------|
|-----3---------3-2-3-0-|
|-----------------------|
|-1---------------------|

  RiFF A.1 0:00

RiFF A.2                                   *it may look funny but these
                                            3rd chords are correct
|---------------------------------------------------------------|
|--------------56--5h6p5---5-----------------013-3-0h1p0-0-0--1-|
|-------------5----------7----5-7-----------0-24--------2--0--2-| GTR I
|-7----------7--------------------5-----------------------------|
|---------------------------------------------------------------|
|---------------------------------------------------------------|
|                                              .           .    |
|---------------------------------------------------------------|
|--------------56--5h6p5---5------------------------------------|
|-------------5----------7----5-7------------457-7-4h5p4--------| GTR II
|-7----------7--------------------5---------5-----------7--5--7-|
|---------------------------------------------------------------|
|---------------------------------------------------------------|
|
|---------------------------------------------------------|
|---------------------------------------------------------|
|-2----2-----2--------------------------------------------| GTR III
|-2--2-2-2-2-2--3----3-----3--5----5-----5--5----5-----5--|
|-0--0-0-0-0-0--3--3-3-3-3-3--5--5-5-5-5-5--5--5-5-5-5-5--|
|---------------1--1-1-1-1-1--3--3-3-3-3-3--3--3-3-3-3-3--|
     .   . .       .   . .       .   . .       .   . .

|---------------------------------------5fb5fb-5fbr-3-----------|
|-(1)----------56--5h6p5---5--------------------------6-5-3-5---|
|-(2)---------5----------7----5-7-------------------------------| GTR I
|------------7--------------------------------------------------|
|---------------------------------------------------------------|
|---------------------------------------------------------------|
|                                                               |
|---------------------------------------------------------------|
|--------------56--5h6p5---5------------6fb6fb-6fbr-5-3---------|
|-------------5----------7----5-7-----------------------5-4-5---| GTR II
|-(7)--------7--------------------------------------------------|
|---------------------------------------------------------------|
|---------------------------------------------------------------|
|
|---------------------------------------------------------|
|---------------------------------------------------------|
|-2----2-----2--------------------------------------------| GTR III
|-2--2-2-2-2-2--3----3-----3--5----5-----5--5----5-----6--|
|-0--0-0-0-0-0--3--3-3-3-3-3--5--5-5-5-5-5--5--5-5-5-5-6--|
|---------------1--1-1-1-1-1--3--3-3-3-3-3--3--3-3-3-3-4--|
     .   . .       .   . .       .   . .       .   . .

  RiFF A.2 x 2 0:02
  RiFF A.1     0:27

RiFF B

|---------------------------------------------------------------------|
|---------------------------------------------------------------------|
|---------------------------------------------------------------------|
|-----------------------------------------~ah-------------------------| GTR I
|----5---7---9---10--9---10--12--14--10--12--10--7---9~ah-------------|
|-0----0---0---0---0---0---0---0---0---0-------0---0------------------|
|      .   .   .   .   .   .   .   .   .       .   .                  |
|---------------------------------------------------------------------|
|---------------------------------------------------------------------|
|----------------------------------------11----------7----------------|
|----------------------------------------11----------7----------------| GTR II
|----2---3---5---7---5---7---9---10--7---9---7---3---5----------------|
|-0----0---0---0---0---0---0---0---0---0-------0---0------------------|
       .   .   .   .   .   .   .   .   .       .   .

  RiFF B x 2 0:29

RiFF C.1

|---------------------------------------------------------------------|
|---------------------------------------------------------------------|
|-------------------------2-0h2p0-------------------------------------|
|------3-2h3p2-0--------2---------3-2---------------------------------| GTR I
|----3-----------3---0------------------------------------------------|
|-1-------------------------------------------------------------------|
|                                                                     |
|---------------------------------------------------------------------|
|---------------------------------------------------------------------|
|------2-0h2p0------------5-4h5p4-2-02--------------------------------|
|----3---------3-2------2---------------------------------------------| GTR II
|--------------------0------------------------------------------------|
|-1-------------------------------------------------------------------|

                                 1.         2.
                    |________________||________|
|------------------------------------||--------|
|------------------------------------||--------|
|-------------------------2-4-4hb~r-:||-RiFF B-|
|------3-2h3p2-0--------2------------||--------|
|----3-----------3---0---------------||--------|
|-1----------------------------------||--------|
|                       . . .        ||        |
|------------------------------------||--------|
|-------------------------1-3-3fb~r--||--------|
|-----------------------2-----------:||-RiFF B-|
|------2-0h2p0-----------------------||--------|
|----3---------3-2---0---------------||--------|
|-1----------------------------------||--------|
                        . .

  RiFF C.1 x 2 0:41 On second repeat go back to
  RiFF B x 2   0:52

RiFF C.2

|--------------------------------------|
|--------------------------------------|
|-------------------------2-0h2p0------|
|------3-2h3p2-0--------2---------3-2--| GTR I
|----3-----------3---0-----------------|
|-1------------------------------------|
|                                      |
|--------------------------------------|
|--------------------------------------|
|------2-0h2p0------------5-4h5p4-2-02-|
|----3---------3-2------2--------------| GTR II
|--------------------0-----------------|
|-1------------------------------------|

|------------------------------------------||
|------------------------------------------||
|-------------------------2-4-4hb~r-2-0-2~-||
|------3-2h3p2-0--------2------------------||
|----3-----------3---0---------------------||
|-1----------------------------------------||
|                       . . .              ||
|------------------------------------------||
|-------------------------1-3-3fb~r-1-0-1~-||
|-----------------------2------------------||
|------2-0h2p0-----------------------------||
|----3---------3-2---0---------------------||
|-1----------------------------------------||
                        . . .

 RiFF C.2 1:03

Acoustic Guitar
RiFF D.1

|---------------------------------------------------------------------|
|---6-----5----3----1-----------------------0---------------0---------|
|-7-----5----4----2---0--0h2-2----------2-----2---------2-----2-------|
|-------------------------------------2---2-----2-----2---2-----2-----| GTR I
|----------------------------------0---------------0---------------0--|
|---------------------------------------------------------------------|
|                                                                     |
|---5-----3----1----0-------------------------------------------------|
|-6-----5----3----1---0--0h1-1--------------0---------------0---------|
|---------------------------------------2-----2---------2-----2-------|
|-------------------------------------2---2-----2-----2---2-----2-----| GTR II
|----------------------------------0---------------0---------------0--|
|---------------------------------------------------------------------|


|-------------------------------------------------------|
|-------------------------------------------------------|
|-5--4h5p4---------10-99h10p9----7-9--10-7--------------|
|----------7------10----------10-------------9--10-7----| GTR I
|------------7-8----------------------------------------|
|-------------------------------------------------------|
|                                                       |
|--------------------------------------5------------------------------|
|----------------------------------------5----------------------------|
|------------------------------------------5----------------0---------|
|----------------------------------7---------7------5-----3-----------|
|--------------------------------7---7------------5-----3-------------|
|------------------------------5----------------3-----1---------------|




|-------------------------------------------------------|
|-------------------------------------------------------|
|-5--4h5p4---------10-99h10p9----7-9--10-7--------------|
|----------7------10----------10-----------/10-9---10-9-| GTR I
|------------7-8----------------------------------------|
|-------------------------------------------------------|
|                                                       |
|--------------------------------------5------------------------------|
|----------------------------------------5----------------------------|
|------------------------------------------5----------------0---------|
|----------------------------------7---------7------5-----3-----------|
|--------------------------------7---7------------5-----3-------------|
|------------------------------5----------------3-----1---------------|

|----------------8-----|
|-1010-8--8-1012---10--|
|----------------------|
|----------------------| GTR I
|----------------------|
|----------------------|
|                      |
|----------------------|
|----------------------|
|-------------4--5-----|
|-7-7-5---5-7------7---| GTR II
|----------------------|
|----------------------|
|
|-------------------------------------|
|-------------------------------------|
|----------5----------------4---------|   GTR III
|----7---7---7--------5---5---5-------|
|--7-----------7----5---5-------5-----|
|5-----5----------3-------------------|


  RiFF D.1 1:10

BACK TO THE HEAVINESS (Press those Distortion Pedals in boys and girls!)

  FiLL     1:30

|----------------------------|
|----------------------------|
|-5--------------------------|
|-5--5-5----7--7-7-7---------| GTR I & II
|-3--3-5--5-7--7-7-7-7777777-|
|------3--3-5--5-5-5-5555555-|
               . . . .......

RiFF D.2

|-------------------------------------------------------|
|-------------------------------------------------------|
|-5--4h5p4---------10-99h10p9---7-9--10-7---------------|
|----------7------10----------10-----------/9-10-7~-----| GTR I
|------------7-8----------------------------------------|
|-------------------------------------------------------|
|                                                       |
|-------------------------------------------------------|
|-5--3h5p3---------6--55h6p5------5---6--------5--------|
|----------5-----5------------5-7-------7--/7----5~-----|
|------------5/7----------------------------------------|
|-------------------------------------------------------|
|-------------------------------------------------------|
|                                                                     |
|-------------------------------|
|-------------------------------|
|----------------7--------------|
|-7-----2--3-----7-----5----3---|GTR III
|-7-----2--3-----5-----5----3---|
|-5-----0--1-----------3----1---|

|-------------------------------------------------------|
|-------------------------------------------------------|
|-------------------------------------------------------|
|-5--4h5p4---------10-99h10p9----7-9--10-7--------------|
|----------7------10----------10-----------/10-9---10-9-| GTR I
|------------7-8----------------------------------------|
|-------------------------------------------------------|
|                                                       |
|-------------------------------------------------------|
|-5--3h5p3---------6--55h6p5------5---6-----------------|
|----------5-----5------------5-7-------7--/5--4----5-7-|
|------------5/7----------------------------------------|
|-------------------------------------------------------|
|-------------------------------------------------------|
|
|---------------------------------------------------------------------|
|---------------------------------------------------------------------|
|----------------7----------------------------------------------------|
|-7-----2--3-----7-----3----5-----------------------------------------|
|-7-----2--3-----5-----3----5-----------------------------------------|
|-5-----0--1-----------1----3-----------------------------------------|

|---------------------------------8--8----------|
|-10--10-8---8-10-12hbr-10--10-12------12-8-10--|
|-----------------------------------------------|
|-----------------------------------------------| GTR I&II
|-----------------------------------------------|
|-----------------------------------------------|
|                                               |
|-----------------------------------------------|
|-----------------------------------------------|
|----------------------------5------------------|
|-3------5---2----3----------5--5-5-----7-------| GTR III
|-3------5---2----3----------3--3-5--5--7-------|
|-1------3---0----1---------------3--3--5-------|

|----------------------------|
|---10-12-13-12h13p12-10-----|
|-9----------------------12--|
|----------------------------| GTR I
|----------------------------| & II
|----------------------------|
|                            |
|----------------------------|
|----------------------------|
|----------------------------|
|-7--7--7--------------------| GTR III
|-7--7--7--7-7-7-7-7-7-7-7---|
|-5--5--5--5-5-5-5-5-5-5-5---|
  .  .  .  . . . . . . . .

|---------------------------------8--8----------|
|/10--10-8---8-10-12hbr-10--10-12------12-8-10--|
|-----------------------------------------------|
|-----------------------------------------------| GTR I
|-----------------------------------------------|
|-----------------------------------------------|
|                                               |
|--------------------12-----------12-12---------|
|/13--13-12--1213-15----13--13-15------15-1213--|
|-----------------------------------------------|
|-----------------------------------------------| GTR II
|-----------------------------------------------|
|-----------------------------------------------|
|                                               |
|-----------------------------------------------|
|-----------------------------------------------|
|----------------------------5------------------|
|-3------5---2----3----------5--5-5-----7-------| GTR III
|-3------5---2----3----------3--3-5--5--7-------|
|-1------3---0----1---------------3--3--5-------|

|----------------------------|
|---10-12-13-12h13p12-10-----|
|-9----------------------12--|
|----------------------------| GTR I
|----------------------------| & II
|----------------------------|
|                            |
|----------------------------|
|----------------------------|
|----------------------------|
|-7--7--7--------------------| GTR III
|-7--7--7--7-7-7-7-7-7-7-7---|
|-5--5--5--5-5-5-5-5-5-5-5---|
  .  .  .  . . . . . . . .

|----------------------------|
|---10-12-13-12h13p12-10-----|
|-9----------------------12--|
|----------------------------| GTR I
|----------------------------|
|----------------------------|
|                            |
|----------------------------|
|---13-15-17-15h17p15-13-12--|
|-12-------------------------|
|----------------------------| GTR I
|----------------------------|
|----------------------------|
|                            |
|----------------------------|
|----------------------------|
|----------------------------|
|-7--7--7--------------------| GTR III
|-7--7--7--7-7-7-7-7-7-7-7---|
|-5--5--5--5-5-5-5-5-5-5-5---|
  .  .  .  . . . . . . . .

  RiFF D.2 1:33

Variation RiFF A.2

|---------------------------------------------------------------|
|--------------78--7h8p7---7------------------------------------|
|-------------7----------9----7-9----------11-9--9-11---12----9-| GTR I
|-9----------9--------------------7------------12---------------|
|---------------------------------------------------------------|
|---------------------------------------------------------------|
|                                                               |
|---------------------------------------------------------------|
|--------------78--7h8p7---7------------------------------------|
|-------------7----------9----7-9------------679-9-6h7p6--------| GTR II
|-9----------9--------------------7---------7-----------9--7--9-|
|---------------------------------------------------------------|
|---------------------------------------------------------------|
|
|---------------------------------------------------------|
|---------------------------------------------------------|
|-4----4-----4--------------------------------------------| GTR III
|-4--4-4-4-4-4--5----5-----5--7----7-----7--7----7-----7--|
|-2--2-2-2-2-2--5--5-5-5-5-5--7--7-7-7-7-7--7--7-7-7-7-7--|
|---------------3--3-3-3-3-3--5--5-5-5-5-5--5--5-5-5-5-5--|
     .   . .       .   . .       .   . .       .   . .

|-------------------------------------7fb7fb-7fbr5--------------|
|--------------78--7h8p7---7-----------------------8-7-5-7------|
|-------------7----------9----7-9-------------------------------| GTR I
|-9----------9--------------------7-----------------------------|
|---------------------------------------------------------------|
|---------------------------------------------------------------|
|                                                               |
|---------------------------------------------------------------|
|--------------78--7h8p7---7----------8fb8fb-8fbr7-5------------|
|-------------7----------9----7-9--------------------7-6-7------| GTR II
|-9----------9--------------------7-----------------------------|
|---------------------------------------------------------------|
|---------------------------------------------------------------|
|
|---------------------------------------------------------|
|---------------------------------------------------------|
|-4----4-----4--------------------------------------------| GTR III
|-4--4-4-4-4-4--5----5-----5--7----7-----7--7----7---8----|
|-2--2-2-2-2-2--5--5-5-5-5-5--7--7-7-7-7-7--7--7-7-7-8----|
|---------------3--3-3-3-3-3--5--5-5-5-5-5--5--5-5-5-6----|
     .   . .       .   . .       .   . .       .   .

  Variation RiFF A.2 x 2  1:59
  RiFF A.1                2:22
  RiFF B x 2              2:26
  RiFF C.1                2:37 Ignore Repeat and First and Second Ending .
                               Instead Proceed to RiFF F.1

RiFF F.1

|---------------------------------------------------------------------|
|---------------------------------------------------------------------|
|---------------------------------------------------7-----------------| GTR I
|---7-9-10-9h10p9-7---7~----7------7-9-9h10p9-7-10----10-9-7----7~----| & II
|-7-----------------9---------8--8---------------------------10-------|
|---------------------------------------------------------------------|
|                                                                     |
|---------------------------------------------------------------------|
|---------------------------------------------------------------------|
|-------------------------------------------5-------------------------|
|-7-------------7-------------3-------------5-55---5------------------|
|-7-777-777-777-7-777-777-777-3-333-333-333-3-33---5-555--------------|
|-5-555-555-555-5-555-555-555-1-111-111-111--------3-333--------------|
    ... ... ...   ... ... ...   ... ... ...   ..     ...

  RiFF F.1 x 2 2:42

RiFF F.2

|---------------------------------------------------------------------|
|---------------------------------------------------------------------|
|-----------------------------------------------------7"--------------|
|---7-9-10-9h10p9-7---7~----7------7-9-9h10p9-7---10"--10"-9-7-----7--| GTR I
|-7-----------------9---------8--8------------------------------10----|
|---------------------------------------------------------------------|
|                                                  .   . .            |
|---------------------------------------------------------------------|
|---------------------------------------------------------------------|
|---5--7-9-7h9p7--5---5-555-5------5-7-9-7h9p7-5---9"-10"9"-7---------| GTR II
|-7-----------------9---------7--7----------------------------10-9-10-|
|---------------------------------------------------------------------|
|---------------------------------------------------------------------|
|                      ...                         .   . .            |
|---------------------------------------------------------------------|
|---------------------------------------------------------------------|
|-------------------------------------------5-------------------------| GTR
|-7-------------7-------------3-------------5-55---5------------------|  III
|-7-777-777-777-7-777-777-777-3-333-333-333-3-33---5-555--------------|
|-5-555-555-555-5-555-555-555-1-111-111-111--------3-333--------------|
    ... ... ...   ... ... ...   ... ... ...   ..     ...

|---------------------------------------------------------------------|
|---------------------------------------------------------------------|
|-----------------------------------------------------7"--------------|
|---7-9-10-9h10p9-7---7~----7------7-9-9h10p9-7---10"--10"-9"7--------| GTR I
|-7-----------------9---------8--8------------------------------10-7--|
|---------------------------------------------------------------------|
|                                                  .   . .            |
|---------------------------------------------------------------------|
|---------------------------------------------------------------------|
|---5--7-9-7h9p7--5---5-555-5------5-7-9-7h9p7-5---9"-10"9"7"---------| GTR II
|-7-----------------9---------7--7----------------------------10-9-7--|
|---------------------------------------------------------------------|
|---------------------------------------------------------------------|
|                      ...                         .   . .            |
|---------------------------------------------------------------------|
|---------------------------------------------------------------------|
|-------------------------------------------5-------------------------| GTR
|-7-------------7-------------3-------------5-55---5------------------|  III
|-7-777-777-777-7-777-777-777-3-333-333-333-3-33---5-555--------------|
|-5-555-555-555-5-555-555-555-1-111-111-111--------3-333--------------|
    ... ... ...   ... ... ...   ... ... ...   ..     ...

 RiFF F.2 2:53

RiFF G

|--------------------------------------|
|--------------------------------------|
|-------------------------2-0h2p0------|
|------3-2h3p2-0--------2---------3-2--| GTR I
|----3-----------3---0-----------------|
|-1------------------------------------|
|                                      |
|--------------------------------------|
|--------------------------------------|
|------2-0h2p0------------5-4h5p4-2-02-|
|----3---------3-2------2--------------| GTR II
|--------------------0-----------------|
|-1------------------------------------|

                                1.
                     |________________|
|------------------------------------||-----------------||
|------------------------------------||-----------------||
|-------------------------2-2-------:||-----------------||
|------3-2h3p2-0----------2-2---5/7--||---RiFF B--------||
|----3-----------3--------0-0---5/7--||-----------------||
|-1-------------------0-------0-3/5--||-----------------||
|                                                       ||
|------------------------------------||-----------------||
|------------------------------------||-----------------||
|-------------------------2-2-------:||-----------------||
|------2-0h2p0------------2-2---5/7--||---RiFF B--------||
|----3---------3-2--------0-0---5/7--||-----------------||
|-1-------------------0-------0-3/5--||-----------------||

  RiFF G x 2   3:06  On second Ending proceed to
  RiFF B x 2   3:16

RiFF H

|-----------------------------------------------------------------------|
|-------------------------13-12-13--13-/15-12-13---17hbrp15p13-12h13p12-|
|---------------14-12-14----------------------------------------------14|
|-----14-12-14----------------------------------------------------------| GTR I
|-12--------------------------------------------------------------------|
|-----------------------------------------------------------------------|
|                                                                       |
|-----------------------------------------------------------------------|
|-----------------------------------------------------------------------|
|-----------------------------------17-16-/17--19--19fbrp17-1616h17p16--|
|-----10--9-10--12-10-12--14-12-14------------------------------------19| GTR
|-12--------------------------------------------------------------------|  II
|-----------------------------------------------------------------------|
|                                                                     |
|---------------------------------------------------------------------|
|---------------------------------------------------------------------|
|---------------------------------------------------------------------| GTR
|----5---7---9---10--9---10--12--14--10--5---12--9---3----------------|  III
|-0----0---0---0---0---0---0---0---0---0-5-----0---0-3----------------|
|----------------------------------------3-----------1----------------|
|      .   .   .   .   .   .   .   .   .       .   .                  |
|---------------------------------------------------------------------|
|---------------------------------------------------------------------|
|---------------------------------------------------------------------|
|----2---3---5---7---5---7---9---10--7---5---7---3---3----------------| GTR IV
|-0----0---0---0---0---0---0---0---0---0-5-----0---0-3----------------|
|----------------------------------------3-----------1----------------|
       .   .   .   .   .   .   .   .   .       .   .



|/1717~\-/1919~\-/2020~\-/2222-20-22fb-20-22~-20242220--2220--20-----------|
|-----------------------------------------------------24----22--24202422---|
|-----------------------------------------------------------------------21~|
|--------------------------------------------------------------------------|
|--------------------------------------------------------------------------|
|--------------------------------------------------------------------------|
|                                                                          |
|/2020~\-/2222~\-/2424~\-/2424-20-22------22~---20-------------------------|
|-------------------------------------24------24--2422202422--2220--20--20~|
|-----------------------------------------------------------22----21--22---|
|--------------------------------------------------------------------------|
|--------------------------------------------------------------------------|
|--------------------------------------------------------------------------|
|                                                                     |
|---------------------------------------------------------------------|
|---------------------------------------------------------------------|
|----------------------------------------------------7----------------| GTR
|----5---7---9---10--9---10--12--14--10--5---12--9---7----------------|  III
|-0----0---0---0---0---0---0---0---0---0-5-----0---0-5----------------|
|----------------------------------------3----------------------------|
|      .   .   .   .   .   .   .   .   .       .   .                  |
|---------------------------------------------------------------------|
|---------------------------------------------------------------------|
|----------------------------------------------------7----------------|
|----2---3---5---7---5---7---9---10--7---5---7---3---7----------------| GTR IV
|-0----0---0---0---0---0---0---0---0---0-5-----0---0-5----------------|
|----------------------------------------3----------------------------|
       .   .   .   .   .   .   .   .   .       .   .

  Riff H   3:28

RiFF I

|---------------------------------------------------------|
|---------------------------------------------------------|
|---------------------------------------------------------| All
|---------------------------------------------------------| GTRs
|-2-2-2--2--2-2--2--2--2-2-2--2-2-2--2--2-2--2--2--2-2-2--|
|-0-0-0--0--0-0--0--0--0-0-0--0-0-0--0--0-0--0--0--0-0-0--|
  . . .  .  . .  .  .  . . .  . . .  .  . .  .  .  . . .

|---------------------------------------------------------|
|---------------------------------------------------------|
|---------------------------------------------------------| All
|---------------------------------------------------------| GTRs
|-2-2-2--2--2-2--2--2--2-2-2--2-2-2--2--2-2--2--2--2-2-2--|
|-0-0-0--0--0-0--0--0--0-0-0--0-0-0--0--0-0--0--0--0-0-0--|
  . . .  .  . .  .  .  . . .  . . .  .  . .  .  .  . . .

|---------------------------------------------------------|
|---------------------------------------------------------|
|---------------------------------------------------------| All
|---------------------------------------------------------| GTRs
|-2-2-2--2--2-2--2--2--2-2-2--2-2-2--2--2-2--2--2--2-2-2--|
|-0-0-0--0--0-0--0--0--0-0-0--0-0-0--0--0-0--0--0--0-0-0--|
| . . .  .  . .  .  .  . . .  . . .  .  . .  .  .  . . .  |

|---------------------------------------------------------|
|---------------------------------------------------------|
|-----------7---------------------------4-----------------| All
|-----------7---------------------------4-----------------| GTRs
|-2-2-2--2--5-----------------2-2-2--2--2-----------------|
|-0-0-0--0--------------------0-0-0--0--------------------|
  . . .  .                    . . .  .

  RiFF I   3:40

RiFF J  * Guitar II is an acoustic playing chords with fingers
          There may be strumming but it is too hard to hear ...

|----------------------------------------------------------------------|
|-13-12h13p12--------------18-17-17h18p17-15----15-17--18-15-----------|
|-------------14--------17-------------------17---------------16-17-14~|
|----------------14-/15------------------------------------------------| GTR I
|----------------------------------------------------------------------|
|----------------------------------------------------------------------|
|                                                                      |
|----------------------------------------------------------------------|
|-----------------------------7----------------------------------------|
|-6---------------------------7----------------------------------------|
|-7---------2----3------------7-------5-------3------------------------| GTR
|-7---------2----3------------5-------5-------3------------------------|  II
|-5---------0----1--------------------3-------1------------------------|

|----------------------------------------------------------------------|
|-13-12h13p12--------------18-17-17h18p17-15----15-17--18-15-----------|
|-------------14--------17-------------------17--------------1716-17/19|
|----------------14-/15------------------------------------------------| GTR I
|----------------------------------------------------------------------|
|----------------------------------------------------------------------|
|                                                                      |
|----------------------------------------------------------------------|
|-----------------------------7----------------------------------------|
|-6---------------------------7----------------------------------------|
|-7---------2----3------------7-------5-------3------------------------| GTR
|-7---------2----3------------5-------5-------3------------------------|  II
|-5---------0----1--------------------3-------1------------------------|

|----------------------------------------------------------------------|
|----------------12-13-------------------------------------------------|
|-/14--12--12-14-------14~-------------5-------------------------------|
|--------------------------------------5--5-5----7---------------------| GTR I
|--------------------------------------3--3-5--5-7----7-7-7-7----------|
|-------------------------------------------3--3-5----5-5-5-5----------|
|                                                     . . . .          |
|----------------------------------------------------------------------|
|----------------------------------------------------------------------|
|--------------------------------------5-------------------------------|
|-3------5---2----3--------------------5--5-5----7---------------------| GTR
|-3------5---2----3--------------------3--3-5--5-7----7-7-7-7----------|  II
|-1------3---0----1-------------------------3--3-5----5-5-5-5----------|
                                                      . . . .
    RiFF J   3:52

Complete Song Structure

  RiFF A.1                0:00
  RiFF A.2 x 2            0:02
  RiFF A.1                0:27
  RiFF B x 2              0:29
  RiFF C.1 x 2            0:41 On second repeat go back to
  RiFF B x 2              0:52
  RiFF C.2                1:03
  RiFF D.1                1:10
  FiLL                    1:30
  RiFF D.2                1:33
  Variation RiFF A.2 x 2  1:59
  RiFF A.1                2:22
  RiFF B x 2              2:26
  RiFF C.1                2:37 Ignore Repeat and First and Second Ending
  RiFF F.1 x 2            2:42
  RiFF F.2                2:53
  RiFF G x 2              3:06  On second Ending proceed to
  RiFF B x 2              3:16
  Riff H                  3:28
  RiFF I                  3:40
  RiFF J                  3:52
comments
We did not receive enough feedback on this tab! Please rate:
print report bad tab
1 2 3 4 5
1 comment total.
0 reply
Xx_banx wrote on January 24 2005, 12:00 am

ya dude it is quite confusing and im an avid tab looker-upper heh heh

I want to post or [tab]
guest
You may want to rate the tab now too:
select rating
Please do not post tabs as comments. Select "correction" instead!